 0
SECTION
 2
HEADER
 9
$ACADVER
 1
AC1009
 0
ENDSEC
 0
SECTION
 2
TABLES
 0
TABLE
 2
LTYPE
 70
1
 0
LTYPE
 2
CONTINUOUS
 70
64
 3
solid line
 72
65
 73
0
 40
0.0
 0
ENDTAB
 0
TABLE
 2
LAYER
 70
6
 0
LAYER
 2
0
 70
0
 62
7
 6
CONTINUOUS
 0
LAYER
 2
EXTRUDE_3
 70
64
 62
23
 6
CONTINUOUS
 0
LAYER
 2
TAPA_1
 70
64
 62
23
 6
CONTINUOUS
 0
LAYER
 2
TAPA_2
 70
64
 62
23
 6
CONTINUOUS
 0
LAYER
 2
EXTRUDE_2
 70
64
 62
23
 6
CONTINUOUS
 0
LAYER
 2
TAPA_1_1
 70
64
 62
23
 6
CONTINUOUS
 0
LAYER
 2
TAPA_2_1
 70
64
 62
23
 6
CONTINUOUS
 0
LAYER
 2
EXTRUDE_1
 70
64
 62
23
 6
CONTINUOUS
 0
LAYER
 2
TAPA_1_2
 70
64
 62
23
 6
CONTINUOUS
 0
LAYER
 2
TAPA_2_2
 70
64
 62
23
 6
CONTINUOUS
 0
LAYER
 2
LATHE_3
 70
64
 62
25
 6
CONTINUOUS
 0
LAYER
 2
LATHE_2
 70
64
 62
25
 6
CONTINUOUS
 0
LAYER
 2
LATHE_1
 70
64
 62
25
 6
CONTINUOUS
 0
LAYER
 2
EXTRUDE
 70
64
 62
23
 6
CONTINUOUS
 0
LAYER
 2
TAPA_1_3
 70
64
 62
23
 6
CONTINUOUS
 0
LAYER
 2
TAPA_2_3
 70
64
 62
23
 6
CONTINUOUS
 0
LAYER
 2
CUBE
 70
64
 62
25
 6
CONTINUOUS
 0
LAYER
 2
CYLINDER_2
 70
64
 62
23
 6
CONTINUOUS
 0
LAYER
 2
CYLINDER_1
 70
64
 62
23
 6
CONTINUOUS
 0
LAYER
 2
CYLINDER
 70
64
 62
252
 6
CONTINUOUS
 0
LAYER
 2
LATHE
 70
64
 62
25
 6
CONTINUOUS
 0
ENDTAB
 0
ENDSEC
 0
SECTION
 2
BLOCKS
 0
ENDSEC
 0
SECTION
 2
ENTITIES
 0
POLYLINE
 8
EXTRUDE_3
 66
1
 10
0.0
 20
0.0
 30
0.0
 70
64
 71
136
 72
68
 0
VERTEX
 8
EXTRUDE_3
 10
-0.0904
 20
0.0091
 30
-0.0253
 70
192
 0
VERTEX
 8
EXTRUDE_3
 10
-0.0937
 20
0.0061
 30
-0.0239
 70
192
 0
VERTEX
 8
EXTRUDE_3
 10
-0.1012
 20
-0.001
 30
-0.0216
 70
192
 0
VERTEX
 8
EXTRUDE_3
 10
-0.1087
 20
-0.008
 30
-0.0204
 70
192
 0
VERTEX
 8
EXTRUDE_3
 10
-0.1176
 20
-0.0162
 30
-0.0202
 70
192
 0
VERTEX
 8
EXTRUDE_3
 10
-0.1255
 20
-0.0236
 30
-0.0211
 70
192
 0
VERTEX
 8
EXTRUDE_3
 10
-0.1339
 20
-0.0314
 30
-0.0233
 70
192
 0
VERTEX
 8
EXTRUDE_3
 10
-0.1405
 20
-0.0375
 30
-0.026
 70
192
 0
VERTEX
 8
EXTRUDE_3
 10
-0.1471
 20
-0.0437
 30
-0.0298
 70
192
 0
VERTEX
 8
EXTRUDE_3
 10
-0.1538
 20
-0.0499
 30
-0.0347
 70
192
 0
VERTEX
 8
EXTRUDE_3
 10
-0.1604
 20
-0.0561
 30
-0.041
 70
192
 0
VERTEX
 8
EXTRUDE_3
 10
-0.1648
 20
-0.0601
 30
-0.0459
 70
192
 0
VERTEX
 8
EXTRUDE_3
 10
-0.1712
 20
-0.0661
 30
-0.0546
 70
192
 0
VERTEX
 8
EXTRUDE_3
 10
-0.1713
 20
-0.0662
 30
-0.0546
 70
192
 0
VERTEX
 8
EXTRUDE_3
 10
-0.1718
 20
-0.0666
 30
-0.0543
 70
192
 0
VERTEX
 8
EXTRUDE_3
 10
-0.1791
 20
-0.0729
 30
-0.05
 70
192
 0
VERTEX
 8
EXTRUDE_3
 10
-0.1839
 20
-0.0771
 30
-0.0481
 70
192
 0
VERTEX
 8
EXTRUDE_3
 10
-0.1895
 20
-0.0821
 30
-0.0465
 70
192
 0
VERTEX
 8
EXTRUDE_3
 10
-0.1942
 20
-0.0863
 30
-0.0459
 70
192
 0
VERTEX
 8
EXTRUDE_3
 10
-0.1993
 20
-0.0909
 30
-0.0459
 70
192
 0
VERTEX
 8
EXTRUDE_3
 10
-0.2046
 20
-0.0957
 30
-0.0468
 70
192
 0
VERTEX
 8
EXTRUDE_3
 10
-0.2101
 20
-0.1008
 30
-0.0486
 70
192
 0
VERTEX
 8
EXTRUDE_3
 10
-0.2139
 20
-0.1043
 30
-0.0505
 70
192
 0
VERTEX
 8
EXTRUDE_3
 10
-0.2177
 20
-0.1079
 30
-0.0529
 70
192
 0
VERTEX
 8
EXTRUDE_3
 10
-0.2235
 20
-0.1135
 30
-0.0578
 70
192
 0
VERTEX
 8
EXTRUDE_3
 10
-0.2292
 20
-0.1191
 30
-0.0642
 70
192
 0
VERTEX
 8
EXTRUDE_3
 10
-0.235
 20
-0.1248
 30
-0.0724
 70
192
 0
VERTEX
 8
EXTRUDE_3
 10
-0.2387
 20
-0.1286
 30
-0.0789
 70
192
 0
VERTEX
 8
EXTRUDE_3
 10
-0.2424
 20
-0.1324
 30
-0.0864
 70
192
 0
VERTEX
 8
EXTRUDE_3
 10
-0.2483
 20
-0.1379
 30
-0.0846
 70
192
 0
VERTEX
 8
EXTRUDE_3
 10
-0.2574
 20
-0.1463
 30
-0.083
 70
192
 0
VERTEX
 8
EXTRUDE_3
 10
-0.2669
 20
-0.1552
 30
-0.0826
 70
192
 0
VERTEX
 8
EXTRUDE_3
 10
-0.2752
 20
-0.1629
 30
-0.0834
 70
192
 0
VERTEX
 8
EXTRUDE_3
 10
-0.2816
 20
-0.1688
 30
-0.085
 70
192
 0
VERTEX
 8
EXTRUDE_3
 10
-0.2879
 20
-0.1747
 30
-0.0876
 70
192
 0
VERTEX
 8
EXTRUDE_3
 10
-0.2919
 20
-0.1785
 30
-0.0899
 70
192
 0
VERTEX
 8
EXTRUDE_3
 10
-0.2958
 20
-0.1821
 30
-0.0929
 70
192
 0
VERTEX
 8
EXTRUDE_3
 10
-0.2995
 20
-0.1855
 30
-0.0965
 70
192
 0
VERTEX
 8
EXTRUDE_3
 10
-0.3029
 20
-0.1887
 30
-0.1007
 70
192
 0
VERTEX
 8
EXTRUDE_3
 10
-0.306
 20
-0.1916
 30
-0.1058
 70
192
 0
VERTEX
 8
EXTRUDE_3
 10
-0.3088
 20
-0.1941
 30
-0.1115
 70
192
 0
VERTEX
 8
EXTRUDE_3
 10
-0.3111
 20
-0.1963
 30
-0.1182
 70
192
 0
VERTEX
 8
EXTRUDE_3
 10
-0.3129
 20
-0.198
 30
-0.1257
 70
192
 0
VERTEX
 8
EXTRUDE_3
 10
-0.3142
 20
-0.1992
 30
-0.1342
 70
192
 0
VERTEX
 8
EXTRUDE_3
 10
-0.3149
 20
-0.1999
 30
-0.1436
 70
192
 0
VERTEX
 8
EXTRUDE_3
 10
-0.3147
 20
-0.1996
 30
-0.1433
 70
192
 0
VERTEX
 8
EXTRUDE_3
 10
-0.3143
 20
-0.1993
 30
-0.1431
 70
192
 0
VERTEX
 8
EXTRUDE_3
 10
-0.3137
 20
-0.1987
 30
-0.1428
 70
192
 0
VERTEX
 8
EXTRUDE_3
 10
-0.312
 20
-0.1971
 30
-0.1424
 70
192
 0
VERTEX
 8
EXTRUDE_3
 10
-0.2665
 20
-0.1548
 30
-0.1413
 70
192
 0
VERTEX
 8
EXTRUDE_3
 10
-0.2299
 20
-0.1207
 30
-0.1424
 70
192
 0
VERTEX
 8
EXTRUDE_3
 10
-0.2298
 20
-0.1206
 30
-0.142
 70
192
 0
VERTEX
 8
EXTRUDE_3
 10
-0.2296
 20
-0.1205
 30
-0.1409
 70
192
 0
VERTEX
 8
EXTRUDE_3
 10
-0.2293
 20
-0.1202
 30
-0.1397
 70
192
 0
VERTEX
 8
EXTRUDE_3
 10
-0.2288
 20
-0.1197
 30
-0.1382
 70
192
 0
VERTEX
 8
EXTRUDE_3
 10
-0.2282
 20
-0.1192
 30
-0.137
 70
192
 0
VERTEX
 8
EXTRUDE_3
 10
-0.2275
 20
-0.1185
 30
-0.1357
 70
192
 0
VERTEX
 8
EXTRUDE_3
 10
-0.2266
 20
-0.1177
 30
-0.1344
 70
192
 0
VERTEX
 8
EXTRUDE_3
 10
-0.2255
 20
-0.1166
 30
-0.1332
 70
192
 0
VERTEX
 8
EXTRUDE_3
 10
-0.2242
 20
-0.1154
 30
-0.132
 70
192
 0
VERTEX
 8
EXTRUDE_3
 10
-0.2226
 20
-0.1139
 30
-0.1309
 70
192
 0
VERTEX
 8
EXTRUDE_3
 10
-0.2208
 20
-0.1122
 30
-0.1299
 70
192
 0
VERTEX
 8
EXTRUDE_3
 10
-0.2186
 20
-0.1102
 30
-0.1291
 70
192
 0
VERTEX
 8
EXTRUDE_3
 10
-0.2162
 20
-0.108
 30
-0.1285
 70
192
 0
VERTEX
 8
EXTRUDE_3
 10
-0.2144
 20
-0.1063
 30
-0.1283
 70
192
 0
VERTEX
 8
EXTRUDE_3
 10
-0.2114
 20
-0.1035
 30
-0.1281
 70
192
 0
VERTEX
 8
EXTRUDE_3
 10
-0.0904
 20
0.0091
 30
-0.1245
 70
192
 0
VERTEX
 8
EXTRUDE_3
 10
-0.0904
 20
0.0091
 30
-0.0277
 70
192
 0
VERTEX
 8
EXTRUDE_3
 10
0.005
 20
-0.0934
 30
-0.0253
 70
192
 0
VERTEX
 8
EXTRUDE_3
 10
0.0017
 20
-0.0964
 30
-0.0239
 70
192
 0
VERTEX
 8
EXTRUDE_3
 10
-0.0058
 20
-0.1034
 30
-0.0216
 70
192
 0
VERTEX
 8
EXTRUDE_3
 10
-0.0133
 20
-0.1104
 30
-0.0204
 70
192
 0
VERTEX
 8
EXTRUDE_3
 10
-0.0223
 20
-0.1187
 30
-0.0202
 70
192
 0
VERTEX
 8
EXTRUDE_3
 10
-0.0302
 20
-0.1261
 30
-0.0211
 70
192
 0
VERTEX
 8
EXTRUDE_3
 10
-0.0386
 20
-0.1339
 30
-0.0233
 70
192
 0
VERTEX
 8
EXTRUDE_3
 10
-0.0451
 20
-0.14
 30
-0.026
 70
192
 0
VERTEX
 8
EXTRUDE_3
 10
-0.0517
 20
-0.1461
 30
-0.0298
 70
192
 0
VERTEX
 8
EXTRUDE_3
 10
-0.0584
 20
-0.1524
 30
-0.0347
 70
192
 0
VERTEX
 8
EXTRUDE_3
 10
-0.065
 20
-0.1585
 30
-0.041
 70
192
 0
VERTEX
 8
EXTRUDE_3
 10
-0.0694
 20
-0.1626
 30
-0.0459
 70
192
 0
VERTEX
 8
EXTRUDE_3
 10
-0.0758
 20
-0.1686
 30
-0.0546
 70
192
 0
VERTEX
 8
EXTRUDE_3
 10
-0.0759
 20
-0.1687
 30
-0.0546
 70
192
 0
VERTEX
 8
EXTRUDE_3
 10
-0.0764
 20
-0.1691
 30
-0.0543
 70
192
 0
VERTEX
 8
EXTRUDE_3
 10
-0.0837
 20
-0.1754
 30
-0.05
 70
192
 0
VERTEX
 8
EXTRUDE_3
 10
-0.0885
 20
-0.1796
 30
-0.0481
 70
192
 0
VERTEX
 8
EXTRUDE_3
 10
-0.0941
 20
-0.1846
 30
-0.0465
 70
192
 0
VERTEX
 8
EXTRUDE_3
 10
-0.0988
 20
-0.1888
 30
-0.0459
 70
192
 0
VERTEX
 8
EXTRUDE_3
 10
-0.1039
 20
-0.1934
 30
-0.0459
 70
192
 0
VERTEX
 8
EXTRUDE_3
 10
-0.1092
 20
-0.1982
 30
-0.0468
 70
192
 0
VERTEX
 8
EXTRUDE_3
 10
-0.1147
 20
-0.2033
 30
-0.0486
 70
192
 0
VERTEX
 8
EXTRUDE_3
 10
-0.1185
 20
-0.2068
 30
-0.0505
 70
192
 0
VERTEX
 8
EXTRUDE_3
 10
-0.1223
 20
-0.2104
 30
-0.0529
 70
192
 0
VERTEX
 8
EXTRUDE_3
 10
-0.1281
 20
-0.2159
 30
-0.0578
 70
192
 0
VERTEX
 8
EXTRUDE_3
 10
-0.1339
 20
-0.2216
 30
-0.0642
 70
192
 0
VERTEX
 8
EXTRUDE_3
 10
-0.1396
 20
-0.2273
 30
-0.0724
 70
192
 0
VERTEX
 8
EXTRUDE_3
 10
-0.1433
 20
-0.2311
 30
-0.0789
 70
192
 0
VERTEX
 8
EXTRUDE_3
 10
-0.147
 20
-0.2348
 30
-0.0864
 70
192
 0
VERTEX
 8
EXTRUDE_3
 10
-0.1529
 20
-0.2404
 30
-0.0846
 70
192
 0
VERTEX
 8
EXTRUDE_3
 10
-0.162
 20
-0.2488
 30
-0.083
 70
192
 0
VERTEX
 8
EXTRUDE_3
 10
-0.1715
 20
-0.2577
 30
-0.0826
 70
192
 0
VERTEX
 8
EXTRUDE_3
 10
-0.1799
 20
-0.2654
 30
-0.0834
 70
192
 0
VERTEX
 8
EXTRUDE_3
 10
-0.1862
 20
-0.2713
 30
-0.085
 70
192
 0
VERTEX
 8
EXTRUDE_3
 10
-0.1925
 20
-0.2772
 30
-0.0876
 70
192
 0
VERTEX
 8
EXTRUDE_3
 10
-0.1966
 20
-0.281
 30
-0.0899
 70
192
 0
VERTEX
 8
EXTRUDE_3
 10
-0.2005
 20
-0.2846
 30
-0.0929
 70
192
 0
VERTEX
 8
EXTRUDE_3
 10
-0.2042
 20
-0.288
 30
-0.0965
 70
192
 0
VERTEX
 8
EXTRUDE_3
 10
-0.2076
 20
-0.2912
 30
-0.1007
 70
192
 0
VERTEX
 8
EXTRUDE_3
 10
-0.2107
 20
-0.2941
 30
-0.1058
 70
192
 0
VERTEX
 8
EXTRUDE_3
 10
-0.2134
 20
-0.2966
 30
-0.1115
 70
192
 0
VERTEX
 8
EXTRUDE_3
 10
-0.2157
 20
-0.2988
 30
-0.1182
 70
192
 0
VERTEX
 8
EXTRUDE_3
 10
-0.2175
 20
-0.3005
 30
-0.1257
 70
192
 0
VERTEX
 8
EXTRUDE_3
 10
-0.2188
 20
-0.3017
 30
-0.1342
 70
192
 0
VERTEX
 8
EXTRUDE_3
 10
-0.2196
 20
-0.3024
 30
-0.1436
 70
192
 0
VERTEX
 8
EXTRUDE_3
 10
-0.2193
 20
-0.3021
 30
-0.1433
 70
192
 0
VERTEX
 8
EXTRUDE_3
 10
-0.2189
 20
-0.3017
 30
-0.1431
 70
192
 0
VERTEX
 8
EXTRUDE_3
 10
-0.2183
 20
-0.3012
 30
-0.1428
 70
192
 0
VERTEX
 8
EXTRUDE_3
 10
-0.2166
 20
-0.2996
 30
-0.1424
 70
192
 0
VERTEX
 8
EXTRUDE_3
 10
-0.1711
 20
-0.2573
 30
-0.1413
 70
192
 0
VERTEX
 8
EXTRUDE_3
 10
-0.1345
 20
-0.2232
 30
-0.1424
 70
192
 0
VERTEX
 8
EXTRUDE_3
 10
-0.1344
 20
-0.2231
 30
-0.142
 70
192
 0
VERTEX
 8
EXTRUDE_3
 10
-0.1342
 20
-0.223
 30
-0.1409
 70
192
 0
VERTEX
 8
EXTRUDE_3
 10
-0.1339
 20
-0.2227
 30
-0.1397
 70
192
 0
VERTEX
 8
EXTRUDE_3
 10
-0.1334
 20
-0.2222
 30
-0.1382
 70
192
 0
VERTEX
 8
EXTRUDE_3
 10
-0.1328
 20
-0.2216
 30
-0.137
 70
192
 0
VERTEX
 8
EXTRUDE_3
 10
-0.1321
 20
-0.221
 30
-0.1357
 70
192
 0
VERTEX
 8
EXTRUDE_3
 10
-0.1312
 20
-0.2201
 30
-0.1344
 70
192
 0
VERTEX
 8
EXTRUDE_3
 10
-0.1301
 20
-0.2191
 30
-0.1332
 70
192
 0
VERTEX
 8
EXTRUDE_3
 10
-0.1288
 20
-0.2179
 30
-0.132
 70
192
 0
VERTEX
 8
EXTRUDE_3
 10
-0.1272
 20
-0.2164
 30
-0.1309
 70
192
 0
VERTEX
 8
EXTRUDE_3
 10
-0.1254
 20
-0.2147
 30
-0.1299
 70
192
 0
VERTEX
 8
EXTRUDE_3
 10
-0.1233
 20
-0.2127
 30
-0.1291
 70
192
 0
VERTEX
 8
EXTRUDE_3
 10
-0.1208
 20
-0.2105
 30
-0.1285
 70
192
 0
VERTEX
 8
EXTRUDE_3
 10
-0.119
 20
-0.2088
 30
-0.1283
 70
192
 0
VERTEX
 8
EXTRUDE_3
 10
-0.1161
 20
-0.206
 30
-0.1281
 70
192
 0
VERTEX
 8
EXTRUDE_3
 10
0.005
 20
-0.0934
 30
-0.1245
 70
192
 0
VERTEX
 8
EXTRUDE_3
 10
0.005
 20
-0.0934
 30
-0.0277
 70
192
 0
VERTEX
 8
EXTRUDE_3
 10
0
 20
0
 30
0
 70
128
 71
1
 72
69
 73
70
 74
2
 0
VERTEX
 8
EXTRUDE_3
 10
0
 20
0
 30
0
 70
128
 71
2
 72
70
 73
71
 74
3
 0
VERTEX
 8
EXTRUDE_3
 10
0
 20
0
 30
0
 70
128
 71
3
 72
71
 73
72
 74
4
 0
VERTEX
 8
EXTRUDE_3
 10
0
 20
0
 30
0
 70
128
 71
4
 72
72
 73
73
 74
5
 0
VERTEX
 8
EXTRUDE_3
 10
0
 20
0
 30
0
 70
128
 71
5
 72
73
 73
74
 74
6
 0
VERTEX
 8
EXTRUDE_3
 10
0
 20
0
 30
0
 70
128
 71
6
 72
74
 73
75
 74
7
 0
VERTEX
 8
EXTRUDE_3
 10
0
 20
0
 30
0
 70
128
 71
7
 72
75
 73
76
 74
8
 0
VERTEX
 8
EXTRUDE_3
 10
0
 20
0
 30
0
 70
128
 71
8
 72
76
 73
77
 74
9
 0
VERTEX
 8
EXTRUDE_3
 10
0
 20
0
 30
0
 70
128
 71
9
 72
77
 73
78
 74
10
 0
VERTEX
 8
EXTRUDE_3
 10
0
 20
0
 30
0
 70
128
 71
10
 72
78
 73
79
 74
11
 0
VERTEX
 8
EXTRUDE_3
 10
0
 20
0
 30
0
 70
128
 71
11
 72
79
 73
80
 74
12
 0
VERTEX
 8
EXTRUDE_3
 10
0
 20
0
 30
0
 70
128
 71
12
 72
80
 73
81
 74
13
 0
VERTEX
 8
EXTRUDE_3
 10
0
 20
0
 30
0
 70
128
 71
13
 72
81
 73
82
 74
14
 0
VERTEX
 8
EXTRUDE_3
 10
0
 20
0
 30
0
 70
128
 71
14
 72
82
 73
83
 74
15
 0
VERTEX
 8
EXTRUDE_3
 10
0
 20
0
 30
0
 70
128
 71
15
 72
83
 73
84
 74
16
 0
VERTEX
 8
EXTRUDE_3
 10
0
 20
0
 30
0
 70
128
 71
16
 72
84
 73
85
 74
17
 0
VERTEX
 8
EXTRUDE_3
 10
0
 20
0
 30
0
 70
128
 71
17
 72
85
 73
86
 74
18
 0
VERTEX
 8
EXTRUDE_3
 10
0
 20
0
 30
0
 70
128
 71
18
 72
86
 73
87
 74
19
 0
VERTEX
 8
EXTRUDE_3
 10
0
 20
0
 30
0
 70
128
 71
19
 72
87
 73
88
 74
20
 0
VERTEX
 8
EXTRUDE_3
 10
0
 20
0
 30
0
 70
128
 71
20
 72
88
 73
89
 74
21
 0
VERTEX
 8
EXTRUDE_3
 10
0
 20
0
 30
0
 70
128
 71
21
 72
89
 73
90
 74
22
 0
VERTEX
 8
EXTRUDE_3
 10
0
 20
0
 30
0
 70
128
 71
22
 72
90
 73
91
 74
23
 0
VERTEX
 8
EXTRUDE_3
 10
0
 20
0
 30
0
 70
128
 71
23
 72
91
 73
92
 74
24
 0
VERTEX
 8
EXTRUDE_3
 10
0
 20
0
 30
0
 70
128
 71
24
 72
92
 73
93
 74
25
 0
VERTEX
 8
EXTRUDE_3
 10
0
 20
0
 30
0
 70
128
 71
25
 72
93
 73
94
 74
26
 0
VERTEX
 8
EXTRUDE_3
 10
0
 20
0
 30
0
 70
128
 71
26
 72
94
 73
95
 74
27
 0
VERTEX
 8
EXTRUDE_3
 10
0
 20
0
 30
0
 70
128
 71
27
 72
95
 73
96
 74
28
 0
VERTEX
 8
EXTRUDE_3
 10
0
 20
0
 30
0
 70
128
 71
28
 72
96
 73
97
 74
29
 0
VERTEX
 8
EXTRUDE_3
 10
0
 20
0
 30
0
 70
128
 71
29
 72
97
 73
98
 74
30
 0
VERTEX
 8
EXTRUDE_3
 10
0
 20
0
 30
0
 70
128
 71
30
 72
98
 73
99
 74
31
 0
VERTEX
 8
EXTRUDE_3
 10
0
 20
0
 30
0
 70
128
 71
31
 72
99
 73
100
 74
32
 0
VERTEX
 8
EXTRUDE_3
 10
0
 20
0
 30
0
 70
128
 71
32
 72
100
 73
101
 74
33
 0
VERTEX
 8
EXTRUDE_3
 10
0
 20
0
 30
0
 70
128
 71
33
 72
101
 73
102
 74
34
 0
VERTEX
 8
EXTRUDE_3
 10
0
 20
0
 30
0
 70
128
 71
34
 72
102
 73
103
 74
35
 0
VERTEX
 8
EXTRUDE_3
 10
0
 20
0
 30
0
 70
128
 71
35
 72
103
 73
104
 74
36
 0
VERTEX
 8
EXTRUDE_3
 10
0
 20
0
 30
0
 70
128
 71
36
 72
104
 73
105
 74
37
 0
VERTEX
 8
EXTRUDE_3
 10
0
 20
0
 30
0
 70
128
 71
37
 72
105
 73
106
 74
38
 0
VERTEX
 8
EXTRUDE_3
 10
0
 20
0
 30
0
 70
128
 71
38
 72
106
 73
107
 74
39
 0
VERTEX
 8
EXTRUDE_3
 10
0
 20
0
 30
0
 70
128
 71
39
 72
107
 73
108
 74
40
 0
VERTEX
 8
EXTRUDE_3
 10
0
 20
0
 30
0
 70
128
 71
40
 72
108
 73
109
 74
41
 0
VERTEX
 8
EXTRUDE_3
 10
0
 20
0
 30
0
 70
128
 71
41
 72
109
 73
110
 74
42
 0
VERTEX
 8
EXTRUDE_3
 10
0
 20
0
 30
0
 70
128
 71
42
 72
110
 73
111
 74
43
 0
VERTEX
 8
EXTRUDE_3
 10
0
 20
0
 30
0
 70
128
 71
43
 72
111
 73
112
 74
44
 0
VERTEX
 8
EXTRUDE_3
 10
0
 20
0
 30
0
 70
128
 71
44
 72
112
 73
113
 74
45
 0
VERTEX
 8
EXTRUDE_3
 10
0
 20
0
 30
0
 70
128
 71
45
 72
113
 73
114
 74
46
 0
VERTEX
 8
EXTRUDE_3
 10
0
 20
0
 30
0
 70
128
 71
46
 72
114
 73
115
 74
47
 0
VERTEX
 8
EXTRUDE_3
 10
0
 20
0
 30
0
 70
128
 71
47
 72
115
 73
116
 74
48
 0
VERTEX
 8
EXTRUDE_3
 10
0
 20
0
 30
0
 70
128
 71
48
 72
116
 73
117
 74
49
 0
VERTEX
 8
EXTRUDE_3
 10
0
 20
0
 30
0
 70
128
 71
49
 72
117
 73
118
 74
50
 0
VERTEX
 8
EXTRUDE_3
 10
0
 20
0
 30
0
 70
128
 71
50
 72
118
 73
119
 74
51
 0
VERTEX
 8
EXTRUDE_3
 10
0
 20
0
 30
0
 70
128
 71
51
 72
119
 73
120
 74
52
 0
VERTEX
 8
EXTRUDE_3
 10
0
 20
0
 30
0
 70
128
 71
52
 72
120
 73
121
 74
53
 0
VERTEX
 8
EXTRUDE_3
 10
0
 20
0
 30
0
 70
128
 71
53
 72
121
 73
122
 74
54
 0
VERTEX
 8
EXTRUDE_3
 10
0
 20
0
 30
0
 70
128
 71
54
 72
122
 73
123
 74
55
 0
VERTEX
 8
EXTRUDE_3
 10
0
 20
0
 30
0
 70
128
 71
55
 72
123
 73
124
 74
56
 0
VERTEX
 8
EXTRUDE_3
 10
0
 20
0
 30
0
 70
128
 71
56
 72
124
 73
125
 74
57
 0
VERTEX
 8
EXTRUDE_3
 10
0
 20
0
 30
0
 70
128
 71
57
 72
125
 73
126
 74
58
 0
VERTEX
 8
EXTRUDE_3
 10
0
 20
0
 30
0
 70
128
 71
58
 72
126
 73
127
 74
59
 0
VERTEX
 8
EXTRUDE_3
 10
0
 20
0
 30
0
 70
128
 71
59
 72
127
 73
128
 74
60
 0
VERTEX
 8
EXTRUDE_3
 10
0
 20
0
 30
0
 70
128
 71
60
 72
128
 73
129
 74
61
 0
VERTEX
 8
EXTRUDE_3
 10
0
 20
0
 30
0
 70
128
 71
61
 72
129
 73
130
 74
62
 0
VERTEX
 8
EXTRUDE_3
 10
0
 20
0
 30
0
 70
128
 71
62
 72
130
 73
131
 74
63
 0
VERTEX
 8
EXTRUDE_3
 10
0
 20
0
 30
0
 70
128
 71
63
 72
131
 73
132
 74
64
 0
VERTEX
 8
EXTRUDE_3
 10
0
 20
0
 30
0
 70
128
 71
64
 72
132
 73
133
 74
65
 0
VERTEX
 8
EXTRUDE_3
 10
0
 20
0
 30
0
 70
128
 71
65
 72
133
 73
134
 74
66
 0
VERTEX
 8
EXTRUDE_3
 10
0
 20
0
 30
0
 70
128
 71
66
 72
134
 73
135
 74
67
 0
VERTEX
 8
EXTRUDE_3
 10
0
 20
0
 30
0
 70
128
 71
67
 72
135
 73
136
 74
68
 0
VERTEX
 8
EXTRUDE_3
 10
0
 20
0
 30
0
 70
128
 71
68
 72
136
 73
69
 74
1
 0
SEQEND
 0
POLYLINE
 8
TAPA_1
 66
1
 10
0.0
 20
0.0
 30
0.0
 70
64
 71
68
 72
56
 0
VERTEX
 8
TAPA_1
 10
-0.0904
 20
0.0091
 30
-0.0253
 70
192
 0
VERTEX
 8
TAPA_1
 10
-0.0937
 20
0.0061
 30
-0.0239
 70
192
 0
VERTEX
 8
TAPA_1
 10
-0.1012
 20
-0.001
 30
-0.0216
 70
192
 0
VERTEX
 8
TAPA_1
 10
-0.1087
 20
-0.008
 30
-0.0204
 70
192
 0
VERTEX
 8
TAPA_1
 10
-0.1176
 20
-0.0162
 30
-0.0202
 70
192
 0
VERTEX
 8
TAPA_1
 10
-0.1255
 20
-0.0236
 30
-0.0211
 70
192
 0
VERTEX
 8
TAPA_1
 10
-0.1339
 20
-0.0314
 30
-0.0233
 70
192
 0
VERTEX
 8
TAPA_1
 10
-0.1405
 20
-0.0375
 30
-0.026
 70
192
 0
VERTEX
 8
TAPA_1
 10
-0.1471
 20
-0.0437
 30
-0.0298
 70
192
 0
VERTEX
 8
TAPA_1
 10
-0.1538
 20
-0.0499
 30
-0.0347
 70
192
 0
VERTEX
 8
TAPA_1
 10
-0.1604
 20
-0.0561
 30
-0.041
 70
192
 0
VERTEX
 8
TAPA_1
 10
-0.1648
 20
-0.0601
 30
-0.0459
 70
192
 0
VERTEX
 8
TAPA_1
 10
-0.1712
 20
-0.0661
 30
-0.0546
 70
192
 0
VERTEX
 8
TAPA_1
 10
-0.1713
 20
-0.0662
 30
-0.0546
 70
192
 0
VERTEX
 8
TAPA_1
 10
-0.1718
 20
-0.0666
 30
-0.0543
 70
192
 0
VERTEX
 8
TAPA_1
 10
-0.1791
 20
-0.0729
 30
-0.05
 70
192
 0
VERTEX
 8
TAPA_1
 10
-0.1839
 20
-0.0771
 30
-0.0481
 70
192
 0
VERTEX
 8
TAPA_1
 10
-0.1895
 20
-0.0821
 30
-0.0465
 70
192
 0
VERTEX
 8
TAPA_1
 10
-0.1942
 20
-0.0863
 30
-0.0459
 70
192
 0
VERTEX
 8
TAPA_1
 10
-0.1993
 20
-0.0909
 30
-0.0459
 70
192
 0
VERTEX
 8
TAPA_1
 10
-0.2046
 20
-0.0957
 30
-0.0468
 70
192
 0
VERTEX
 8
TAPA_1
 10
-0.2101
 20
-0.1008
 30
-0.0486
 70
192
 0
VERTEX
 8
TAPA_1
 10
-0.2139
 20
-0.1043
 30
-0.0505
 70
192
 0
VERTEX
 8
TAPA_1
 10
-0.2177
 20
-0.1079
 30
-0.0529
 70
192
 0
VERTEX
 8
TAPA_1
 10
-0.2235
 20
-0.1135
 30
-0.0578
 70
192
 0
VERTEX
 8
TAPA_1
 10
-0.2292
 20
-0.1191
 30
-0.0642
 70
192
 0
VERTEX
 8
TAPA_1
 10
-0.235
 20
-0.1248
 30
-0.0724
 70
192
 0
VERTEX
 8
TAPA_1
 10
-0.2387
 20
-0.1286
 30
-0.0789
 70
192
 0
VERTEX
 8
TAPA_1
 10
-0.2424
 20
-0.1324
 30
-0.0864
 70
192
 0
VERTEX
 8
TAPA_1
 10
-0.2483
 20
-0.1379
 30
-0.0846
 70
192
 0
VERTEX
 8
TAPA_1
 10
-0.2574
 20
-0.1463
 30
-0.083
 70
192
 0
VERTEX
 8
TAPA_1
 10
-0.2669
 20
-0.1552
 30
-0.0826
 70
192
 0
VERTEX
 8
TAPA_1
 10
-0.2752
 20
-0.1629
 30
-0.0834
 70
192
 0
VERTEX
 8
TAPA_1
 10
-0.2816
 20
-0.1688
 30
-0.085
 70
192
 0
VERTEX
 8
TAPA_1
 10
-0.2879
 20
-0.1747
 30
-0.0876
 70
192
 0
VERTEX
 8
TAPA_1
 10
-0.2919
 20
-0.1785
 30
-0.0899
 70
192
 0
VERTEX
 8
TAPA_1
 10
-0.2958
 20
-0.1821
 30
-0.0929
 70
192
 0
VERTEX
 8
TAPA_1
 10
-0.2995
 20
-0.1855
 30
-0.0965
 70
192
 0
VERTEX
 8
TAPA_1
 10
-0.3029
 20
-0.1887
 30
-0.1007
 70
192
 0
VERTEX
 8
TAPA_1
 10
-0.306
 20
-0.1916
 30
-0.1058
 70
192
 0
VERTEX
 8
TAPA_1
 10
-0.3088
 20
-0.1941
 30
-0.1115
 70
192
 0
VERTEX
 8
TAPA_1
 10
-0.3111
 20
-0.1963
 30
-0.1182
 70
192
 0
VERTEX
 8
TAPA_1
 10
-0.3129
 20
-0.198
 30
-0.1257
 70
192
 0
VERTEX
 8
TAPA_1
 10
-0.3142
 20
-0.1992
 30
-0.1342
 70
192
 0
VERTEX
 8
TAPA_1
 10
-0.3149
 20
-0.1999
 30
-0.1436
 70
192
 0
VERTEX
 8
TAPA_1
 10
-0.3147
 20
-0.1996
 30
-0.1433
 70
192
 0
VERTEX
 8
TAPA_1
 10
-0.3143
 20
-0.1993
 30
-0.1431
 70
192
 0
VERTEX
 8
TAPA_1
 10
-0.3137
 20
-0.1987
 30
-0.1428
 70
192
 0
VERTEX
 8
TAPA_1
 10
-0.312
 20
-0.1971
 30
-0.1424
 70
192
 0
VERTEX
 8
TAPA_1
 10
-0.2665
 20
-0.1548
 30
-0.1413
 70
192
 0
VERTEX
 8
TAPA_1
 10
-0.2299
 20
-0.1207
 30
-0.1424
 70
192
 0
VERTEX
 8
TAPA_1
 10
-0.2298
 20
-0.1206
 30
-0.142
 70
192
 0
VERTEX
 8
TAPA_1
 10
-0.2296
 20
-0.1205
 30
-0.1409
 70
192
 0
VERTEX
 8
TAPA_1
 10
-0.2293
 20
-0.1202
 30
-0.1397
 70
192
 0
VERTEX
 8
TAPA_1
 10
-0.2288
 20
-0.1197
 30
-0.1382
 70
192
 0
VERTEX
 8
TAPA_1
 10
-0.2282
 20
-0.1192
 30
-0.137
 70
192
 0
VERTEX
 8
TAPA_1
 10
-0.2275
 20
-0.1185
 30
-0.1357
 70
192
 0
VERTEX
 8
TAPA_1
 10
-0.2266
 20
-0.1177
 30
-0.1344
 70
192
 0
VERTEX
 8
TAPA_1
 10
-0.2255
 20
-0.1166
 30
-0.1332
 70
192
 0
VERTEX
 8
TAPA_1
 10
-0.2242
 20
-0.1154
 30
-0.132
 70
192
 0
VERTEX
 8
TAPA_1
 10
-0.2226
 20
-0.1139
 30
-0.1309
 70
192
 0
VERTEX
 8
TAPA_1
 10
-0.2208
 20
-0.1122
 30
-0.1299
 70
192
 0
VERTEX
 8
TAPA_1
 10
-0.2186
 20
-0.1102
 30
-0.1291
 70
192
 0
VERTEX
 8
TAPA_1
 10
-0.2162
 20
-0.108
 30
-0.1285
 70
192
 0
VERTEX
 8
TAPA_1
 10
-0.2144
 20
-0.1063
 30
-0.1283
 70
192
 0
VERTEX
 8
TAPA_1
 10
-0.2114
 20
-0.1035
 30
-0.1281
 70
192
 0
VERTEX
 8
TAPA_1
 10
-0.0904
 20
0.0091
 30
-0.1245
 70
192
 0
VERTEX
 8
TAPA_1
 10
-0.0904
 20
0.0091
 30
-0.0277
 70
192
 0
VERTEX
 8
TAPA_1
 10
0
 20
0
 30
0
 70
128
 71
1
 72
2
 73
68
 74
68
 0
VERTEX
 8
TAPA_1
 10
0
 20
0
 30
0
 70
128
 71
68
 72
2
 73
3
 74
4
 0
VERTEX
 8
TAPA_1
 10
0
 20
0
 30
0
 70
128
 71
4
 72
5
 73
67
 74
68
 0
VERTEX
 8
TAPA_1
 10
0
 20
0
 30
0
 70
128
 71
5
 72
6
 73
67
 74
67
 0
VERTEX
 8
TAPA_1
 10
0
 20
0
 30
0
 70
128
 71
6
 72
7
 73
67
 74
67
 0
VERTEX
 8
TAPA_1
 10
0
 20
0
 30
0
 70
128
 71
7
 72
8
 73
67
 74
67
 0
VERTEX
 8
TAPA_1
 10
0
 20
0
 30
0
 70
128
 71
8
 72
9
 73
67
 74
67
 0
VERTEX
 8
TAPA_1
 10
0
 20
0
 30
0
 70
128
 71
9
 72
10
 73
67
 74
67
 0
VERTEX
 8
TAPA_1
 10
0
 20
0
 30
0
 70
128
 71
10
 72
11
 73
67
 74
67
 0
VERTEX
 8
TAPA_1
 10
0
 20
0
 30
0
 70
128
 71
11
 72
12
 73
67
 74
67
 0
VERTEX
 8
TAPA_1
 10
0
 20
0
 30
0
 70
128
 71
67
 72
12
 73
13
 74
66
 0
VERTEX
 8
TAPA_1
 10
0
 20
0
 30
0
 70
128
 71
13
 72
14
 73
66
 74
66
 0
VERTEX
 8
TAPA_1
 10
0
 20
0
 30
0
 70
128
 71
14
 72
15
 73
66
 74
66
 0
VERTEX
 8
TAPA_1
 10
0
 20
0
 30
0
 70
128
 71
15
 72
16
 73
66
 74
66
 0
VERTEX
 8
TAPA_1
 10
0
 20
0
 30
0
 70
128
 71
16
 72
17
 73
66
 74
66
 0
VERTEX
 8
TAPA_1
 10
0
 20
0
 30
0
 70
128
 71
17
 72
18
 73
66
 74
66
 0
VERTEX
 8
TAPA_1
 10
0
 20
0
 30
0
 70
128
 71
18
 72
19
 73
66
 74
66
 0
VERTEX
 8
TAPA_1
 10
0
 20
0
 30
0
 70
128
 71
19
 72
20
 73
66
 74
66
 0
VERTEX
 8
TAPA_1
 10
0
 20
0
 30
0
 70
128
 71
20
 72
21
 73
66
 74
66
 0
VERTEX
 8
TAPA_1
 10
0
 20
0
 30
0
 70
128
 71
21
 72
22
 73
66
 74
66
 0
VERTEX
 8
TAPA_1
 10
0
 20
0
 30
0
 70
128
 71
22
 72
23
 73
66
 74
66
 0
VERTEX
 8
TAPA_1
 10
0
 20
0
 30
0
 70
128
 71
23
 72
24
 73
66
 74
66
 0
VERTEX
 8
TAPA_1
 10
0
 20
0
 30
0
 70
128
 71
24
 72
25
 73
66
 74
66
 0
VERTEX
 8
TAPA_1
 10
0
 20
0
 30
0
 70
128
 71
66
 72
25
 73
26
 74
27
 0
VERTEX
 8
TAPA_1
 10
0
 20
0
 30
0
 70
128
 71
27
 72
28
 73
64
 74
65
 0
VERTEX
 8
TAPA_1
 10
0
 20
0
 30
0
 70
128
 71
27
 72
65
 73
66
 74
66
 0
VERTEX
 8
TAPA_1
 10
0
 20
0
 30
0
 70
128
 71
28
 72
29
 73
63
 74
64
 0
VERTEX
 8
TAPA_1
 10
0
 20
0
 30
0
 70
128
 71
29
 72
30
 73
50
 74
56
 0
VERTEX
 8
TAPA_1
 10
0
 20
0
 30
0
 70
128
 71
29
 72
56
 73
57
 74
57
 0
VERTEX
 8
TAPA_1
 10
0
 20
0
 30
0
 70
128
 71
29
 72
57
 73
58
 74
58
 0
VERTEX
 8
TAPA_1
 10
0
 20
0
 30
0
 70
128
 71
29
 72
58
 73
59
 74
59
 0
VERTEX
 8
TAPA_1
 10
0
 20
0
 30
0
 70
128
 71
29
 72
59
 73
60
 74
60
 0
VERTEX
 8
TAPA_1
 10
0
 20
0
 30
0
 70
128
 71
29
 72
60
 73
61
 74
61
 0
VERTEX
 8
TAPA_1
 10
0
 20
0
 30
0
 70
128
 71
29
 72
61
 73
62
 74
62
 0
VERTEX
 8
TAPA_1
 10
0
 20
0
 30
0
 70
128
 71
29
 72
62
 73
63
 74
63
 0
VERTEX
 8
TAPA_1
 10
0
 20
0
 30
0
 70
128
 71
50
 72
30
 73
31
 74
32
 0
VERTEX
 8
TAPA_1
 10
0
 20
0
 30
0
 70
128
 71
32
 72
33
 73
50
 74
50
 0
VERTEX
 8
TAPA_1
 10
0
 20
0
 30
0
 70
128
 71
33
 72
34
 73
50
 74
50
 0
VERTEX
 8
TAPA_1
 10
0
 20
0
 30
0
 70
128
 71
34
 72
35
 73
50
 74
50
 0
VERTEX
 8
TAPA_1
 10
0
 20
0
 30
0
 70
128
 71
35
 72
36
 73
50
 74
50
 0
VERTEX
 8
TAPA_1
 10
0
 20
0
 30
0
 70
128
 71
36
 72
37
 73
50
 74
50
 0
VERTEX
 8
TAPA_1
 10
0
 20
0
 30
0
 70
128
 71
37
 72
38
 73
50
 74
50
 0
VERTEX
 8
TAPA_1
 10
0
 20
0
 30
0
 70
128
 71
38
 72
39
 73
50
 74
50
 0
VERTEX
 8
TAPA_1
 10
0
 20
0
 30
0
 70
128
 71
39
 72
40
 73
50
 74
50
 0
VERTEX
 8
TAPA_1
 10
0
 20
0
 30
0
 70
128
 71
40
 72
41
 73
50
 74
50
 0
VERTEX
 8
TAPA_1
 10
0
 20
0
 30
0
 70
128
 71
50
 72
41
 73
42
 74
49
 0
VERTEX
 8
TAPA_1
 10
0
 20
0
 30
0
 70
128
 71
49
 72
42
 73
43
 74
44
 0
VERTEX
 8
TAPA_1
 10
0
 20
0
 30
0
 70
128
 71
44
 72
45
 73
46
 74
46
 0
VERTEX
 8
TAPA_1
 10
0
 20
0
 30
0
 70
128
 71
44
 72
46
 73
47
 74
47
 0
VERTEX
 8
TAPA_1
 10
0
 20
0
 30
0
 70
128
 71
44
 72
47
 73
48
 74
48
 0
VERTEX
 8
TAPA_1
 10
0
 20
0
 30
0
 70
128
 71
44
 72
48
 73
49
 74
49
 0
VERTEX
 8
TAPA_1
 10
0
 20
0
 30
0
 70
128
 71
50
 72
51
 73
52
 74
52
 0
VERTEX
 8
TAPA_1
 10
0
 20
0
 30
0
 70
128
 71
50
 72
52
 73
53
 74
53
 0
VERTEX
 8
TAPA_1
 10
0
 20
0
 30
0
 70
128
 71
50
 72
53
 73
54
 74
54
 0
VERTEX
 8
TAPA_1
 10
0
 20
0
 30
0
 70
128
 71
50
 72
54
 73
55
 74
55
 0
VERTEX
 8
TAPA_1
 10
0
 20
0
 30
0
 70
128
 71
50
 72
55
 73
56
 74
56
 0
SEQEND
 0
POLYLINE
 8
TAPA_2
 66
1
 10
0.0
 20
0.0
 30
0.0
 70
64
 71
68
 72
56
 0
VERTEX
 8
TAPA_2
 10
0.005
 20
-0.0934
 30
-0.0253
 70
192
 0
VERTEX
 8
TAPA_2
 10
0.0017
 20
-0.0964
 30
-0.0239
 70
192
 0
VERTEX
 8
TAPA_2
 10
-0.0058
 20
-0.1034
 30
-0.0216
 70
192
 0
VERTEX
 8
TAPA_2
 10
-0.0133
 20
-0.1104
 30
-0.0204
 70
192
 0
VERTEX
 8
TAPA_2
 10
-0.0223
 20
-0.1187
 30
-0.0202
 70
192
 0
VERTEX
 8
TAPA_2
 10
-0.0302
 20
-0.1261
 30
-0.0211
 70
192
 0
VERTEX
 8
TAPA_2
 10
-0.0386
 20
-0.1339
 30
-0.0233
 70
192
 0
VERTEX
 8
TAPA_2
 10
-0.0451
 20
-0.14
 30
-0.026
 70
192
 0
VERTEX
 8
TAPA_2
 10
-0.0517
 20
-0.1461
 30
-0.0298
 70
192
 0
VERTEX
 8
TAPA_2
 10
-0.0584
 20
-0.1524
 30
-0.0347
 70
192
 0
VERTEX
 8
TAPA_2
 10
-0.065
 20
-0.1585
 30
-0.041
 70
192
 0
VERTEX
 8
TAPA_2
 10
-0.0694
 20
-0.1626
 30
-0.0459
 70
192
 0
VERTEX
 8
TAPA_2
 10
-0.0758
 20
-0.1686
 30
-0.0546
 70
192
 0
VERTEX
 8
TAPA_2
 10
-0.0759
 20
-0.1687
 30
-0.0546
 70
192
 0
VERTEX
 8
TAPA_2
 10
-0.0764
 20
-0.1691
 30
-0.0543
 70
192
 0
VERTEX
 8
TAPA_2
 10
-0.0837
 20
-0.1754
 30
-0.05
 70
192
 0
VERTEX
 8
TAPA_2
 10
-0.0885
 20
-0.1796
 30
-0.0481
 70
192
 0
VERTEX
 8
TAPA_2
 10
-0.0941
 20
-0.1846
 30
-0.0465
 70
192
 0
VERTEX
 8
TAPA_2
 10
-0.0988
 20
-0.1888
 30
-0.0459
 70
192
 0
VERTEX
 8
TAPA_2
 10
-0.1039
 20
-0.1934
 30
-0.0459
 70
192
 0
VERTEX
 8
TAPA_2
 10
-0.1092
 20
-0.1982
 30
-0.0468
 70
192
 0
VERTEX
 8
TAPA_2
 10
-0.1147
 20
-0.2033
 30
-0.0486
 70
192
 0
VERTEX
 8
TAPA_2
 10
-0.1185
 20
-0.2068
 30
-0.0505
 70
192
 0
VERTEX
 8
TAPA_2
 10
-0.1223
 20
-0.2104
 30
-0.0529
 70
192
 0
VERTEX
 8
TAPA_2
 10
-0.1281
 20
-0.2159
 30
-0.0578
 70
192
 0
VERTEX
 8
TAPA_2
 10
-0.1339
 20
-0.2216
 30
-0.0642
 70
192
 0
VERTEX
 8
TAPA_2
 10
-0.1396
 20
-0.2273
 30
-0.0724
 70
192
 0
VERTEX
 8
TAPA_2
 10
-0.1433
 20
-0.2311
 30
-0.0789
 70
192
 0
VERTEX
 8
TAPA_2
 10
-0.147
 20
-0.2348
 30
-0.0864
 70
192
 0
VERTEX
 8
TAPA_2
 10
-0.1529
 20
-0.2404
 30
-0.0846
 70
192
 0
VERTEX
 8
TAPA_2
 10
-0.162
 20
-0.2488
 30
-0.083
 70
192
 0
VERTEX
 8
TAPA_2
 10
-0.1715
 20
-0.2577
 30
-0.0826
 70
192
 0
VERTEX
 8
TAPA_2
 10
-0.1799
 20
-0.2654
 30
-0.0834
 70
192
 0
VERTEX
 8
TAPA_2
 10
-0.1862
 20
-0.2713
 30
-0.085
 70
192
 0
VERTEX
 8
TAPA_2
 10
-0.1925
 20
-0.2772
 30
-0.0876
 70
192
 0
VERTEX
 8
TAPA_2
 10
-0.1966
 20
-0.281
 30
-0.0899
 70
192
 0
VERTEX
 8
TAPA_2
 10
-0.2005
 20
-0.2846
 30
-0.0929
 70
192
 0
VERTEX
 8
TAPA_2
 10
-0.2042
 20
-0.288
 30
-0.0965
 70
192
 0
VERTEX
 8
TAPA_2
 10
-0.2076
 20
-0.2912
 30
-0.1007
 70
192
 0
VERTEX
 8
TAPA_2
 10
-0.2107
 20
-0.2941
 30
-0.1058
 70
192
 0
VERTEX
 8
TAPA_2
 10
-0.2134
 20
-0.2966
 30
-0.1115
 70
192
 0
VERTEX
 8
TAPA_2
 10
-0.2157
 20
-0.2988
 30
-0.1182
 70
192
 0
VERTEX
 8
TAPA_2
 10
-0.2175
 20
-0.3005
 30
-0.1257
 70
192
 0
VERTEX
 8
TAPA_2
 10
-0.2188
 20
-0.3017
 30
-0.1342
 70
192
 0
VERTEX
 8
TAPA_2
 10
-0.2196
 20
-0.3024
 30
-0.1436
 70
192
 0
VERTEX
 8
TAPA_2
 10
-0.2193
 20
-0.3021
 30
-0.1433
 70
192
 0
VERTEX
 8
TAPA_2
 10
-0.2189
 20
-0.3017
 30
-0.1431
 70
192
 0
VERTEX
 8
TAPA_2
 10
-0.2183
 20
-0.3012
 30
-0.1428
 70
192
 0
VERTEX
 8
TAPA_2
 10
-0.2166
 20
-0.2996
 30
-0.1424
 70
192
 0
VERTEX
 8
TAPA_2
 10
-0.1711
 20
-0.2573
 30
-0.1413
 70
192
 0
VERTEX
 8
TAPA_2
 10
-0.1345
 20
-0.2232
 30
-0.1424
 70
192
 0
VERTEX
 8
TAPA_2
 10
-0.1344
 20
-0.2231
 30
-0.142
 70
192
 0
VERTEX
 8
TAPA_2
 10
-0.1342
 20
-0.223
 30
-0.1409
 70
192
 0
VERTEX
 8
TAPA_2
 10
-0.1339
 20
-0.2227
 30
-0.1397
 70
192
 0
VERTEX
 8
TAPA_2
 10
-0.1334
 20
-0.2222
 30
-0.1382
 70
192
 0
VERTEX
 8
TAPA_2
 10
-0.1328
 20
-0.2216
 30
-0.137
 70
192
 0
VERTEX
 8
TAPA_2
 10
-0.1321
 20
-0.221
 30
-0.1357
 70
192
 0
VERTEX
 8
TAPA_2
 10
-0.1312
 20
-0.2201
 30
-0.1344
 70
192
 0
VERTEX
 8
TAPA_2
 10
-0.1301
 20
-0.2191
 30
-0.1332
 70
192
 0
VERTEX
 8
TAPA_2
 10
-0.1288
 20
-0.2179
 30
-0.132
 70
192
 0
VERTEX
 8
TAPA_2
 10
-0.1272
 20
-0.2164
 30
-0.1309
 70
192
 0
VERTEX
 8
TAPA_2
 10
-0.1254
 20
-0.2147
 30
-0.1299
 70
192
 0
VERTEX
 8
TAPA_2
 10
-0.1233
 20
-0.2127
 30
-0.1291
 70
192
 0
VERTEX
 8
TAPA_2
 10
-0.1208
 20
-0.2105
 30
-0.1285
 70
192
 0
VERTEX
 8
TAPA_2
 10
-0.119
 20
-0.2088
 30
-0.1283
 70
192
 0
VERTEX
 8
TAPA_2
 10
-0.1161
 20
-0.206
 30
-0.1281
 70
192
 0
VERTEX
 8
TAPA_2
 10
0.005
 20
-0.0934
 30
-0.1245
 70
192
 0
VERTEX
 8
TAPA_2
 10
0.005
 20
-0.0934
 30
-0.0277
 70
192
 0
VERTEX
 8
TAPA_2
 10
0
 20
0
 30
0
 70
128
 71
4
 72
68
 73
67
 74
5
 0
VERTEX
 8
TAPA_2
 10
0
 20
0
 30
0
 70
128
 71
68
 72
4
 73
3
 74
2
 0
VERTEX
 8
TAPA_2
 10
0
 20
0
 30
0
 70
128
 71
68
 72
2
 73
1
 74
1
 0
VERTEX
 8
TAPA_2
 10
0
 20
0
 30
0
 70
128
 71
67
 72
66
 73
13
 74
12
 0
VERTEX
 8
TAPA_2
 10
0
 20
0
 30
0
 70
128
 71
67
 72
12
 73
11
 74
11
 0
VERTEX
 8
TAPA_2
 10
0
 20
0
 30
0
 70
128
 71
67
 72
11
 73
10
 74
10
 0
VERTEX
 8
TAPA_2
 10
0
 20
0
 30
0
 70
128
 71
67
 72
10
 73
9
 74
9
 0
VERTEX
 8
TAPA_2
 10
0
 20
0
 30
0
 70
128
 71
67
 72
9
 73
8
 74
8
 0
VERTEX
 8
TAPA_2
 10
0
 20
0
 30
0
 70
128
 71
67
 72
8
 73
7
 74
7
 0
VERTEX
 8
TAPA_2
 10
0
 20
0
 30
0
 70
128
 71
67
 72
7
 73
6
 74
6
 0
VERTEX
 8
TAPA_2
 10
0
 20
0
 30
0
 70
128
 71
67
 72
6
 73
5
 74
5
 0
VERTEX
 8
TAPA_2
 10
0
 20
0
 30
0
 70
128
 71
66
 72
65
 73
27
 74
27
 0
VERTEX
 8
TAPA_2
 10
0
 20
0
 30
0
 70
128
 71
66
 72
27
 73
26
 74
25
 0
VERTEX
 8
TAPA_2
 10
0
 20
0
 30
0
 70
128
 71
66
 72
25
 73
24
 74
24
 0
VERTEX
 8
TAPA_2
 10
0
 20
0
 30
0
 70
128
 71
66
 72
24
 73
23
 74
23
 0
VERTEX
 8
TAPA_2
 10
0
 20
0
 30
0
 70
128
 71
66
 72
23
 73
22
 74
22
 0
VERTEX
 8
TAPA_2
 10
0
 20
0
 30
0
 70
128
 71
66
 72
22
 73
21
 74
21
 0
VERTEX
 8
TAPA_2
 10
0
 20
0
 30
0
 70
128
 71
66
 72
21
 73
20
 74
20
 0
VERTEX
 8
TAPA_2
 10
0
 20
0
 30
0
 70
128
 71
66
 72
20
 73
19
 74
19
 0
VERTEX
 8
TAPA_2
 10
0
 20
0
 30
0
 70
128
 71
66
 72
19
 73
18
 74
18
 0
VERTEX
 8
TAPA_2
 10
0
 20
0
 30
0
 70
128
 71
66
 72
18
 73
17
 74
17
 0
VERTEX
 8
TAPA_2
 10
0
 20
0
 30
0
 70
128
 71
66
 72
17
 73
16
 74
16
 0
VERTEX
 8
TAPA_2
 10
0
 20
0
 30
0
 70
128
 71
66
 72
16
 73
15
 74
15
 0
VERTEX
 8
TAPA_2
 10
0
 20
0
 30
0
 70
128
 71
66
 72
15
 73
14
 74
14
 0
VERTEX
 8
TAPA_2
 10
0
 20
0
 30
0
 70
128
 71
66
 72
14
 73
13
 74
13
 0
VERTEX
 8
TAPA_2
 10
0
 20
0
 30
0
 70
128
 71
27
 72
65
 73
64
 74
28
 0
VERTEX
 8
TAPA_2
 10
0
 20
0
 30
0
 70
128
 71
28
 72
64
 73
63
 74
29
 0
VERTEX
 8
TAPA_2
 10
0
 20
0
 30
0
 70
128
 71
63
 72
62
 73
29
 74
29
 0
VERTEX
 8
TAPA_2
 10
0
 20
0
 30
0
 70
128
 71
62
 72
61
 73
29
 74
29
 0
VERTEX
 8
TAPA_2
 10
0
 20
0
 30
0
 70
128
 71
61
 72
60
 73
29
 74
29
 0
VERTEX
 8
TAPA_2
 10
0
 20
0
 30
0
 70
128
 71
60
 72
59
 73
29
 74
29
 0
VERTEX
 8
TAPA_2
 10
0
 20
0
 30
0
 70
128
 71
59
 72
58
 73
29
 74
29
 0
VERTEX
 8
TAPA_2
 10
0
 20
0
 30
0
 70
128
 71
58
 72
57
 73
29
 74
29
 0
VERTEX
 8
TAPA_2
 10
0
 20
0
 30
0
 70
128
 71
57
 72
56
 73
29
 74
29
 0
VERTEX
 8
TAPA_2
 10
0
 20
0
 30
0
 70
128
 71
56
 72
55
 73
50
 74
50
 0
VERTEX
 8
TAPA_2
 10
0
 20
0
 30
0
 70
128
 71
29
 72
56
 73
50
 74
30
 0
VERTEX
 8
TAPA_2
 10
0
 20
0
 30
0
 70
128
 71
55
 72
54
 73
50
 74
50
 0
VERTEX
 8
TAPA_2
 10
0
 20
0
 30
0
 70
128
 71
54
 72
53
 73
50
 74
50
 0
VERTEX
 8
TAPA_2
 10
0
 20
0
 30
0
 70
128
 71
53
 72
52
 73
50
 74
50
 0
VERTEX
 8
TAPA_2
 10
0
 20
0
 30
0
 70
128
 71
52
 72
51
 73
50
 74
50
 0
VERTEX
 8
TAPA_2
 10
0
 20
0
 30
0
 70
128
 71
50
 72
49
 73
42
 74
41
 0
VERTEX
 8
TAPA_2
 10
0
 20
0
 30
0
 70
128
 71
50
 72
41
 73
40
 74
40
 0
VERTEX
 8
TAPA_2
 10
0
 20
0
 30
0
 70
128
 71
50
 72
40
 73
39
 74
39
 0
VERTEX
 8
TAPA_2
 10
0
 20
0
 30
0
 70
128
 71
50
 72
39
 73
38
 74
38
 0
VERTEX
 8
TAPA_2
 10
0
 20
0
 30
0
 70
128
 71
50
 72
38
 73
37
 74
37
 0
VERTEX
 8
TAPA_2
 10
0
 20
0
 30
0
 70
128
 71
50
 72
37
 73
36
 74
36
 0
VERTEX
 8
TAPA_2
 10
0
 20
0
 30
0
 70
128
 71
50
 72
36
 73
35
 74
35
 0
VERTEX
 8
TAPA_2
 10
0
 20
0
 30
0
 70
128
 71
50
 72
35
 73
34
 74
34
 0
VERTEX
 8
TAPA_2
 10
0
 20
0
 30
0
 70
128
 71
50
 72
34
 73
33
 74
33
 0
VERTEX
 8
TAPA_2
 10
0
 20
0
 30
0
 70
128
 71
50
 72
33
 73
32
 74
32
 0
VERTEX
 8
TAPA_2
 10
0
 20
0
 30
0
 70
128
 71
50
 72
32
 73
31
 74
30
 0
VERTEX
 8
TAPA_2
 10
0
 20
0
 30
0
 70
128
 71
49
 72
48
 73
44
 74
44
 0
VERTEX
 8
TAPA_2
 10
0
 20
0
 30
0
 70
128
 71
49
 72
44
 73
43
 74
42
 0
VERTEX
 8
TAPA_2
 10
0
 20
0
 30
0
 70
128
 71
48
 72
47
 73
44
 74
44
 0
VERTEX
 8
TAPA_2
 10
0
 20
0
 30
0
 70
128
 71
47
 72
46
 73
44
 74
44
 0
VERTEX
 8
TAPA_2
 10
0
 20
0
 30
0
 70
128
 71
46
 72
45
 73
44
 74
44
 0
SEQEND
 0
POLYLINE
 8
EXTRUDE_2
 66
1
 10
0.0
 20
0.0
 30
0.0
 70
64
 71
136
 72
68
 0
VERTEX
 8
EXTRUDE_2
 10
-0.0021
 20
0.0913
 30
-0.0253
 70
192
 0
VERTEX
 8
EXTRUDE_2
 10
0.0012
 20
0.0943
 30
-0.0239
 70
192
 0
VERTEX
 8
EXTRUDE_2
 10
0.0087
 20
0.1014
 30
-0.0216
 70
192
 0
VERTEX
 8
EXTRUDE_2
 10
0.0163
 20
0.1084
 30
-0.0204
 70
192
 0
VERTEX
 8
EXTRUDE_2
 10
0.0252
 20
0.1166
 30
-0.0202
 70
192
 0
VERTEX
 8
EXTRUDE_2
 10
0.0331
 20
0.124
 30
-0.0211
 70
192
 0
VERTEX
 8
EXTRUDE_2
 10
0.0415
 20
0.1318
 30
-0.0233
 70
192
 0
VERTEX
 8
EXTRUDE_2
 10
0.048
 20
0.1379
 30
-0.026
 70
192
 0
VERTEX
 8
EXTRUDE_2
 10
0.0546
 20
0.1441
 30
-0.0298
 70
192
 0
VERTEX
 8
EXTRUDE_2
 10
0.0613
 20
0.1503
 30
-0.0347
 70
192
 0
VERTEX
 8
EXTRUDE_2
 10
0.0679
 20
0.1565
 30
-0.041
 70
192
 0
VERTEX
 8
EXTRUDE_2
 10
0.0723
 20
0.1605
 30
-0.0459
 70
192
 0
VERTEX
 8
EXTRUDE_2
 10
0.0787
 20
0.1665
 30
-0.0546
 70
192
 0
VERTEX
 8
EXTRUDE_2
 10
0.0788
 20
0.1666
 30
-0.0546
 70
192
 0
VERTEX
 8
EXTRUDE_2
 10
0.0793
 20
0.1671
 30
-0.0543
 70
192
 0
VERTEX
 8
EXTRUDE_2
 10
0.0861
 20
0.1739
 30
-0.05
 70
192
 0
VERTEX
 8
EXTRUDE_2
 10
0.0906
 20
0.1784
 30
-0.0481
 70
192
 0
VERTEX
 8
EXTRUDE_2
 10
0.096
 20
0.1836
 30
-0.0465
 70
192
 0
VERTEX
 8
EXTRUDE_2
 10
0.1006
 20
0.188
 30
-0.0459
 70
192
 0
VERTEX
 8
EXTRUDE_2
 10
0.1055
 20
0.1927
 30
-0.0459
 70
192
 0
VERTEX
 8
EXTRUDE_2
 10
0.1107
 20
0.1977
 30
-0.0468
 70
192
 0
VERTEX
 8
EXTRUDE_2
 10
0.1162
 20
0.2028
 30
-0.0486
 70
192
 0
VERTEX
 8
EXTRUDE_2
 10
0.1199
 20
0.2063
 30
-0.0505
 70
192
 0
VERTEX
 8
EXTRUDE_2
 10
0.1238
 20
0.2099
 30
-0.0529
 70
192
 0
VERTEX
 8
EXTRUDE_2
 10
0.1297
 20
0.2152
 30
-0.0578
 70
192
 0
VERTEX
 8
EXTRUDE_2
 10
0.1358
 20
0.2206
 30
-0.0642
 70
192
 0
VERTEX
 8
EXTRUDE_2
 10
0.1418
 20
0.2259
 30
-0.0724
 70
192
 0
VERTEX
 8
EXTRUDE_2
 10
0.1459
 20
0.2294
 30
-0.0789
 70
192
 0
VERTEX
 8
EXTRUDE_2
 10
0.1499
 20
0.2328
 30
-0.0864
 70
192
 0
VERTEX
 8
EXTRUDE_2
 10
0.1559
 20
0.2383
 30
-0.0846
 70
192
 0
VERTEX
 8
EXTRUDE_2
 10
0.1649
 20
0.2467
 30
-0.083
 70
192
 0
VERTEX
 8
EXTRUDE_2
 10
0.1745
 20
0.2556
 30
-0.0826
 70
192
 0
VERTEX
 8
EXTRUDE_2
 10
0.1828
 20
0.2633
 30
-0.0834
 70
192
 0
VERTEX
 8
EXTRUDE_2
 10
0.1891
 20
0.2692
 30
-0.085
 70
192
 0
VERTEX
 8
EXTRUDE_2
 10
0.1954
 20
0.2751
 30
-0.0876
 70
192
 0
VERTEX
 8
EXTRUDE_2
 10
0.1995
 20
0.2789
 30
-0.0899
 70
192
 0
VERTEX
 8
EXTRUDE_2
 10
0.2034
 20
0.2825
 30
-0.0929
 70
192
 0
VERTEX
 8
EXTRUDE_2
 10
0.2071
 20
0.2859
 30
-0.0965
 70
192
 0
VERTEX
 8
EXTRUDE_2
 10
0.2105
 20
0.2891
 30
-0.1007
 70
192
 0
VERTEX
 8
EXTRUDE_2
 10
0.2136
 20
0.292
 30
-0.1058
 70
192
 0
VERTEX
 8
EXTRUDE_2
 10
0.2163
 20
0.2945
 30
-0.1115
 70
192
 0
VERTEX
 8
EXTRUDE_2
 10
0.2186
 20
0.2967
 30
-0.1182
 70
192
 0
VERTEX
 8
EXTRUDE_2
 10
0.2204
 20
0.2984
 30
-0.1257
 70
192
 0
VERTEX
 8
EXTRUDE_2
 10
0.2217
 20
0.2996
 30
-0.1342
 70
192
 0
VERTEX
 8
EXTRUDE_2
 10
0.2225
 20
0.3003
 30
-0.1436
 70
192
 0
VERTEX
 8
EXTRUDE_2
 10
0.2222
 20
0.3001
 30
-0.1433
 70
192
 0
VERTEX
 8
EXTRUDE_2
 10
0.2218
 20
0.2997
 30
-0.1431
 70
192
 0
VERTEX
 8
EXTRUDE_2
 10
0.2212
 20
0.2991
 30
-0.1428
 70
192
 0
VERTEX
 8
EXTRUDE_2
 10
0.2195
 20
0.2975
 30
-0.1424
 70
192
 0
VERTEX
 8
EXTRUDE_2
 10
0.174
 20
0.2552
 30
-0.1413
 70
192
 0
VERTEX
 8
EXTRUDE_2
 10
0.1374
 20
0.2211
 30
-0.1424
 70
192
 0
VERTEX
 8
EXTRUDE_2
 10
0.1373
 20
0.221
 30
-0.142
 70
192
 0
VERTEX
 8
EXTRUDE_2
 10
0.1372
 20
0.2209
 30
-0.1409
 70
192
 0
VERTEX
 8
EXTRUDE_2
 10
0.1368
 20
0.2206
 30
-0.1397
 70
192
 0
VERTEX
 8
EXTRUDE_2
 10
0.1363
 20
0.2201
 30
-0.1382
 70
192
 0
VERTEX
 8
EXTRUDE_2
 10
0.1358
 20
0.2196
 30
-0.137
 70
192
 0
VERTEX
 8
EXTRUDE_2
 10
0.135
 20
0.2189
 30
-0.1357
 70
192
 0
VERTEX
 8
EXTRUDE_2
 10
0.1341
 20
0.2181
 30
-0.1344
 70
192
 0
VERTEX
 8
EXTRUDE_2
 10
0.133
 20
0.217
 30
-0.1332
 70
192
 0
VERTEX
 8
EXTRUDE_2
 10
0.1317
 20
0.2158
 30
-0.132
 70
192
 0
VERTEX
 8
EXTRUDE_2
 10
0.1301
 20
0.2143
 30
-0.1309
 70
192
 0
VERTEX
 8
EXTRUDE_2
 10
0.1283
 20
0.2126
 30
-0.1299
 70
192
 0
VERTEX
 8
EXTRUDE_2
 10
0.1262
 20
0.2107
 30
-0.1291
 70
192
 0
VERTEX
 8
EXTRUDE_2
 10
0.1237
 20
0.2084
 30
-0.1285
 70
192
 0
VERTEX
 8
EXTRUDE_2
 10
0.1219
 20
0.2067
 30
-0.1283
 70
192
 0
VERTEX
 8
EXTRUDE_2
 10
0.119
 20
0.2039
 30
-0.1281
 70
192
 0
VERTEX
 8
EXTRUDE_2
 10
-0.0021
 20
0.0913
 30
-0.1245
 70
192
 0
VERTEX
 8
EXTRUDE_2
 10
-0.0021
 20
0.0913
 30
-0.0277
 70
192
 0
VERTEX
 8
EXTRUDE_2
 10
0.0933
 20
-0.0112
 30
-0.0253
 70
192
 0
VERTEX
 8
EXTRUDE_2
 10
0.0966
 20
-0.0081
 30
-0.0239
 70
192
 0
VERTEX
 8
EXTRUDE_2
 10
0.1041
 20
-0.0011
 30
-0.0216
 70
192
 0
VERTEX
 8
EXTRUDE_2
 10
0.1116
 20
0.0059
 30
-0.0204
 70
192
 0
VERTEX
 8
EXTRUDE_2
 10
0.1205
 20
0.0142
 30
-0.0202
 70
192
 0
VERTEX
 8
EXTRUDE_2
 10
0.1284
 20
0.0215
 30
-0.0211
 70
192
 0
VERTEX
 8
EXTRUDE_2
 10
0.1368
 20
0.0293
 30
-0.0233
 70
192
 0
VERTEX
 8
EXTRUDE_2
 10
0.1434
 20
0.0354
 30
-0.026
 70
192
 0
VERTEX
 8
EXTRUDE_2
 10
0.15
 20
0.0416
 30
-0.0298
 70
192
 0
VERTEX
 8
EXTRUDE_2
 10
0.1567
 20
0.0478
 30
-0.0347
 70
192
 0
VERTEX
 8
EXTRUDE_2
 10
0.1633
 20
0.054
 30
-0.041
 70
192
 0
VERTEX
 8
EXTRUDE_2
 10
0.1677
 20
0.058
 30
-0.0459
 70
192
 0
VERTEX
 8
EXTRUDE_2
 10
0.1741
 20
0.064
 30
-0.0546
 70
192
 0
VERTEX
 8
EXTRUDE_2
 10
0.1742
 20
0.0641
 30
-0.0546
 70
192
 0
VERTEX
 8
EXTRUDE_2
 10
0.1747
 20
0.0646
 30
-0.0543
 70
192
 0
VERTEX
 8
EXTRUDE_2
 10
0.1815
 20
0.0714
 30
-0.05
 70
192
 0
VERTEX
 8
EXTRUDE_2
 10
0.186
 20
0.0759
 30
-0.0481
 70
192
 0
VERTEX
 8
EXTRUDE_2
 10
0.1914
 20
0.0811
 30
-0.0465
 70
192
 0
VERTEX
 8
EXTRUDE_2
 10
0.1959
 20
0.0855
 30
-0.0459
 70
192
 0
VERTEX
 8
EXTRUDE_2
 10
0.2008
 20
0.0902
 30
-0.0459
 70
192
 0
VERTEX
 8
EXTRUDE_2
 10
0.2061
 20
0.0952
 30
-0.0468
 70
192
 0
VERTEX
 8
EXTRUDE_2
 10
0.2115
 20
0.1003
 30
-0.0486
 70
192
 0
VERTEX
 8
EXTRUDE_2
 10
0.2153
 20
0.1038
 30
-0.0505
 70
192
 0
VERTEX
 8
EXTRUDE_2
 10
0.2192
 20
0.1074
 30
-0.0529
 70
192
 0
VERTEX
 8
EXTRUDE_2
 10
0.2251
 20
0.1128
 30
-0.0578
 70
192
 0
VERTEX
 8
EXTRUDE_2
 10
0.2311
 20
0.1181
 30
-0.0642
 70
192
 0
VERTEX
 8
EXTRUDE_2
 10
0.2372
 20
0.1234
 30
-0.0724
 70
192
 0
VERTEX
 8
EXTRUDE_2
 10
0.2413
 20
0.1269
 30
-0.0789
 70
192
 0
VERTEX
 8
EXTRUDE_2
 10
0.2453
 20
0.1303
 30
-0.0864
 70
192
 0
VERTEX
 8
EXTRUDE_2
 10
0.2512
 20
0.1358
 30
-0.0846
 70
192
 0
VERTEX
 8
EXTRUDE_2
 10
0.2603
 20
0.1442
 30
-0.083
 70
192
 0
VERTEX
 8
EXTRUDE_2
 10
0.2698
 20
0.1531
 30
-0.0826
 70
192
 0
VERTEX
 8
EXTRUDE_2
 10
0.2781
 20
0.1608
 30
-0.0834
 70
192
 0
VERTEX
 8
EXTRUDE_2
 10
0.2845
 20
0.1668
 30
-0.085
 70
192
 0
VERTEX
 8
EXTRUDE_2
 10
0.2908
 20
0.1726
 30
-0.0876
 70
192
 0
VERTEX
 8
EXTRUDE_2
 10
0.2949
 20
0.1764
 30
-0.0899
 70
192
 0
VERTEX
 8
EXTRUDE_2
 10
0.2988
 20
0.18
 30
-0.0929
 70
192
 0
VERTEX
 8
EXTRUDE_2
 10
0.3024
 20
0.1835
 30
-0.0965
 70
192
 0
VERTEX
 8
EXTRUDE_2
 10
0.3059
 20
0.1866
 30
-0.1007
 70
192
 0
VERTEX
 8
EXTRUDE_2
 10
0.309
 20
0.1895
 30
-0.1058
 70
192
 0
VERTEX
 8
EXTRUDE_2
 10
0.3117
 20
0.192
 30
-0.1115
 70
192
 0
VERTEX
 8
EXTRUDE_2
 10
0.314
 20
0.1942
 30
-0.1182
 70
192
 0
VERTEX
 8
EXTRUDE_2
 10
0.3158
 20
0.1959
 30
-0.1257
 70
192
 0
VERTEX
 8
EXTRUDE_2
 10
0.3171
 20
0.1971
 30
-0.1342
 70
192
 0
VERTEX
 8
EXTRUDE_2
 10
0.3179
 20
0.1978
 30
-0.1436
 70
192
 0
VERTEX
 8
EXTRUDE_2
 10
0.3176
 20
0.1976
 30
-0.1433
 70
192
 0
VERTEX
 8
EXTRUDE_2
 10
0.3172
 20
0.1972
 30
-0.1431
 70
192
 0
VERTEX
 8
EXTRUDE_2
 10
0.3166
 20
0.1966
 30
-0.1428
 70
192
 0
VERTEX
 8
EXTRUDE_2
 10
0.3149
 20
0.195
 30
-0.1424
 70
192
 0
VERTEX
 8
EXTRUDE_2
 10
0.2694
 20
0.1527
 30
-0.1413
 70
192
 0
VERTEX
 8
EXTRUDE_2
 10
0.2328
 20
0.1186
 30
-0.1424
 70
192
 0
VERTEX
 8
EXTRUDE_2
 10
0.2327
 20
0.1186
 30
-0.142
 70
192
 0
VERTEX
 8
EXTRUDE_2
 10
0.2325
 20
0.1184
 30
-0.1409
 70
192
 0
VERTEX
 8
EXTRUDE_2
 10
0.2322
 20
0.1181
 30
-0.1397
 70
192
 0
VERTEX
 8
EXTRUDE_2
 10
0.2317
 20
0.1176
 30
-0.1382
 70
192
 0
VERTEX
 8
EXTRUDE_2
 10
0.2311
 20
0.1171
 30
-0.137
 70
192
 0
VERTEX
 8
EXTRUDE_2
 10
0.2304
 20
0.1164
 30
-0.1357
 70
192
 0
VERTEX
 8
EXTRUDE_2
 10
0.2295
 20
0.1156
 30
-0.1344
 70
192
 0
VERTEX
 8
EXTRUDE_2
 10
0.2284
 20
0.1145
 30
-0.1332
 70
192
 0
VERTEX
 8
EXTRUDE_2
 10
0.2271
 20
0.1133
 30
-0.132
 70
192
 0
VERTEX
 8
EXTRUDE_2
 10
0.2255
 20
0.1118
 30
-0.1309
 70
192
 0
VERTEX
 8
EXTRUDE_2
 10
0.2237
 20
0.1101
 30
-0.1299
 70
192
 0
VERTEX
 8
EXTRUDE_2
 10
0.2216
 20
0.1082
 30
-0.1291
 70
192
 0
VERTEX
 8
EXTRUDE_2
 10
0.2191
 20
0.1059
 30
-0.1285
 70
192
 0
VERTEX
 8
EXTRUDE_2
 10
0.2173
 20
0.1042
 30
-0.1283
 70
192
 0
VERTEX
 8
EXTRUDE_2
 10
0.2143
 20
0.1015
 30
-0.1281
 70
192
 0
VERTEX
 8
EXTRUDE_2
 10
0.0933
 20
-0.0112
 30
-0.1245
 70
192
 0
VERTEX
 8
EXTRUDE_2
 10
0.0933
 20
-0.0112
 30
-0.0277
 70
192
 0
VERTEX
 8
EXTRUDE_2
 10
0
 20
0
 30
0
 70
128
 71
1
 72
2
 73
70
 74
69
 0
VERTEX
 8
EXTRUDE_2
 10
0
 20
0
 30
0
 70
128
 71
2
 72
3
 73
71
 74
70
 0
VERTEX
 8
EXTRUDE_2
 10
0
 20
0
 30
0
 70
128
 71
3
 72
4
 73
72
 74
71
 0
VERTEX
 8
EXTRUDE_2
 10
0
 20
0
 30
0
 70
128
 71
4
 72
5
 73
73
 74
72
 0
VERTEX
 8
EXTRUDE_2
 10
0
 20
0
 30
0
 70
128
 71
5
 72
6
 73
74
 74
73
 0
VERTEX
 8
EXTRUDE_2
 10
0
 20
0
 30
0
 70
128
 71
6
 72
7
 73
75
 74
74
 0
VERTEX
 8
EXTRUDE_2
 10
0
 20
0
 30
0
 70
128
 71
7
 72
8
 73
76
 74
75
 0
VERTEX
 8
EXTRUDE_2
 10
0
 20
0
 30
0
 70
128
 71
8
 72
9
 73
77
 74
76
 0
VERTEX
 8
EXTRUDE_2
 10
0
 20
0
 30
0
 70
128
 71
9
 72
10
 73
78
 74
77
 0
VERTEX
 8
EXTRUDE_2
 10
0
 20
0
 30
0
 70
128
 71
10
 72
11
 73
79
 74
78
 0
VERTEX
 8
EXTRUDE_2
 10
0
 20
0
 30
0
 70
128
 71
11
 72
12
 73
80
 74
79
 0
VERTEX
 8
EXTRUDE_2
 10
0
 20
0
 30
0
 70
128
 71
12
 72
13
 73
81
 74
80
 0
VERTEX
 8
EXTRUDE_2
 10
0
 20
0
 30
0
 70
128
 71
13
 72
14
 73
82
 74
81
 0
VERTEX
 8
EXTRUDE_2
 10
0
 20
0
 30
0
 70
128
 71
14
 72
15
 73
83
 74
82
 0
VERTEX
 8
EXTRUDE_2
 10
0
 20
0
 30
0
 70
128
 71
15
 72
16
 73
84
 74
83
 0
VERTEX
 8
EXTRUDE_2
 10
0
 20
0
 30
0
 70
128
 71
16
 72
17
 73
85
 74
84
 0
VERTEX
 8
EXTRUDE_2
 10
0
 20
0
 30
0
 70
128
 71
17
 72
18
 73
86
 74
85
 0
VERTEX
 8
EXTRUDE_2
 10
0
 20
0
 30
0
 70
128
 71
18
 72
19
 73
87
 74
86
 0
VERTEX
 8
EXTRUDE_2
 10
0
 20
0
 30
0
 70
128
 71
19
 72
20
 73
88
 74
87
 0
VERTEX
 8
EXTRUDE_2
 10
0
 20
0
 30
0
 70
128
 71
20
 72
21
 73
89
 74
88
 0
VERTEX
 8
EXTRUDE_2
 10
0
 20
0
 30
0
 70
128
 71
21
 72
22
 73
90
 74
89
 0
VERTEX
 8
EXTRUDE_2
 10
0
 20
0
 30
0
 70
128
 71
22
 72
23
 73
91
 74
90
 0
VERTEX
 8
EXTRUDE_2
 10
0
 20
0
 30
0
 70
128
 71
23
 72
24
 73
92
 74
91
 0
VERTEX
 8
EXTRUDE_2
 10
0
 20
0
 30
0
 70
128
 71
24
 72
25
 73
93
 74
92
 0
VERTEX
 8
EXTRUDE_2
 10
0
 20
0
 30
0
 70
128
 71
25
 72
26
 73
94
 74
93
 0
VERTEX
 8
EXTRUDE_2
 10
0
 20
0
 30
0
 70
128
 71
26
 72
27
 73
95
 74
94
 0
VERTEX
 8
EXTRUDE_2
 10
0
 20
0
 30
0
 70
128
 71
27
 72
28
 73
96
 74
95
 0
VERTEX
 8
EXTRUDE_2
 10
0
 20
0
 30
0
 70
128
 71
28
 72
29
 73
97
 74
96
 0
VERTEX
 8
EXTRUDE_2
 10
0
 20
0
 30
0
 70
128
 71
29
 72
30
 73
98
 74
97
 0
VERTEX
 8
EXTRUDE_2
 10
0
 20
0
 30
0
 70
128
 71
30
 72
31
 73
99
 74
98
 0
VERTEX
 8
EXTRUDE_2
 10
0
 20
0
 30
0
 70
128
 71
31
 72
32
 73
100
 74
99
 0
VERTEX
 8
EXTRUDE_2
 10
0
 20
0
 30
0
 70
128
 71
32
 72
33
 73
101
 74
100
 0
VERTEX
 8
EXTRUDE_2
 10
0
 20
0
 30
0
 70
128
 71
33
 72
34
 73
102
 74
101
 0
VERTEX
 8
EXTRUDE_2
 10
0
 20
0
 30
0
 70
128
 71
34
 72
35
 73
103
 74
102
 0
VERTEX
 8
EXTRUDE_2
 10
0
 20
0
 30
0
 70
128
 71
35
 72
36
 73
104
 74
103
 0
VERTEX
 8
EXTRUDE_2
 10
0
 20
0
 30
0
 70
128
 71
36
 72
37
 73
105
 74
104
 0
VERTEX
 8
EXTRUDE_2
 10
0
 20
0
 30
0
 70
128
 71
37
 72
38
 73
106
 74
105
 0
VERTEX
 8
EXTRUDE_2
 10
0
 20
0
 30
0
 70
128
 71
38
 72
39
 73
107
 74
106
 0
VERTEX
 8
EXTRUDE_2
 10
0
 20
0
 30
0
 70
128
 71
39
 72
40
 73
108
 74
107
 0
VERTEX
 8
EXTRUDE_2
 10
0
 20
0
 30
0
 70
128
 71
40
 72
41
 73
109
 74
108
 0
VERTEX
 8
EXTRUDE_2
 10
0
 20
0
 30
0
 70
128
 71
41
 72
42
 73
110
 74
109
 0
VERTEX
 8
EXTRUDE_2
 10
0
 20
0
 30
0
 70
128
 71
42
 72
43
 73
111
 74
110
 0
VERTEX
 8
EXTRUDE_2
 10
0
 20
0
 30
0
 70
128
 71
43
 72
44
 73
112
 74
111
 0
VERTEX
 8
EXTRUDE_2
 10
0
 20
0
 30
0
 70
128
 71
44
 72
45
 73
113
 74
112
 0
VERTEX
 8
EXTRUDE_2
 10
0
 20
0
 30
0
 70
128
 71
45
 72
46
 73
114
 74
113
 0
VERTEX
 8
EXTRUDE_2
 10
0
 20
0
 30
0
 70
128
 71
46
 72
47
 73
115
 74
114
 0
VERTEX
 8
EXTRUDE_2
 10
0
 20
0
 30
0
 70
128
 71
47
 72
48
 73
116
 74
115
 0
VERTEX
 8
EXTRUDE_2
 10
0
 20
0
 30
0
 70
128
 71
48
 72
49
 73
117
 74
116
 0
VERTEX
 8
EXTRUDE_2
 10
0
 20
0
 30
0
 70
128
 71
49
 72
50
 73
118
 74
117
 0
VERTEX
 8
EXTRUDE_2
 10
0
 20
0
 30
0
 70
128
 71
50
 72
51
 73
119
 74
118
 0
VERTEX
 8
EXTRUDE_2
 10
0
 20
0
 30
0
 70
128
 71
51
 72
52
 73
120
 74
119
 0
VERTEX
 8
EXTRUDE_2
 10
0
 20
0
 30
0
 70
128
 71
52
 72
53
 73
121
 74
120
 0
VERTEX
 8
EXTRUDE_2
 10
0
 20
0
 30
0
 70
128
 71
53
 72
54
 73
122
 74
121
 0
VERTEX
 8
EXTRUDE_2
 10
0
 20
0
 30
0
 70
128
 71
54
 72
55
 73
123
 74
122
 0
VERTEX
 8
EXTRUDE_2
 10
0
 20
0
 30
0
 70
128
 71
55
 72
56
 73
124
 74
123
 0
VERTEX
 8
EXTRUDE_2
 10
0
 20
0
 30
0
 70
128
 71
56
 72
57
 73
125
 74
124
 0
VERTEX
 8
EXTRUDE_2
 10
0
 20
0
 30
0
 70
128
 71
57
 72
58
 73
126
 74
125
 0
VERTEX
 8
EXTRUDE_2
 10
0
 20
0
 30
0
 70
128
 71
58
 72
59
 73
127
 74
126
 0
VERTEX
 8
EXTRUDE_2
 10
0
 20
0
 30
0
 70
128
 71
59
 72
60
 73
128
 74
127
 0
VERTEX
 8
EXTRUDE_2
 10
0
 20
0
 30
0
 70
128
 71
60
 72
61
 73
129
 74
128
 0
VERTEX
 8
EXTRUDE_2
 10
0
 20
0
 30
0
 70
128
 71
61
 72
62
 73
130
 74
129
 0
VERTEX
 8
EXTRUDE_2
 10
0
 20
0
 30
0
 70
128
 71
62
 72
63
 73
131
 74
130
 0
VERTEX
 8
EXTRUDE_2
 10
0
 20
0
 30
0
 70
128
 71
63
 72
64
 73
132
 74
131
 0
VERTEX
 8
EXTRUDE_2
 10
0
 20
0
 30
0
 70
128
 71
64
 72
65
 73
133
 74
132
 0
VERTEX
 8
EXTRUDE_2
 10
0
 20
0
 30
0
 70
128
 71
65
 72
66
 73
134
 74
133
 0
VERTEX
 8
EXTRUDE_2
 10
0
 20
0
 30
0
 70
128
 71
66
 72
67
 73
135
 74
134
 0
VERTEX
 8
EXTRUDE_2
 10
0
 20
0
 30
0
 70
128
 71
67
 72
68
 73
136
 74
135
 0
VERTEX
 8
EXTRUDE_2
 10
0
 20
0
 30
0
 70
128
 71
68
 72
1
 73
69
 74
136
 0
SEQEND
 0
POLYLINE
 8
TAPA_1_1
 66
1
 10
0.0
 20
0.0
 30
0.0
 70
64
 71
68
 72
56
 0
VERTEX
 8
TAPA_1_1
 10
-0.0021
 20
0.0913
 30
-0.0253
 70
192
 0
VERTEX
 8
TAPA_1_1
 10
0.0012
 20
0.0943
 30
-0.0239
 70
192
 0
VERTEX
 8
TAPA_1_1
 10
0.0087
 20
0.1014
 30
-0.0216
 70
192
 0
VERTEX
 8
TAPA_1_1
 10
0.0163
 20
0.1084
 30
-0.0204
 70
192
 0
VERTEX
 8
TAPA_1_1
 10
0.0252
 20
0.1166
 30
-0.0202
 70
192
 0
VERTEX
 8
TAPA_1_1
 10
0.0331
 20
0.124
 30
-0.0211
 70
192
 0
VERTEX
 8
TAPA_1_1
 10
0.0415
 20
0.1318
 30
-0.0233
 70
192
 0
VERTEX
 8
TAPA_1_1
 10
0.048
 20
0.1379
 30
-0.026
 70
192
 0
VERTEX
 8
TAPA_1_1
 10
0.0546
 20
0.1441
 30
-0.0298
 70
192
 0
VERTEX
 8
TAPA_1_1
 10
0.0613
 20
0.1503
 30
-0.0347
 70
192
 0
VERTEX
 8
TAPA_1_1
 10
0.0679
 20
0.1565
 30
-0.041
 70
192
 0
VERTEX
 8
TAPA_1_1
 10
0.0723
 20
0.1605
 30
-0.0459
 70
192
 0
VERTEX
 8
TAPA_1_1
 10
0.0787
 20
0.1665
 30
-0.0546
 70
192
 0
VERTEX
 8
TAPA_1_1
 10
0.0788
 20
0.1666
 30
-0.0546
 70
192
 0
VERTEX
 8
TAPA_1_1
 10
0.0793
 20
0.1671
 30
-0.0543
 70
192
 0
VERTEX
 8
TAPA_1_1
 10
0.0861
 20
0.1739
 30
-0.05
 70
192
 0
VERTEX
 8
TAPA_1_1
 10
0.0906
 20
0.1784
 30
-0.0481
 70
192
 0
VERTEX
 8
TAPA_1_1
 10
0.096
 20
0.1836
 30
-0.0465
 70
192
 0
VERTEX
 8
TAPA_1_1
 10
0.1006
 20
0.188
 30
-0.0459
 70
192
 0
VERTEX
 8
TAPA_1_1
 10
0.1055
 20
0.1927
 30
-0.0459
 70
192
 0
VERTEX
 8
TAPA_1_1
 10
0.1107
 20
0.1977
 30
-0.0468
 70
192
 0
VERTEX
 8
TAPA_1_1
 10
0.1162
 20
0.2028
 30
-0.0486
 70
192
 0
VERTEX
 8
TAPA_1_1
 10
0.1199
 20
0.2063
 30
-0.0505
 70
192
 0
VERTEX
 8
TAPA_1_1
 10
0.1238
 20
0.2099
 30
-0.0529
 70
192
 0
VERTEX
 8
TAPA_1_1
 10
0.1297
 20
0.2152
 30
-0.0578
 70
192
 0
VERTEX
 8
TAPA_1_1
 10
0.1358
 20
0.2206
 30
-0.0642
 70
192
 0
VERTEX
 8
TAPA_1_1
 10
0.1418
 20
0.2259
 30
-0.0724
 70
192
 0
VERTEX
 8
TAPA_1_1
 10
0.1459
 20
0.2294
 30
-0.0789
 70
192
 0
VERTEX
 8
TAPA_1_1
 10
0.1499
 20
0.2328
 30
-0.0864
 70
192
 0
VERTEX
 8
TAPA_1_1
 10
0.1559
 20
0.2383
 30
-0.0846
 70
192
 0
VERTEX
 8
TAPA_1_1
 10
0.1649
 20
0.2467
 30
-0.083
 70
192
 0
VERTEX
 8
TAPA_1_1
 10
0.1745
 20
0.2556
 30
-0.0826
 70
192
 0
VERTEX
 8
TAPA_1_1
 10
0.1828
 20
0.2633
 30
-0.0834
 70
192
 0
VERTEX
 8
TAPA_1_1
 10
0.1891
 20
0.2692
 30
-0.085
 70
192
 0
VERTEX
 8
TAPA_1_1
 10
0.1954
 20
0.2751
 30
-0.0876
 70
192
 0
VERTEX
 8
TAPA_1_1
 10
0.1995
 20
0.2789
 30
-0.0899
 70
192
 0
VERTEX
 8
TAPA_1_1
 10
0.2034
 20
0.2825
 30
-0.0929
 70
192
 0
VERTEX
 8
TAPA_1_1
 10
0.2071
 20
0.2859
 30
-0.0965
 70
192
 0
VERTEX
 8
TAPA_1_1
 10
0.2105
 20
0.2891
 30
-0.1007
 70
192
 0
VERTEX
 8
TAPA_1_1
 10
0.2136
 20
0.292
 30
-0.1058
 70
192
 0
VERTEX
 8
TAPA_1_1
 10
0.2163
 20
0.2945
 30
-0.1115
 70
192
 0
VERTEX
 8
TAPA_1_1
 10
0.2186
 20
0.2967
 30
-0.1182
 70
192
 0
VERTEX
 8
TAPA_1_1
 10
0.2204
 20
0.2984
 30
-0.1257
 70
192
 0
VERTEX
 8
TAPA_1_1
 10
0.2217
 20
0.2996
 30
-0.1342
 70
192
 0
VERTEX
 8
TAPA_1_1
 10
0.2225
 20
0.3003
 30
-0.1436
 70
192
 0
VERTEX
 8
TAPA_1_1
 10
0.2222
 20
0.3001
 30
-0.1433
 70
192
 0
VERTEX
 8
TAPA_1_1
 10
0.2218
 20
0.2997
 30
-0.1431
 70
192
 0
VERTEX
 8
TAPA_1_1
 10
0.2212
 20
0.2991
 30
-0.1428
 70
192
 0
VERTEX
 8
TAPA_1_1
 10
0.2195
 20
0.2975
 30
-0.1424
 70
192
 0
VERTEX
 8
TAPA_1_1
 10
0.174
 20
0.2552
 30
-0.1413
 70
192
 0
VERTEX
 8
TAPA_1_1
 10
0.1374
 20
0.2211
 30
-0.1424
 70
192
 0
VERTEX
 8
TAPA_1_1
 10
0.1373
 20
0.221
 30
-0.142
 70
192
 0
VERTEX
 8
TAPA_1_1
 10
0.1372
 20
0.2209
 30
-0.1409
 70
192
 0
VERTEX
 8
TAPA_1_1
 10
0.1368
 20
0.2206
 30
-0.1397
 70
192
 0
VERTEX
 8
TAPA_1_1
 10
0.1363
 20
0.2201
 30
-0.1382
 70
192
 0
VERTEX
 8
TAPA_1_1
 10
0.1358
 20
0.2196
 30
-0.137
 70
192
 0
VERTEX
 8
TAPA_1_1
 10
0.135
 20
0.2189
 30
-0.1357
 70
192
 0
VERTEX
 8
TAPA_1_1
 10
0.1341
 20
0.2181
 30
-0.1344
 70
192
 0
VERTEX
 8
TAPA_1_1
 10
0.133
 20
0.217
 30
-0.1332
 70
192
 0
VERTEX
 8
TAPA_1_1
 10
0.1317
 20
0.2158
 30
-0.132
 70
192
 0
VERTEX
 8
TAPA_1_1
 10
0.1301
 20
0.2143
 30
-0.1309
 70
192
 0
VERTEX
 8
TAPA_1_1
 10
0.1283
 20
0.2126
 30
-0.1299
 70
192
 0
VERTEX
 8
TAPA_1_1
 10
0.1262
 20
0.2107
 30
-0.1291
 70
192
 0
VERTEX
 8
TAPA_1_1
 10
0.1237
 20
0.2084
 30
-0.1285
 70
192
 0
VERTEX
 8
TAPA_1_1
 10
0.1219
 20
0.2067
 30
-0.1283
 70
192
 0
VERTEX
 8
TAPA_1_1
 10
0.119
 20
0.2039
 30
-0.1281
 70
192
 0
VERTEX
 8
TAPA_1_1
 10
-0.0021
 20
0.0913
 30
-0.1245
 70
192
 0
VERTEX
 8
TAPA_1_1
 10
-0.0021
 20
0.0913
 30
-0.0277
 70
192
 0
VERTEX
 8
TAPA_1_1
 10
0
 20
0
 30
0
 70
128
 71
4
 72
68
 73
67
 74
5
 0
VERTEX
 8
TAPA_1_1
 10
0
 20
0
 30
0
 70
128
 71
68
 72
4
 73
3
 74
2
 0
VERTEX
 8
TAPA_1_1
 10
0
 20
0
 30
0
 70
128
 71
68
 72
2
 73
1
 74
1
 0
VERTEX
 8
TAPA_1_1
 10
0
 20
0
 30
0
 70
128
 71
67
 72
66
 73
13
 74
12
 0
VERTEX
 8
TAPA_1_1
 10
0
 20
0
 30
0
 70
128
 71
67
 72
12
 73
11
 74
11
 0
VERTEX
 8
TAPA_1_1
 10
0
 20
0
 30
0
 70
128
 71
67
 72
11
 73
10
 74
10
 0
VERTEX
 8
TAPA_1_1
 10
0
 20
0
 30
0
 70
128
 71
67
 72
10
 73
9
 74
9
 0
VERTEX
 8
TAPA_1_1
 10
0
 20
0
 30
0
 70
128
 71
67
 72
9
 73
8
 74
8
 0
VERTEX
 8
TAPA_1_1
 10
0
 20
0
 30
0
 70
128
 71
67
 72
8
 73
7
 74
7
 0
VERTEX
 8
TAPA_1_1
 10
0
 20
0
 30
0
 70
128
 71
67
 72
7
 73
6
 74
6
 0
VERTEX
 8
TAPA_1_1
 10
0
 20
0
 30
0
 70
128
 71
67
 72
6
 73
5
 74
5
 0
VERTEX
 8
TAPA_1_1
 10
0
 20
0
 30
0
 70
128
 71
66
 72
22
 73
21
 74
21
 0
VERTEX
 8
TAPA_1_1
 10
0
 20
0
 30
0
 70
128
 71
66
 72
21
 73
20
 74
20
 0
VERTEX
 8
TAPA_1_1
 10
0
 20
0
 30
0
 70
128
 71
66
 72
20
 73
19
 74
19
 0
VERTEX
 8
TAPA_1_1
 10
0
 20
0
 30
0
 70
128
 71
66
 72
19
 73
18
 74
18
 0
VERTEX
 8
TAPA_1_1
 10
0
 20
0
 30
0
 70
128
 71
66
 72
18
 73
17
 74
17
 0
VERTEX
 8
TAPA_1_1
 10
0
 20
0
 30
0
 70
128
 71
66
 72
17
 73
16
 74
16
 0
VERTEX
 8
TAPA_1_1
 10
0
 20
0
 30
0
 70
128
 71
66
 72
16
 73
15
 74
15
 0
VERTEX
 8
TAPA_1_1
 10
0
 20
0
 30
0
 70
128
 71
66
 72
15
 73
14
 74
14
 0
VERTEX
 8
TAPA_1_1
 10
0
 20
0
 30
0
 70
128
 71
66
 72
14
 73
13
 74
13
 0
VERTEX
 8
TAPA_1_1
 10
0
 20
0
 30
0
 70
128
 71
66
 72
65
 73
27
 74
27
 0
VERTEX
 8
TAPA_1_1
 10
0
 20
0
 30
0
 70
128
 71
66
 72
27
 73
26
 74
25
 0
VERTEX
 8
TAPA_1_1
 10
0
 20
0
 30
0
 70
128
 71
66
 72
25
 73
24
 74
24
 0
VERTEX
 8
TAPA_1_1
 10
0
 20
0
 30
0
 70
128
 71
66
 72
24
 73
23
 74
23
 0
VERTEX
 8
TAPA_1_1
 10
0
 20
0
 30
0
 70
128
 71
66
 72
23
 73
22
 74
22
 0
VERTEX
 8
TAPA_1_1
 10
0
 20
0
 30
0
 70
128
 71
27
 72
65
 73
64
 74
28
 0
VERTEX
 8
TAPA_1_1
 10
0
 20
0
 30
0
 70
128
 71
28
 72
64
 73
63
 74
29
 0
VERTEX
 8
TAPA_1_1
 10
0
 20
0
 30
0
 70
128
 71
63
 72
62
 73
29
 74
29
 0
VERTEX
 8
TAPA_1_1
 10
0
 20
0
 30
0
 70
128
 71
62
 72
61
 73
29
 74
29
 0
VERTEX
 8
TAPA_1_1
 10
0
 20
0
 30
0
 70
128
 71
61
 72
60
 73
29
 74
29
 0
VERTEX
 8
TAPA_1_1
 10
0
 20
0
 30
0
 70
128
 71
60
 72
59
 73
29
 74
29
 0
VERTEX
 8
TAPA_1_1
 10
0
 20
0
 30
0
 70
128
 71
59
 72
58
 73
29
 74
29
 0
VERTEX
 8
TAPA_1_1
 10
0
 20
0
 30
0
 70
128
 71
58
 72
57
 73
29
 74
29
 0
VERTEX
 8
TAPA_1_1
 10
0
 20
0
 30
0
 70
128
 71
57
 72
56
 73
29
 74
29
 0
VERTEX
 8
TAPA_1_1
 10
0
 20
0
 30
0
 70
128
 71
56
 72
55
 73
50
 74
50
 0
VERTEX
 8
TAPA_1_1
 10
0
 20
0
 30
0
 70
128
 71
29
 72
56
 73
50
 74
30
 0
VERTEX
 8
TAPA_1_1
 10
0
 20
0
 30
0
 70
128
 71
55
 72
54
 73
50
 74
50
 0
VERTEX
 8
TAPA_1_1
 10
0
 20
0
 30
0
 70
128
 71
54
 72
53
 73
50
 74
50
 0
VERTEX
 8
TAPA_1_1
 10
0
 20
0
 30
0
 70
128
 71
53
 72
52
 73
50
 74
50
 0
VERTEX
 8
TAPA_1_1
 10
0
 20
0
 30
0
 70
128
 71
52
 72
51
 73
50
 74
50
 0
VERTEX
 8
TAPA_1_1
 10
0
 20
0
 30
0
 70
128
 71
31
 72
30
 73
50
 74
32
 0
VERTEX
 8
TAPA_1_1
 10
0
 20
0
 30
0
 70
128
 71
50
 72
49
 73
42
 74
41
 0
VERTEX
 8
TAPA_1_1
 10
0
 20
0
 30
0
 70
128
 71
50
 72
41
 73
40
 74
40
 0
VERTEX
 8
TAPA_1_1
 10
0
 20
0
 30
0
 70
128
 71
50
 72
40
 73
39
 74
39
 0
VERTEX
 8
TAPA_1_1
 10
0
 20
0
 30
0
 70
128
 71
50
 72
39
 73
38
 74
38
 0
VERTEX
 8
TAPA_1_1
 10
0
 20
0
 30
0
 70
128
 71
50
 72
38
 73
37
 74
37
 0
VERTEX
 8
TAPA_1_1
 10
0
 20
0
 30
0
 70
128
 71
50
 72
37
 73
36
 74
36
 0
VERTEX
 8
TAPA_1_1
 10
0
 20
0
 30
0
 70
128
 71
50
 72
36
 73
35
 74
35
 0
VERTEX
 8
TAPA_1_1
 10
0
 20
0
 30
0
 70
128
 71
50
 72
35
 73
34
 74
34
 0
VERTEX
 8
TAPA_1_1
 10
0
 20
0
 30
0
 70
128
 71
50
 72
34
 73
33
 74
33
 0
VERTEX
 8
TAPA_1_1
 10
0
 20
0
 30
0
 70
128
 71
50
 72
33
 73
32
 74
32
 0
VERTEX
 8
TAPA_1_1
 10
0
 20
0
 30
0
 70
128
 71
49
 72
48
 73
44
 74
44
 0
VERTEX
 8
TAPA_1_1
 10
0
 20
0
 30
0
 70
128
 71
49
 72
44
 73
43
 74
42
 0
VERTEX
 8
TAPA_1_1
 10
0
 20
0
 30
0
 70
128
 71
48
 72
47
 73
44
 74
44
 0
VERTEX
 8
TAPA_1_1
 10
0
 20
0
 30
0
 70
128
 71
47
 72
46
 73
44
 74
44
 0
VERTEX
 8
TAPA_1_1
 10
0
 20
0
 30
0
 70
128
 71
46
 72
45
 73
44
 74
44
 0
SEQEND
 0
POLYLINE
 8
TAPA_2_1
 66
1
 10
0.0
 20
0.0
 30
0.0
 70
64
 71
68
 72
56
 0
VERTEX
 8
TAPA_2_1
 10
0.0933
 20
-0.0112
 30
-0.0253
 70
192
 0
VERTEX
 8
TAPA_2_1
 10
0.0966
 20
-0.0081
 30
-0.0239
 70
192
 0
VERTEX
 8
TAPA_2_1
 10
0.1041
 20
-0.0011
 30
-0.0216
 70
192
 0
VERTEX
 8
TAPA_2_1
 10
0.1116
 20
0.0059
 30
-0.0204
 70
192
 0
VERTEX
 8
TAPA_2_1
 10
0.1205
 20
0.0142
 30
-0.0202
 70
192
 0
VERTEX
 8
TAPA_2_1
 10
0.1284
 20
0.0215
 30
-0.0211
 70
192
 0
VERTEX
 8
TAPA_2_1
 10
0.1368
 20
0.0293
 30
-0.0233
 70
192
 0
VERTEX
 8
TAPA_2_1
 10
0.1434
 20
0.0354
 30
-0.026
 70
192
 0
VERTEX
 8
TAPA_2_1
 10
0.15
 20
0.0416
 30
-0.0298
 70
192
 0
VERTEX
 8
TAPA_2_1
 10
0.1567
 20
0.0478
 30
-0.0347
 70
192
 0
VERTEX
 8
TAPA_2_1
 10
0.1633
 20
0.054
 30
-0.041
 70
192
 0
VERTEX
 8
TAPA_2_1
 10
0.1677
 20
0.058
 30
-0.0459
 70
192
 0
VERTEX
 8
TAPA_2_1
 10
0.1741
 20
0.064
 30
-0.0546
 70
192
 0
VERTEX
 8
TAPA_2_1
 10
0.1742
 20
0.0641
 30
-0.0546
 70
192
 0
VERTEX
 8
TAPA_2_1
 10
0.1747
 20
0.0646
 30
-0.0543
 70
192
 0
VERTEX
 8
TAPA_2_1
 10
0.1815
 20
0.0714
 30
-0.05
 70
192
 0
VERTEX
 8
TAPA_2_1
 10
0.186
 20
0.0759
 30
-0.0481
 70
192
 0
VERTEX
 8
TAPA_2_1
 10
0.1914
 20
0.0811
 30
-0.0465
 70
192
 0
VERTEX
 8
TAPA_2_1
 10
0.1959
 20
0.0855
 30
-0.0459
 70
192
 0
VERTEX
 8
TAPA_2_1
 10
0.2008
 20
0.0902
 30
-0.0459
 70
192
 0
VERTEX
 8
TAPA_2_1
 10
0.2061
 20
0.0952
 30
-0.0468
 70
192
 0
VERTEX
 8
TAPA_2_1
 10
0.2115
 20
0.1003
 30
-0.0486
 70
192
 0
VERTEX
 8
TAPA_2_1
 10
0.2153
 20
0.1038
 30
-0.0505
 70
192
 0
VERTEX
 8
TAPA_2_1
 10
0.2192
 20
0.1074
 30
-0.0529
 70
192
 0
VERTEX
 8
TAPA_2_1
 10
0.2251
 20
0.1128
 30
-0.0578
 70
192
 0
VERTEX
 8
TAPA_2_1
 10
0.2311
 20
0.1181
 30
-0.0642
 70
192
 0
VERTEX
 8
TAPA_2_1
 10
0.2372
 20
0.1234
 30
-0.0724
 70
192
 0
VERTEX
 8
TAPA_2_1
 10
0.2413
 20
0.1269
 30
-0.0789
 70
192
 0
VERTEX
 8
TAPA_2_1
 10
0.2453
 20
0.1303
 30
-0.0864
 70
192
 0
VERTEX
 8
TAPA_2_1
 10
0.2512
 20
0.1358
 30
-0.0846
 70
192
 0
VERTEX
 8
TAPA_2_1
 10
0.2603
 20
0.1442
 30
-0.083
 70
192
 0
VERTEX
 8
TAPA_2_1
 10
0.2698
 20
0.1531
 30
-0.0826
 70
192
 0
VERTEX
 8
TAPA_2_1
 10
0.2781
 20
0.1608
 30
-0.0834
 70
192
 0
VERTEX
 8
TAPA_2_1
 10
0.2845
 20
0.1668
 30
-0.085
 70
192
 0
VERTEX
 8
TAPA_2_1
 10
0.2908
 20
0.1726
 30
-0.0876
 70
192
 0
VERTEX
 8
TAPA_2_1
 10
0.2949
 20
0.1764
 30
-0.0899
 70
192
 0
VERTEX
 8
TAPA_2_1
 10
0.2988
 20
0.18
 30
-0.0929
 70
192
 0
VERTEX
 8
TAPA_2_1
 10
0.3024
 20
0.1835
 30
-0.0965
 70
192
 0
VERTEX
 8
TAPA_2_1
 10
0.3059
 20
0.1866
 30
-0.1007
 70
192
 0
VERTEX
 8
TAPA_2_1
 10
0.309
 20
0.1895
 30
-0.1058
 70
192
 0
VERTEX
 8
TAPA_2_1
 10
0.3117
 20
0.192
 30
-0.1115
 70
192
 0
VERTEX
 8
TAPA_2_1
 10
0.314
 20
0.1942
 30
-0.1182
 70
192
 0
VERTEX
 8
TAPA_2_1
 10
0.3158
 20
0.1959
 30
-0.1257
 70
192
 0
VERTEX
 8
TAPA_2_1
 10
0.3171
 20
0.1971
 30
-0.1342
 70
192
 0
VERTEX
 8
TAPA_2_1
 10
0.3179
 20
0.1978
 30
-0.1436
 70
192
 0
VERTEX
 8
TAPA_2_1
 10
0.3176
 20
0.1976
 30
-0.1433
 70
192
 0
VERTEX
 8
TAPA_2_1
 10
0.3172
 20
0.1972
 30
-0.1431
 70
192
 0
VERTEX
 8
TAPA_2_1
 10
0.3166
 20
0.1966
 30
-0.1428
 70
192
 0
VERTEX
 8
TAPA_2_1
 10
0.3149
 20
0.195
 30
-0.1424
 70
192
 0
VERTEX
 8
TAPA_2_1
 10
0.2694
 20
0.1527
 30
-0.1413
 70
192
 0
VERTEX
 8
TAPA_2_1
 10
0.2328
 20
0.1186
 30
-0.1424
 70
192
 0
VERTEX
 8
TAPA_2_1
 10
0.2327
 20
0.1186
 30
-0.142
 70
192
 0
VERTEX
 8
TAPA_2_1
 10
0.2325
 20
0.1184
 30
-0.1409
 70
192
 0
VERTEX
 8
TAPA_2_1
 10
0.2322
 20
0.1181
 30
-0.1397
 70
192
 0
VERTEX
 8
TAPA_2_1
 10
0.2317
 20
0.1176
 30
-0.1382
 70
192
 0
VERTEX
 8
TAPA_2_1
 10
0.2311
 20
0.1171
 30
-0.137
 70
192
 0
VERTEX
 8
TAPA_2_1
 10
0.2304
 20
0.1164
 30
-0.1357
 70
192
 0
VERTEX
 8
TAPA_2_1
 10
0.2295
 20
0.1156
 30
-0.1344
 70
192
 0
VERTEX
 8
TAPA_2_1
 10
0.2284
 20
0.1145
 30
-0.1332
 70
192
 0
VERTEX
 8
TAPA_2_1
 10
0.2271
 20
0.1133
 30
-0.132
 70
192
 0
VERTEX
 8
TAPA_2_1
 10
0.2255
 20
0.1118
 30
-0.1309
 70
192
 0
VERTEX
 8
TAPA_2_1
 10
0.2237
 20
0.1101
 30
-0.1299
 70
192
 0
VERTEX
 8
TAPA_2_1
 10
0.2216
 20
0.1082
 30
-0.1291
 70
192
 0
VERTEX
 8
TAPA_2_1
 10
0.2191
 20
0.1059
 30
-0.1285
 70
192
 0
VERTEX
 8
TAPA_2_1
 10
0.2173
 20
0.1042
 30
-0.1283
 70
192
 0
VERTEX
 8
TAPA_2_1
 10
0.2143
 20
0.1015
 30
-0.1281
 70
192
 0
VERTEX
 8
TAPA_2_1
 10
0.0933
 20
-0.0112
 30
-0.1245
 70
192
 0
VERTEX
 8
TAPA_2_1
 10
0.0933
 20
-0.0112
 30
-0.0277
 70
192
 0
VERTEX
 8
TAPA_2_1
 10
0
 20
0
 30
0
 70
128
 71
1
 72
2
 73
68
 74
68
 0
VERTEX
 8
TAPA_2_1
 10
0
 20
0
 30
0
 70
128
 71
68
 72
2
 73
3
 74
4
 0
VERTEX
 8
TAPA_2_1
 10
0
 20
0
 30
0
 70
128
 71
67
 72
68
 73
4
 74
5
 0
VERTEX
 8
TAPA_2_1
 10
0
 20
0
 30
0
 70
128
 71
5
 72
6
 73
67
 74
67
 0
VERTEX
 8
TAPA_2_1
 10
0
 20
0
 30
0
 70
128
 71
6
 72
7
 73
67
 74
67
 0
VERTEX
 8
TAPA_2_1
 10
0
 20
0
 30
0
 70
128
 71
7
 72
8
 73
67
 74
67
 0
VERTEX
 8
TAPA_2_1
 10
0
 20
0
 30
0
 70
128
 71
8
 72
9
 73
67
 74
67
 0
VERTEX
 8
TAPA_2_1
 10
0
 20
0
 30
0
 70
128
 71
9
 72
10
 73
67
 74
67
 0
VERTEX
 8
TAPA_2_1
 10
0
 20
0
 30
0
 70
128
 71
10
 72
11
 73
67
 74
67
 0
VERTEX
 8
TAPA_2_1
 10
0
 20
0
 30
0
 70
128
 71
11
 72
12
 73
67
 74
67
 0
VERTEX
 8
TAPA_2_1
 10
0
 20
0
 30
0
 70
128
 71
67
 72
12
 73
13
 74
66
 0
VERTEX
 8
TAPA_2_1
 10
0
 20
0
 30
0
 70
128
 71
13
 72
14
 73
66
 74
66
 0
VERTEX
 8
TAPA_2_1
 10
0
 20
0
 30
0
 70
128
 71
14
 72
15
 73
66
 74
66
 0
VERTEX
 8
TAPA_2_1
 10
0
 20
0
 30
0
 70
128
 71
15
 72
16
 73
66
 74
66
 0
VERTEX
 8
TAPA_2_1
 10
0
 20
0
 30
0
 70
128
 71
16
 72
17
 73
66
 74
66
 0
VERTEX
 8
TAPA_2_1
 10
0
 20
0
 30
0
 70
128
 71
17
 72
18
 73
66
 74
66
 0
VERTEX
 8
TAPA_2_1
 10
0
 20
0
 30
0
 70
128
 71
18
 72
19
 73
66
 74
66
 0
VERTEX
 8
TAPA_2_1
 10
0
 20
0
 30
0
 70
128
 71
19
 72
20
 73
66
 74
66
 0
VERTEX
 8
TAPA_2_1
 10
0
 20
0
 30
0
 70
128
 71
20
 72
21
 73
66
 74
66
 0
VERTEX
 8
TAPA_2_1
 10
0
 20
0
 30
0
 70
128
 71
21
 72
22
 73
66
 74
66
 0
VERTEX
 8
TAPA_2_1
 10
0
 20
0
 30
0
 70
128
 71
22
 72
23
 73
66
 74
66
 0
VERTEX
 8
TAPA_2_1
 10
0
 20
0
 30
0
 70
128
 71
23
 72
24
 73
66
 74
66
 0
VERTEX
 8
TAPA_2_1
 10
0
 20
0
 30
0
 70
128
 71
24
 72
25
 73
66
 74
66
 0
VERTEX
 8
TAPA_2_1
 10
0
 20
0
 30
0
 70
128
 71
66
 72
25
 73
26
 74
27
 0
VERTEX
 8
TAPA_2_1
 10
0
 20
0
 30
0
 70
128
 71
64
 72
65
 73
27
 74
28
 0
VERTEX
 8
TAPA_2_1
 10
0
 20
0
 30
0
 70
128
 71
27
 72
65
 73
66
 74
66
 0
VERTEX
 8
TAPA_2_1
 10
0
 20
0
 30
0
 70
128
 71
63
 72
64
 73
28
 74
29
 0
VERTEX
 8
TAPA_2_1
 10
0
 20
0
 30
0
 70
128
 71
29
 72
56
 73
57
 74
57
 0
VERTEX
 8
TAPA_2_1
 10
0
 20
0
 30
0
 70
128
 71
29
 72
57
 73
58
 74
58
 0
VERTEX
 8
TAPA_2_1
 10
0
 20
0
 30
0
 70
128
 71
29
 72
58
 73
59
 74
59
 0
VERTEX
 8
TAPA_2_1
 10
0
 20
0
 30
0
 70
128
 71
29
 72
59
 73
60
 74
60
 0
VERTEX
 8
TAPA_2_1
 10
0
 20
0
 30
0
 70
128
 71
29
 72
60
 73
61
 74
61
 0
VERTEX
 8
TAPA_2_1
 10
0
 20
0
 30
0
 70
128
 71
29
 72
61
 73
62
 74
62
 0
VERTEX
 8
TAPA_2_1
 10
0
 20
0
 30
0
 70
128
 71
29
 72
62
 73
63
 74
63
 0
VERTEX
 8
TAPA_2_1
 10
0
 20
0
 30
0
 70
128
 71
29
 72
30
 73
50
 74
56
 0
VERTEX
 8
TAPA_2_1
 10
0
 20
0
 30
0
 70
128
 71
50
 72
30
 73
31
 74
32
 0
VERTEX
 8
TAPA_2_1
 10
0
 20
0
 30
0
 70
128
 71
32
 72
33
 73
50
 74
50
 0
VERTEX
 8
TAPA_2_1
 10
0
 20
0
 30
0
 70
128
 71
33
 72
34
 73
50
 74
50
 0
VERTEX
 8
TAPA_2_1
 10
0
 20
0
 30
0
 70
128
 71
34
 72
35
 73
50
 74
50
 0
VERTEX
 8
TAPA_2_1
 10
0
 20
0
 30
0
 70
128
 71
35
 72
36
 73
50
 74
50
 0
VERTEX
 8
TAPA_2_1
 10
0
 20
0
 30
0
 70
128
 71
36
 72
37
 73
50
 74
50
 0
VERTEX
 8
TAPA_2_1
 10
0
 20
0
 30
0
 70
128
 71
37
 72
38
 73
50
 74
50
 0
VERTEX
 8
TAPA_2_1
 10
0
 20
0
 30
0
 70
128
 71
38
 72
39
 73
50
 74
50
 0
VERTEX
 8
TAPA_2_1
 10
0
 20
0
 30
0
 70
128
 71
39
 72
40
 73
50
 74
50
 0
VERTEX
 8
TAPA_2_1
 10
0
 20
0
 30
0
 70
128
 71
40
 72
41
 73
50
 74
50
 0
VERTEX
 8
TAPA_2_1
 10
0
 20
0
 30
0
 70
128
 71
50
 72
41
 73
42
 74
49
 0
VERTEX
 8
TAPA_2_1
 10
0
 20
0
 30
0
 70
128
 71
49
 72
42
 73
43
 74
44
 0
VERTEX
 8
TAPA_2_1
 10
0
 20
0
 30
0
 70
128
 71
44
 72
48
 73
49
 74
49
 0
VERTEX
 8
TAPA_2_1
 10
0
 20
0
 30
0
 70
128
 71
44
 72
45
 73
46
 74
46
 0
VERTEX
 8
TAPA_2_1
 10
0
 20
0
 30
0
 70
128
 71
44
 72
46
 73
47
 74
47
 0
VERTEX
 8
TAPA_2_1
 10
0
 20
0
 30
0
 70
128
 71
44
 72
47
 73
48
 74
48
 0
VERTEX
 8
TAPA_2_1
 10
0
 20
0
 30
0
 70
128
 71
50
 72
51
 73
52
 74
52
 0
VERTEX
 8
TAPA_2_1
 10
0
 20
0
 30
0
 70
128
 71
50
 72
52
 73
53
 74
53
 0
VERTEX
 8
TAPA_2_1
 10
0
 20
0
 30
0
 70
128
 71
50
 72
53
 73
54
 74
54
 0
VERTEX
 8
TAPA_2_1
 10
0
 20
0
 30
0
 70
128
 71
50
 72
54
 73
55
 74
55
 0
VERTEX
 8
TAPA_2_1
 10
0
 20
0
 30
0
 70
128
 71
50
 72
55
 73
56
 74
56
 0
SEQEND
 0
POLYLINE
 8
EXTRUDE_1
 66
1
 10
0.0
 20
0.0
 30
0.0
 70
64
 71
136
 72
68
 0
VERTEX
 8
EXTRUDE_1
 10
-0.1024
 20
-0.0013
 30
-0.0253
 70
192
 0
VERTEX
 8
EXTRUDE_1
 10
-0.1055
 20
0.0019
 30
-0.0239
 70
192
 0
VERTEX
 8
EXTRUDE_1
 10
-0.1125
 20
0.0095
 30
-0.0216
 70
192
 0
VERTEX
 8
EXTRUDE_1
 10
-0.1195
 20
0.017
 30
-0.0204
 70
192
 0
VERTEX
 8
EXTRUDE_1
 10
-0.1278
 20
0.0259
 30
-0.0202
 70
192
 0
VERTEX
 8
EXTRUDE_1
 10
-0.1351
 20
0.0338
 30
-0.0211
 70
192
 0
VERTEX
 8
EXTRUDE_1
 10
-0.143
 20
0.0422
 30
-0.0233
 70
192
 0
VERTEX
 8
EXTRUDE_1
 10
-0.149
 20
0.0487
 30
-0.026
 70
192
 0
VERTEX
 8
EXTRUDE_1
 10
-0.1552
 20
0.0554
 30
-0.0298
 70
192
 0
VERTEX
 8
EXTRUDE_1
 10
-0.1614
 20
0.062
 30
-0.0347
 70
192
 0
VERTEX
 8
EXTRUDE_1
 10
-0.1676
 20
0.0687
 30
-0.041
 70
192
 0
VERTEX
 8
EXTRUDE_1
 10
-0.1717
 20
0.073
 30
-0.0459
 70
192
 0
VERTEX
 8
EXTRUDE_1
 10
-0.1776
 20
0.0795
 30
-0.0546
 70
192
 0
VERTEX
 8
EXTRUDE_1
 10
-0.1777
 20
0.0796
 30
-0.0546
 70
192
 0
VERTEX
 8
EXTRUDE_1
 10
-0.1782
 20
0.08
 30
-0.0543
 70
192
 0
VERTEX
 8
EXTRUDE_1
 10
-0.185
 20
0.0868
 30
-0.05
 70
192
 0
VERTEX
 8
EXTRUDE_1
 10
-0.1895
 20
0.0914
 30
-0.0481
 70
192
 0
VERTEX
 8
EXTRUDE_1
 10
-0.1948
 20
0.0968
 30
-0.0465
 70
192
 0
VERTEX
 8
EXTRUDE_1
 10
-0.1992
 20
0.1013
 30
-0.0459
 70
192
 0
VERTEX
 8
EXTRUDE_1
 10
-0.2039
 20
0.1062
 30
-0.0459
 70
192
 0
VERTEX
 8
EXTRUDE_1
 10
-0.2088
 20
0.1114
 30
-0.0468
 70
192
 0
VERTEX
 8
EXTRUDE_1
 10
-0.214
 20
0.1169
 30
-0.0486
 70
192
 0
VERTEX
 8
EXTRUDE_1
 10
-0.2175
 20
0.1207
 30
-0.0505
 70
192
 0
VERTEX
 8
EXTRUDE_1
 10
-0.221
 20
0.1245
 30
-0.0529
 70
192
 0
VERTEX
 8
EXTRUDE_1
 10
-0.2264
 20
0.1305
 30
-0.0578
 70
192
 0
VERTEX
 8
EXTRUDE_1
 10
-0.2317
 20
0.1365
 30
-0.0642
 70
192
 0
VERTEX
 8
EXTRUDE_1
 10
-0.237
 20
0.1426
 30
-0.0724
 70
192
 0
VERTEX
 8
EXTRUDE_1
 10
-0.2405
 20
0.1466
 30
-0.0789
 70
192
 0
VERTEX
 8
EXTRUDE_1
 10
-0.2439
 20
0.1507
 30
-0.0864
 70
192
 0
VERTEX
 8
EXTRUDE_1
 10
-0.2494
 20
0.1566
 30
-0.0846
 70
192
 0
VERTEX
 8
EXTRUDE_1
 10
-0.2579
 20
0.1657
 30
-0.083
 70
192
 0
VERTEX
 8
EXTRUDE_1
 10
-0.2667
 20
0.1752
 30
-0.0826
 70
192
 0
VERTEX
 8
EXTRUDE_1
 10
-0.2745
 20
0.1835
 30
-0.0834
 70
192
 0
VERTEX
 8
EXTRUDE_1
 10
-0.2804
 20
0.1899
 30
-0.085
 70
192
 0
VERTEX
 8
EXTRUDE_1
 10
-0.2862
 20
0.1962
 30
-0.0876
 70
192
 0
VERTEX
 8
EXTRUDE_1
 10
-0.29
 20
0.2002
 30
-0.0899
 70
192
 0
VERTEX
 8
EXTRUDE_1
 10
-0.2936
 20
0.2041
 30
-0.0929
 70
192
 0
VERTEX
 8
EXTRUDE_1
 10
-0.2971
 20
0.2078
 30
-0.0965
 70
192
 0
VERTEX
 8
EXTRUDE_1
 10
-0.3003
 20
0.2112
 30
-0.1007
 70
192
 0
VERTEX
 8
EXTRUDE_1
 10
-0.3031
 20
0.2143
 30
-0.1058
 70
192
 0
VERTEX
 8
EXTRUDE_1
 10
-0.3057
 20
0.217
 30
-0.1115
 70
192
 0
VERTEX
 8
EXTRUDE_1
 10
-0.3078
 20
0.2193
 30
-0.1182
 70
192
 0
VERTEX
 8
EXTRUDE_1
 10
-0.3095
 20
0.2212
 30
-0.1257
 70
192
 0
VERTEX
 8
EXTRUDE_1
 10
-0.3107
 20
0.2225
 30
-0.1342
 70
192
 0
VERTEX
 8
EXTRUDE_1
 10
-0.3114
 20
0.2232
 30
-0.1436
 70
192
 0
VERTEX
 8
EXTRUDE_1
 10
-0.3112
 20
0.223
 30
-0.1433
 70
192
 0
VERTEX
 8
EXTRUDE_1
 10
-0.3108
 20
0.2225
 30
-0.1431
 70
192
 0
VERTEX
 8
EXTRUDE_1
 10
-0.3102
 20
0.2219
 30
-0.1428
 70
192
 0
VERTEX
 8
EXTRUDE_1
 10
-0.3087
 20
0.2203
 30
-0.1424
 70
192
 0
VERTEX
 8
EXTRUDE_1
 10
-0.2663
 20
0.1748
 30
-0.1413
 70
192
 0
VERTEX
 8
EXTRUDE_1
 10
-0.2322
 20
0.1381
 30
-0.1424
 70
192
 0
VERTEX
 8
EXTRUDE_1
 10
-0.2322
 20
0.1381
 30
-0.142
 70
192
 0
VERTEX
 8
EXTRUDE_1
 10
-0.232
 20
0.1379
 30
-0.1409
 70
192
 0
VERTEX
 8
EXTRUDE_1
 10
-0.2317
 20
0.1376
 30
-0.1397
 70
192
 0
VERTEX
 8
EXTRUDE_1
 10
-0.2312
 20
0.137
 30
-0.1382
 70
192
 0
VERTEX
 8
EXTRUDE_1
 10
-0.2307
 20
0.1365
 30
-0.137
 70
192
 0
VERTEX
 8
EXTRUDE_1
 10
-0.23
 20
0.1358
 30
-0.1357
 70
192
 0
VERTEX
 8
EXTRUDE_1
 10
-0.2292
 20
0.1349
 30
-0.1344
 70
192
 0
VERTEX
 8
EXTRUDE_1
 10
-0.2282
 20
0.1338
 30
-0.1332
 70
192
 0
VERTEX
 8
EXTRUDE_1
 10
-0.2269
 20
0.1324
 30
-0.132
 70
192
 0
VERTEX
 8
EXTRUDE_1
 10
-0.2255
 20
0.1309
 30
-0.1309
 70
192
 0
VERTEX
 8
EXTRUDE_1
 10
-0.2238
 20
0.129
 30
-0.1299
 70
192
 0
VERTEX
 8
EXTRUDE_1
 10
-0.2218
 20
0.1269
 30
-0.1291
 70
192
 0
VERTEX
 8
EXTRUDE_1
 10
-0.2195
 20
0.1245
 30
-0.1285
 70
192
 0
VERTEX
 8
EXTRUDE_1
 10
-0.2179
 20
0.1227
 30
-0.1283
 70
192
 0
VERTEX
 8
EXTRUDE_1
 10
-0.2151
 20
0.1197
 30
-0.1281
 70
192
 0
VERTEX
 8
EXTRUDE_1
 10
-0.1024
 20
-0.0013
 30
-0.1245
 70
192
 0
VERTEX
 8
EXTRUDE_1
 10
-0.1024
 20
-0.0013
 30
-0.0277
 70
192
 0
VERTEX
 8
EXTRUDE_1
 10
0.0001
 20
0.094
 30
-0.0253
 70
192
 0
VERTEX
 8
EXTRUDE_1
 10
-0.003
 20
0.0973
 30
-0.0239
 70
192
 0
VERTEX
 8
EXTRUDE_1
 10
-0.01
 20
0.1049
 30
-0.0216
 70
192
 0
VERTEX
 8
EXTRUDE_1
 10
-0.017
 20
0.1124
 30
-0.0204
 70
192
 0
VERTEX
 8
EXTRUDE_1
 10
-0.0253
 20
0.1213
 30
-0.0202
 70
192
 0
VERTEX
 8
EXTRUDE_1
 10
-0.0327
 20
0.1292
 30
-0.0211
 70
192
 0
VERTEX
 8
EXTRUDE_1
 10
-0.0405
 20
0.1376
 30
-0.0233
 70
192
 0
VERTEX
 8
EXTRUDE_1
 10
-0.0465
 20
0.1441
 30
-0.026
 70
192
 0
VERTEX
 8
EXTRUDE_1
 10
-0.0527
 20
0.1507
 30
-0.0298
 70
192
 0
VERTEX
 8
EXTRUDE_1
 10
-0.0589
 20
0.1574
 30
-0.0347
 70
192
 0
VERTEX
 8
EXTRUDE_1
 10
-0.0651
 20
0.164
 30
-0.041
 70
192
 0
VERTEX
 8
EXTRUDE_1
 10
-0.0692
 20
0.1684
 30
-0.0459
 70
192
 0
VERTEX
 8
EXTRUDE_1
 10
-0.0751
 20
0.1748
 30
-0.0546
 70
192
 0
VERTEX
 8
EXTRUDE_1
 10
-0.0753
 20
0.1749
 30
-0.0546
 70
192
 0
VERTEX
 8
EXTRUDE_1
 10
-0.0757
 20
0.1754
 30
-0.0543
 70
192
 0
VERTEX
 8
EXTRUDE_1
 10
-0.0825
 20
0.1822
 30
-0.05
 70
192
 0
VERTEX
 8
EXTRUDE_1
 10
-0.087
 20
0.1868
 30
-0.0481
 70
192
 0
VERTEX
 8
EXTRUDE_1
 10
-0.0923
 20
0.1921
 30
-0.0465
 70
192
 0
VERTEX
 8
EXTRUDE_1
 10
-0.0967
 20
0.1967
 30
-0.0459
 70
192
 0
VERTEX
 8
EXTRUDE_1
 10
-0.1014
 20
0.2016
 30
-0.0459
 70
192
 0
VERTEX
 8
EXTRUDE_1
 10
-0.1063
 20
0.2068
 30
-0.0468
 70
192
 0
VERTEX
 8
EXTRUDE_1
 10
-0.1115
 20
0.2123
 30
-0.0486
 70
192
 0
VERTEX
 8
EXTRUDE_1
 10
-0.115
 20
0.2161
 30
-0.0505
 70
192
 0
VERTEX
 8
EXTRUDE_1
 10
-0.1185
 20
0.2199
 30
-0.0529
 70
192
 0
VERTEX
 8
EXTRUDE_1
 10
-0.1239
 20
0.2258
 30
-0.0578
 70
192
 0
VERTEX
 8
EXTRUDE_1
 10
-0.1293
 20
0.2319
 30
-0.0642
 70
192
 0
VERTEX
 8
EXTRUDE_1
 10
-0.1346
 20
0.2379
 30
-0.0724
 70
192
 0
VERTEX
 8
EXTRUDE_1
 10
-0.138
 20
0.242
 30
-0.0789
 70
192
 0
VERTEX
 8
EXTRUDE_1
 10
-0.1414
 20
0.246
 30
-0.0864
 70
192
 0
VERTEX
 8
EXTRUDE_1
 10
-0.1469
 20
0.252
 30
-0.0846
 70
192
 0
VERTEX
 8
EXTRUDE_1
 10
-0.1554
 20
0.2611
 30
-0.083
 70
192
 0
VERTEX
 8
EXTRUDE_1
 10
-0.1642
 20
0.2706
 30
-0.0826
 70
192
 0
VERTEX
 8
EXTRUDE_1
 10
-0.172
 20
0.2789
 30
-0.0834
 70
192
 0
VERTEX
 8
EXTRUDE_1
 10
-0.1779
 20
0.2852
 30
-0.085
 70
192
 0
VERTEX
 8
EXTRUDE_1
 10
-0.1838
 20
0.2915
 30
-0.0876
 70
192
 0
VERTEX
 8
EXTRUDE_1
 10
-0.1875
 20
0.2956
 30
-0.0899
 70
192
 0
VERTEX
 8
EXTRUDE_1
 10
-0.1912
 20
0.2995
 30
-0.0929
 70
192
 0
VERTEX
 8
EXTRUDE_1
 10
-0.1946
 20
0.3032
 30
-0.0965
 70
192
 0
VERTEX
 8
EXTRUDE_1
 10
-0.1978
 20
0.3066
 30
-0.1007
 70
192
 0
VERTEX
 8
EXTRUDE_1
 10
-0.2007
 20
0.3097
 30
-0.1058
 70
192
 0
VERTEX
 8
EXTRUDE_1
 10
-0.2032
 20
0.3124
 30
-0.1115
 70
192
 0
VERTEX
 8
EXTRUDE_1
 10
-0.2053
 20
0.3147
 30
-0.1182
 70
192
 0
VERTEX
 8
EXTRUDE_1
 10
-0.207
 20
0.3165
 30
-0.1257
 70
192
 0
VERTEX
 8
EXTRUDE_1
 10
-0.2083
 20
0.3179
 30
-0.1342
 70
192
 0
VERTEX
 8
EXTRUDE_1
 10
-0.2089
 20
0.3186
 30
-0.1436
 70
192
 0
VERTEX
 8
EXTRUDE_1
 10
-0.2087
 20
0.3183
 30
-0.1433
 70
192
 0
VERTEX
 8
EXTRUDE_1
 10
-0.2083
 20
0.3179
 30
-0.1431
 70
192
 0
VERTEX
 8
EXTRUDE_1
 10
-0.2078
 20
0.3173
 30
-0.1428
 70
192
 0
VERTEX
 8
EXTRUDE_1
 10
-0.2062
 20
0.3156
 30
-0.1424
 70
192
 0
VERTEX
 8
EXTRUDE_1
 10
-0.1638
 20
0.2701
 30
-0.1413
 70
192
 0
VERTEX
 8
EXTRUDE_1
 10
-0.1297
 20
0.2335
 30
-0.1424
 70
192
 0
VERTEX
 8
EXTRUDE_1
 10
-0.1297
 20
0.2335
 30
-0.142
 70
192
 0
VERTEX
 8
EXTRUDE_1
 10
-0.1295
 20
0.2333
 30
-0.1409
 70
192
 0
VERTEX
 8
EXTRUDE_1
 10
-0.1292
 20
0.2329
 30
-0.1397
 70
192
 0
VERTEX
 8
EXTRUDE_1
 10
-0.1287
 20
0.2324
 30
-0.1382
 70
192
 0
VERTEX
 8
EXTRUDE_1
 10
-0.1282
 20
0.2319
 30
-0.137
 70
192
 0
VERTEX
 8
EXTRUDE_1
 10
-0.1276
 20
0.2311
 30
-0.1357
 70
192
 0
VERTEX
 8
EXTRUDE_1
 10
-0.1267
 20
0.2302
 30
-0.1344
 70
192
 0
VERTEX
 8
EXTRUDE_1
 10
-0.1257
 20
0.2291
 30
-0.1332
 70
192
 0
VERTEX
 8
EXTRUDE_1
 10
-0.1245
 20
0.2278
 30
-0.132
 70
192
 0
VERTEX
 8
EXTRUDE_1
 10
-0.123
 20
0.2262
 30
-0.1309
 70
192
 0
VERTEX
 8
EXTRUDE_1
 10
-0.1213
 20
0.2244
 30
-0.1299
 70
192
 0
VERTEX
 8
EXTRUDE_1
 10
-0.1193
 20
0.2223
 30
-0.1291
 70
192
 0
VERTEX
 8
EXTRUDE_1
 10
-0.117
 20
0.2199
 30
-0.1285
 70
192
 0
VERTEX
 8
EXTRUDE_1
 10
-0.1154
 20
0.2181
 30
-0.1283
 70
192
 0
VERTEX
 8
EXTRUDE_1
 10
-0.1126
 20
0.2151
 30
-0.1281
 70
192
 0
VERTEX
 8
EXTRUDE_1
 10
0.0001
 20
0.094
 30
-0.1245
 70
192
 0
VERTEX
 8
EXTRUDE_1
 10
0.0001
 20
0.094
 30
-0.0277
 70
192
 0
VERTEX
 8
EXTRUDE_1
 10
0
 20
0
 30
0
 70
128
 71
1
 72
2
 73
70
 74
69
 0
VERTEX
 8
EXTRUDE_1
 10
0
 20
0
 30
0
 70
128
 71
2
 72
3
 73
71
 74
70
 0
VERTEX
 8
EXTRUDE_1
 10
0
 20
0
 30
0
 70
128
 71
3
 72
4
 73
72
 74
71
 0
VERTEX
 8
EXTRUDE_1
 10
0
 20
0
 30
0
 70
128
 71
4
 72
5
 73
73
 74
72
 0
VERTEX
 8
EXTRUDE_1
 10
0
 20
0
 30
0
 70
128
 71
5
 72
6
 73
74
 74
73
 0
VERTEX
 8
EXTRUDE_1
 10
0
 20
0
 30
0
 70
128
 71
6
 72
7
 73
75
 74
74
 0
VERTEX
 8
EXTRUDE_1
 10
0
 20
0
 30
0
 70
128
 71
7
 72
8
 73
76
 74
75
 0
VERTEX
 8
EXTRUDE_1
 10
0
 20
0
 30
0
 70
128
 71
8
 72
9
 73
77
 74
76
 0
VERTEX
 8
EXTRUDE_1
 10
0
 20
0
 30
0
 70
128
 71
9
 72
10
 73
78
 74
77
 0
VERTEX
 8
EXTRUDE_1
 10
0
 20
0
 30
0
 70
128
 71
10
 72
11
 73
79
 74
78
 0
VERTEX
 8
EXTRUDE_1
 10
0
 20
0
 30
0
 70
128
 71
11
 72
12
 73
80
 74
79
 0
VERTEX
 8
EXTRUDE_1
 10
0
 20
0
 30
0
 70
128
 71
12
 72
13
 73
81
 74
80
 0
VERTEX
 8
EXTRUDE_1
 10
0
 20
0
 30
0
 70
128
 71
13
 72
14
 73
82
 74
81
 0
VERTEX
 8
EXTRUDE_1
 10
0
 20
0
 30
0
 70
128
 71
14
 72
15
 73
83
 74
82
 0
VERTEX
 8
EXTRUDE_1
 10
0
 20
0
 30
0
 70
128
 71
15
 72
16
 73
84
 74
83
 0
VERTEX
 8
EXTRUDE_1
 10
0
 20
0
 30
0
 70
128
 71
16
 72
17
 73
85
 74
84
 0
VERTEX
 8
EXTRUDE_1
 10
0
 20
0
 30
0
 70
128
 71
17
 72
18
 73
86
 74
85
 0
VERTEX
 8
EXTRUDE_1
 10
0
 20
0
 30
0
 70
128
 71
18
 72
19
 73
87
 74
86
 0
VERTEX
 8
EXTRUDE_1
 10
0
 20
0
 30
0
 70
128
 71
19
 72
20
 73
88
 74
87
 0
VERTEX
 8
EXTRUDE_1
 10
0
 20
0
 30
0
 70
128
 71
20
 72
21
 73
89
 74
88
 0
VERTEX
 8
EXTRUDE_1
 10
0
 20
0
 30
0
 70
128
 71
21
 72
22
 73
90
 74
89
 0
VERTEX
 8
EXTRUDE_1
 10
0
 20
0
 30
0
 70
128
 71
22
 72
23
 73
91
 74
90
 0
VERTEX
 8
EXTRUDE_1
 10
0
 20
0
 30
0
 70
128
 71
23
 72
24
 73
92
 74
91
 0
VERTEX
 8
EXTRUDE_1
 10
0
 20
0
 30
0
 70
128
 71
24
 72
25
 73
93
 74
92
 0
VERTEX
 8
EXTRUDE_1
 10
0
 20
0
 30
0
 70
128
 71
25
 72
26
 73
94
 74
93
 0
VERTEX
 8
EXTRUDE_1
 10
0
 20
0
 30
0
 70
128
 71
26
 72
27
 73
95
 74
94
 0
VERTEX
 8
EXTRUDE_1
 10
0
 20
0
 30
0
 70
128
 71
27
 72
28
 73
96
 74
95
 0
VERTEX
 8
EXTRUDE_1
 10
0
 20
0
 30
0
 70
128
 71
28
 72
29
 73
97
 74
96
 0
VERTEX
 8
EXTRUDE_1
 10
0
 20
0
 30
0
 70
128
 71
29
 72
30
 73
98
 74
97
 0
VERTEX
 8
EXTRUDE_1
 10
0
 20
0
 30
0
 70
128
 71
30
 72
31
 73
99
 74
98
 0
VERTEX
 8
EXTRUDE_1
 10
0
 20
0
 30
0
 70
128
 71
31
 72
32
 73
100
 74
99
 0
VERTEX
 8
EXTRUDE_1
 10
0
 20
0
 30
0
 70
128
 71
32
 72
33
 73
101
 74
100
 0
VERTEX
 8
EXTRUDE_1
 10
0
 20
0
 30
0
 70
128
 71
33
 72
34
 73
102
 74
101
 0
VERTEX
 8
EXTRUDE_1
 10
0
 20
0
 30
0
 70
128
 71
34
 72
35
 73
103
 74
102
 0
VERTEX
 8
EXTRUDE_1
 10
0
 20
0
 30
0
 70
128
 71
35
 72
36
 73
104
 74
103
 0
VERTEX
 8
EXTRUDE_1
 10
0
 20
0
 30
0
 70
128
 71
36
 72
37
 73
105
 74
104
 0
VERTEX
 8
EXTRUDE_1
 10
0
 20
0
 30
0
 70
128
 71
37
 72
38
 73
106
 74
105
 0
VERTEX
 8
EXTRUDE_1
 10
0
 20
0
 30
0
 70
128
 71
38
 72
39
 73
107
 74
106
 0
VERTEX
 8
EXTRUDE_1
 10
0
 20
0
 30
0
 70
128
 71
39
 72
40
 73
108
 74
107
 0
VERTEX
 8
EXTRUDE_1
 10
0
 20
0
 30
0
 70
128
 71
40
 72
41
 73
109
 74
108
 0
VERTEX
 8
EXTRUDE_1
 10
0
 20
0
 30
0
 70
128
 71
41
 72
42
 73
110
 74
109
 0
VERTEX
 8
EXTRUDE_1
 10
0
 20
0
 30
0
 70
128
 71
42
 72
43
 73
111
 74
110
 0
VERTEX
 8
EXTRUDE_1
 10
0
 20
0
 30
0
 70
128
 71
43
 72
44
 73
112
 74
111
 0
VERTEX
 8
EXTRUDE_1
 10
0
 20
0
 30
0
 70
128
 71
44
 72
45
 73
113
 74
112
 0
VERTEX
 8
EXTRUDE_1
 10
0
 20
0
 30
0
 70
128
 71
45
 72
46
 73
114
 74
113
 0
VERTEX
 8
EXTRUDE_1
 10
0
 20
0
 30
0
 70
128
 71
46
 72
47
 73
115
 74
114
 0
VERTEX
 8
EXTRUDE_1
 10
0
 20
0
 30
0
 70
128
 71
47
 72
48
 73
116
 74
115
 0
VERTEX
 8
EXTRUDE_1
 10
0
 20
0
 30
0
 70
128
 71
48
 72
49
 73
117
 74
116
 0
VERTEX
 8
EXTRUDE_1
 10
0
 20
0
 30
0
 70
128
 71
49
 72
50
 73
118
 74
117
 0
VERTEX
 8
EXTRUDE_1
 10
0
 20
0
 30
0
 70
128
 71
50
 72
51
 73
119
 74
118
 0
VERTEX
 8
EXTRUDE_1
 10
0
 20
0
 30
0
 70
128
 71
51
 72
52
 73
120
 74
119
 0
VERTEX
 8
EXTRUDE_1
 10
0
 20
0
 30
0
 70
128
 71
52
 72
53
 73
121
 74
120
 0
VERTEX
 8
EXTRUDE_1
 10
0
 20
0
 30
0
 70
128
 71
53
 72
54
 73
122
 74
121
 0
VERTEX
 8
EXTRUDE_1
 10
0
 20
0
 30
0
 70
128
 71
54
 72
55
 73
123
 74
122
 0
VERTEX
 8
EXTRUDE_1
 10
0
 20
0
 30
0
 70
128
 71
55
 72
56
 73
124
 74
123
 0
VERTEX
 8
EXTRUDE_1
 10
0
 20
0
 30
0
 70
128
 71
56
 72
57
 73
125
 74
124
 0
VERTEX
 8
EXTRUDE_1
 10
0
 20
0
 30
0
 70
128
 71
57
 72
58
 73
126
 74
125
 0
VERTEX
 8
EXTRUDE_1
 10
0
 20
0
 30
0
 70
128
 71
58
 72
59
 73
127
 74
126
 0
VERTEX
 8
EXTRUDE_1
 10
0
 20
0
 30
0
 70
128
 71
59
 72
60
 73
128
 74
127
 0
VERTEX
 8
EXTRUDE_1
 10
0
 20
0
 30
0
 70
128
 71
60
 72
61
 73
129
 74
128
 0
VERTEX
 8
EXTRUDE_1
 10
0
 20
0
 30
0
 70
128
 71
61
 72
62
 73
130
 74
129
 0
VERTEX
 8
EXTRUDE_1
 10
0
 20
0
 30
0
 70
128
 71
62
 72
63
 73
131
 74
130
 0
VERTEX
 8
EXTRUDE_1
 10
0
 20
0
 30
0
 70
128
 71
63
 72
64
 73
132
 74
131
 0
VERTEX
 8
EXTRUDE_1
 10
0
 20
0
 30
0
 70
128
 71
64
 72
65
 73
133
 74
132
 0
VERTEX
 8
EXTRUDE_1
 10
0
 20
0
 30
0
 70
128
 71
65
 72
66
 73
134
 74
133
 0
VERTEX
 8
EXTRUDE_1
 10
0
 20
0
 30
0
 70
128
 71
66
 72
67
 73
135
 74
134
 0
VERTEX
 8
EXTRUDE_1
 10
0
 20
0
 30
0
 70
128
 71
67
 72
68
 73
136
 74
135
 0
VERTEX
 8
EXTRUDE_1
 10
0
 20
0
 30
0
 70
128
 71
68
 72
1
 73
69
 74
136
 0
SEQEND
 0
POLYLINE
 8
TAPA_1_2
 66
1
 10
0.0
 20
0.0
 30
0.0
 70
64
 71
68
 72
56
 0
VERTEX
 8
TAPA_1_2
 10
-0.1024
 20
-0.0013
 30
-0.0253
 70
192
 0
VERTEX
 8
TAPA_1_2
 10
-0.1055
 20
0.0019
 30
-0.0239
 70
192
 0
VERTEX
 8
TAPA_1_2
 10
-0.1125
 20
0.0095
 30
-0.0216
 70
192
 0
VERTEX
 8
TAPA_1_2
 10
-0.1195
 20
0.017
 30
-0.0204
 70
192
 0
VERTEX
 8
TAPA_1_2
 10
-0.1278
 20
0.0259
 30
-0.0202
 70
192
 0
VERTEX
 8
TAPA_1_2
 10
-0.1351
 20
0.0338
 30
-0.0211
 70
192
 0
VERTEX
 8
TAPA_1_2
 10
-0.143
 20
0.0422
 30
-0.0233
 70
192
 0
VERTEX
 8
TAPA_1_2
 10
-0.149
 20
0.0487
 30
-0.026
 70
192
 0
VERTEX
 8
TAPA_1_2
 10
-0.1552
 20
0.0554
 30
-0.0298
 70
192
 0
VERTEX
 8
TAPA_1_2
 10
-0.1614
 20
0.062
 30
-0.0347
 70
192
 0
VERTEX
 8
TAPA_1_2
 10
-0.1676
 20
0.0687
 30
-0.041
 70
192
 0
VERTEX
 8
TAPA_1_2
 10
-0.1717
 20
0.073
 30
-0.0459
 70
192
 0
VERTEX
 8
TAPA_1_2
 10
-0.1776
 20
0.0795
 30
-0.0546
 70
192
 0
VERTEX
 8
TAPA_1_2
 10
-0.1777
 20
0.0796
 30
-0.0546
 70
192
 0
VERTEX
 8
TAPA_1_2
 10
-0.1782
 20
0.08
 30
-0.0543
 70
192
 0
VERTEX
 8
TAPA_1_2
 10
-0.185
 20
0.0868
 30
-0.05
 70
192
 0
VERTEX
 8
TAPA_1_2
 10
-0.1895
 20
0.0914
 30
-0.0481
 70
192
 0
VERTEX
 8
TAPA_1_2
 10
-0.1948
 20
0.0968
 30
-0.0465
 70
192
 0
VERTEX
 8
TAPA_1_2
 10
-0.1992
 20
0.1013
 30
-0.0459
 70
192
 0
VERTEX
 8
TAPA_1_2
 10
-0.2039
 20
0.1062
 30
-0.0459
 70
192
 0
VERTEX
 8
TAPA_1_2
 10
-0.2088
 20
0.1114
 30
-0.0468
 70
192
 0
VERTEX
 8
TAPA_1_2
 10
-0.214
 20
0.1169
 30
-0.0486
 70
192
 0
VERTEX
 8
TAPA_1_2
 10
-0.2175
 20
0.1207
 30
-0.0505
 70
192
 0
VERTEX
 8
TAPA_1_2
 10
-0.221
 20
0.1245
 30
-0.0529
 70
192
 0
VERTEX
 8
TAPA_1_2
 10
-0.2264
 20
0.1305
 30
-0.0578
 70
192
 0
VERTEX
 8
TAPA_1_2
 10
-0.2317
 20
0.1365
 30
-0.0642
 70
192
 0
VERTEX
 8
TAPA_1_2
 10
-0.237
 20
0.1426
 30
-0.0724
 70
192
 0
VERTEX
 8
TAPA_1_2
 10
-0.2405
 20
0.1466
 30
-0.0789
 70
192
 0
VERTEX
 8
TAPA_1_2
 10
-0.2439
 20
0.1507
 30
-0.0864
 70
192
 0
VERTEX
 8
TAPA_1_2
 10
-0.2494
 20
0.1566
 30
-0.0846
 70
192
 0
VERTEX
 8
TAPA_1_2
 10
-0.2579
 20
0.1657
 30
-0.083
 70
192
 0
VERTEX
 8
TAPA_1_2
 10
-0.2667
 20
0.1752
 30
-0.0826
 70
192
 0
VERTEX
 8
TAPA_1_2
 10
-0.2745
 20
0.1835
 30
-0.0834
 70
192
 0
VERTEX
 8
TAPA_1_2
 10
-0.2804
 20
0.1899
 30
-0.085
 70
192
 0
VERTEX
 8
TAPA_1_2
 10
-0.2862
 20
0.1962
 30
-0.0876
 70
192
 0
VERTEX
 8
TAPA_1_2
 10
-0.29
 20
0.2002
 30
-0.0899
 70
192
 0
VERTEX
 8
TAPA_1_2
 10
-0.2936
 20
0.2041
 30
-0.0929
 70
192
 0
VERTEX
 8
TAPA_1_2
 10
-0.2971
 20
0.2078
 30
-0.0965
 70
192
 0
VERTEX
 8
TAPA_1_2
 10
-0.3003
 20
0.2112
 30
-0.1007
 70
192
 0
VERTEX
 8
TAPA_1_2
 10
-0.3031
 20
0.2143
 30
-0.1058
 70
192
 0
VERTEX
 8
TAPA_1_2
 10
-0.3057
 20
0.217
 30
-0.1115
 70
192
 0
VERTEX
 8
TAPA_1_2
 10
-0.3078
 20
0.2193
 30
-0.1182
 70
192
 0
VERTEX
 8
TAPA_1_2
 10
-0.3095
 20
0.2212
 30
-0.1257
 70
192
 0
VERTEX
 8
TAPA_1_2
 10
-0.3107
 20
0.2225
 30
-0.1342
 70
192
 0
VERTEX
 8
TAPA_1_2
 10
-0.3114
 20
0.2232
 30
-0.1436
 70
192
 0
VERTEX
 8
TAPA_1_2
 10
-0.3112
 20
0.223
 30
-0.1433
 70
192
 0
VERTEX
 8
TAPA_1_2
 10
-0.3108
 20
0.2225
 30
-0.1431
 70
192
 0
VERTEX
 8
TAPA_1_2
 10
-0.3102
 20
0.2219
 30
-0.1428
 70
192
 0
VERTEX
 8
TAPA_1_2
 10
-0.3087
 20
0.2203
 30
-0.1424
 70
192
 0
VERTEX
 8
TAPA_1_2
 10
-0.2663
 20
0.1748
 30
-0.1413
 70
192
 0
VERTEX
 8
TAPA_1_2
 10
-0.2322
 20
0.1381
 30
-0.1424
 70
192
 0
VERTEX
 8
TAPA_1_2
 10
-0.2322
 20
0.1381
 30
-0.142
 70
192
 0
VERTEX
 8
TAPA_1_2
 10
-0.232
 20
0.1379
 30
-0.1409
 70
192
 0
VERTEX
 8
TAPA_1_2
 10
-0.2317
 20
0.1376
 30
-0.1397
 70
192
 0
VERTEX
 8
TAPA_1_2
 10
-0.2312
 20
0.137
 30
-0.1382
 70
192
 0
VERTEX
 8
TAPA_1_2
 10
-0.2307
 20
0.1365
 30
-0.137
 70
192
 0
VERTEX
 8
TAPA_1_2
 10
-0.23
 20
0.1358
 30
-0.1357
 70
192
 0
VERTEX
 8
TAPA_1_2
 10
-0.2292
 20
0.1349
 30
-0.1344
 70
192
 0
VERTEX
 8
TAPA_1_2
 10
-0.2282
 20
0.1338
 30
-0.1332
 70
192
 0
VERTEX
 8
TAPA_1_2
 10
-0.2269
 20
0.1324
 30
-0.132
 70
192
 0
VERTEX
 8
TAPA_1_2
 10
-0.2255
 20
0.1309
 30
-0.1309
 70
192
 0
VERTEX
 8
TAPA_1_2
 10
-0.2238
 20
0.129
 30
-0.1299
 70
192
 0
VERTEX
 8
TAPA_1_2
 10
-0.2218
 20
0.1269
 30
-0.1291
 70
192
 0
VERTEX
 8
TAPA_1_2
 10
-0.2195
 20
0.1245
 30
-0.1285
 70
192
 0
VERTEX
 8
TAPA_1_2
 10
-0.2179
 20
0.1227
 30
-0.1283
 70
192
 0
VERTEX
 8
TAPA_1_2
 10
-0.2151
 20
0.1197
 30
-0.1281
 70
192
 0
VERTEX
 8
TAPA_1_2
 10
-0.1024
 20
-0.0013
 30
-0.1245
 70
192
 0
VERTEX
 8
TAPA_1_2
 10
-0.1024
 20
-0.0013
 30
-0.0277
 70
192
 0
VERTEX
 8
TAPA_1_2
 10
0
 20
0
 30
0
 70
128
 71
4
 72
68
 73
67
 74
5
 0
VERTEX
 8
TAPA_1_2
 10
0
 20
0
 30
0
 70
128
 71
68
 72
4
 73
3
 74
2
 0
VERTEX
 8
TAPA_1_2
 10
0
 20
0
 30
0
 70
128
 71
68
 72
2
 73
1
 74
1
 0
VERTEX
 8
TAPA_1_2
 10
0
 20
0
 30
0
 70
128
 71
67
 72
66
 73
13
 74
12
 0
VERTEX
 8
TAPA_1_2
 10
0
 20
0
 30
0
 70
128
 71
67
 72
12
 73
11
 74
11
 0
VERTEX
 8
TAPA_1_2
 10
0
 20
0
 30
0
 70
128
 71
67
 72
11
 73
10
 74
10
 0
VERTEX
 8
TAPA_1_2
 10
0
 20
0
 30
0
 70
128
 71
67
 72
10
 73
9
 74
9
 0
VERTEX
 8
TAPA_1_2
 10
0
 20
0
 30
0
 70
128
 71
67
 72
9
 73
8
 74
8
 0
VERTEX
 8
TAPA_1_2
 10
0
 20
0
 30
0
 70
128
 71
67
 72
8
 73
7
 74
7
 0
VERTEX
 8
TAPA_1_2
 10
0
 20
0
 30
0
 70
128
 71
67
 72
7
 73
6
 74
6
 0
VERTEX
 8
TAPA_1_2
 10
0
 20
0
 30
0
 70
128
 71
67
 72
6
 73
5
 74
5
 0
VERTEX
 8
TAPA_1_2
 10
0
 20
0
 30
0
 70
128
 71
66
 72
22
 73
21
 74
21
 0
VERTEX
 8
TAPA_1_2
 10
0
 20
0
 30
0
 70
128
 71
66
 72
21
 73
20
 74
20
 0
VERTEX
 8
TAPA_1_2
 10
0
 20
0
 30
0
 70
128
 71
66
 72
20
 73
19
 74
19
 0
VERTEX
 8
TAPA_1_2
 10
0
 20
0
 30
0
 70
128
 71
66
 72
19
 73
18
 74
18
 0
VERTEX
 8
TAPA_1_2
 10
0
 20
0
 30
0
 70
128
 71
66
 72
18
 73
17
 74
17
 0
VERTEX
 8
TAPA_1_2
 10
0
 20
0
 30
0
 70
128
 71
66
 72
17
 73
16
 74
16
 0
VERTEX
 8
TAPA_1_2
 10
0
 20
0
 30
0
 70
128
 71
66
 72
16
 73
15
 74
15
 0
VERTEX
 8
TAPA_1_2
 10
0
 20
0
 30
0
 70
128
 71
66
 72
15
 73
14
 74
14
 0
VERTEX
 8
TAPA_1_2
 10
0
 20
0
 30
0
 70
128
 71
66
 72
14
 73
13
 74
13
 0
VERTEX
 8
TAPA_1_2
 10
0
 20
0
 30
0
 70
128
 71
66
 72
65
 73
27
 74
27
 0
VERTEX
 8
TAPA_1_2
 10
0
 20
0
 30
0
 70
128
 71
66
 72
27
 73
26
 74
25
 0
VERTEX
 8
TAPA_1_2
 10
0
 20
0
 30
0
 70
128
 71
66
 72
25
 73
24
 74
24
 0
VERTEX
 8
TAPA_1_2
 10
0
 20
0
 30
0
 70
128
 71
66
 72
24
 73
23
 74
23
 0
VERTEX
 8
TAPA_1_2
 10
0
 20
0
 30
0
 70
128
 71
66
 72
23
 73
22
 74
22
 0
VERTEX
 8
TAPA_1_2
 10
0
 20
0
 30
0
 70
128
 71
27
 72
65
 73
64
 74
28
 0
VERTEX
 8
TAPA_1_2
 10
0
 20
0
 30
0
 70
128
 71
28
 72
64
 73
63
 74
29
 0
VERTEX
 8
TAPA_1_2
 10
0
 20
0
 30
0
 70
128
 71
63
 72
62
 73
29
 74
29
 0
VERTEX
 8
TAPA_1_2
 10
0
 20
0
 30
0
 70
128
 71
62
 72
61
 73
29
 74
29
 0
VERTEX
 8
TAPA_1_2
 10
0
 20
0
 30
0
 70
128
 71
61
 72
60
 73
29
 74
29
 0
VERTEX
 8
TAPA_1_2
 10
0
 20
0
 30
0
 70
128
 71
60
 72
59
 73
29
 74
29
 0
VERTEX
 8
TAPA_1_2
 10
0
 20
0
 30
0
 70
128
 71
59
 72
58
 73
29
 74
29
 0
VERTEX
 8
TAPA_1_2
 10
0
 20
0
 30
0
 70
128
 71
58
 72
57
 73
29
 74
29
 0
VERTEX
 8
TAPA_1_2
 10
0
 20
0
 30
0
 70
128
 71
57
 72
56
 73
29
 74
29
 0
VERTEX
 8
TAPA_1_2
 10
0
 20
0
 30
0
 70
128
 71
56
 72
55
 73
50
 74
50
 0
VERTEX
 8
TAPA_1_2
 10
0
 20
0
 30
0
 70
128
 71
29
 72
56
 73
50
 74
30
 0
VERTEX
 8
TAPA_1_2
 10
0
 20
0
 30
0
 70
128
 71
55
 72
54
 73
50
 74
50
 0
VERTEX
 8
TAPA_1_2
 10
0
 20
0
 30
0
 70
128
 71
54
 72
53
 73
50
 74
50
 0
VERTEX
 8
TAPA_1_2
 10
0
 20
0
 30
0
 70
128
 71
53
 72
52
 73
50
 74
50
 0
VERTEX
 8
TAPA_1_2
 10
0
 20
0
 30
0
 70
128
 71
52
 72
51
 73
50
 74
50
 0
VERTEX
 8
TAPA_1_2
 10
0
 20
0
 30
0
 70
128
 71
31
 72
30
 73
50
 74
32
 0
VERTEX
 8
TAPA_1_2
 10
0
 20
0
 30
0
 70
128
 71
50
 72
49
 73
42
 74
41
 0
VERTEX
 8
TAPA_1_2
 10
0
 20
0
 30
0
 70
128
 71
50
 72
41
 73
40
 74
40
 0
VERTEX
 8
TAPA_1_2
 10
0
 20
0
 30
0
 70
128
 71
50
 72
40
 73
39
 74
39
 0
VERTEX
 8
TAPA_1_2
 10
0
 20
0
 30
0
 70
128
 71
50
 72
39
 73
38
 74
38
 0
VERTEX
 8
TAPA_1_2
 10
0
 20
0
 30
0
 70
128
 71
50
 72
38
 73
37
 74
37
 0
VERTEX
 8
TAPA_1_2
 10
0
 20
0
 30
0
 70
128
 71
50
 72
37
 73
36
 74
36
 0
VERTEX
 8
TAPA_1_2
 10
0
 20
0
 30
0
 70
128
 71
50
 72
36
 73
35
 74
35
 0
VERTEX
 8
TAPA_1_2
 10
0
 20
0
 30
0
 70
128
 71
50
 72
35
 73
34
 74
34
 0
VERTEX
 8
TAPA_1_2
 10
0
 20
0
 30
0
 70
128
 71
50
 72
34
 73
33
 74
33
 0
VERTEX
 8
TAPA_1_2
 10
0
 20
0
 30
0
 70
128
 71
50
 72
33
 73
32
 74
32
 0
VERTEX
 8
TAPA_1_2
 10
0
 20
0
 30
0
 70
128
 71
49
 72
48
 73
44
 74
44
 0
VERTEX
 8
TAPA_1_2
 10
0
 20
0
 30
0
 70
128
 71
49
 72
44
 73
43
 74
42
 0
VERTEX
 8
TAPA_1_2
 10
0
 20
0
 30
0
 70
128
 71
48
 72
47
 73
44
 74
44
 0
VERTEX
 8
TAPA_1_2
 10
0
 20
0
 30
0
 70
128
 71
47
 72
46
 73
44
 74
44
 0
VERTEX
 8
TAPA_1_2
 10
0
 20
0
 30
0
 70
128
 71
46
 72
45
 73
44
 74
44
 0
SEQEND
 0
POLYLINE
 8
TAPA_2_2
 66
1
 10
0.0
 20
0.0
 30
0.0
 70
64
 71
68
 72
56
 0
VERTEX
 8
TAPA_2_2
 10
0.0001
 20
0.094
 30
-0.0253
 70
192
 0
VERTEX
 8
TAPA_2_2
 10
-0.003
 20
0.0973
 30
-0.0239
 70
192
 0
VERTEX
 8
TAPA_2_2
 10
-0.01
 20
0.1049
 30
-0.0216
 70
192
 0
VERTEX
 8
TAPA_2_2
 10
-0.017
 20
0.1124
 30
-0.0204
 70
192
 0
VERTEX
 8
TAPA_2_2
 10
-0.0253
 20
0.1213
 30
-0.0202
 70
192
 0
VERTEX
 8
TAPA_2_2
 10
-0.0327
 20
0.1292
 30
-0.0211
 70
192
 0
VERTEX
 8
TAPA_2_2
 10
-0.0405
 20
0.1376
 30
-0.0233
 70
192
 0
VERTEX
 8
TAPA_2_2
 10
-0.0465
 20
0.1441
 30
-0.026
 70
192
 0
VERTEX
 8
TAPA_2_2
 10
-0.0527
 20
0.1507
 30
-0.0298
 70
192
 0
VERTEX
 8
TAPA_2_2
 10
-0.0589
 20
0.1574
 30
-0.0347
 70
192
 0
VERTEX
 8
TAPA_2_2
 10
-0.0651
 20
0.164
 30
-0.041
 70
192
 0
VERTEX
 8
TAPA_2_2
 10
-0.0692
 20
0.1684
 30
-0.0459
 70
192
 0
VERTEX
 8
TAPA_2_2
 10
-0.0751
 20
0.1748
 30
-0.0546
 70
192
 0
VERTEX
 8
TAPA_2_2
 10
-0.0753
 20
0.1749
 30
-0.0546
 70
192
 0
VERTEX
 8
TAPA_2_2
 10
-0.0757
 20
0.1754
 30
-0.0543
 70
192
 0
VERTEX
 8
TAPA_2_2
 10
-0.0825
 20
0.1822
 30
-0.05
 70
192
 0
VERTEX
 8
TAPA_2_2
 10
-0.087
 20
0.1868
 30
-0.0481
 70
192
 0
VERTEX
 8
TAPA_2_2
 10
-0.0923
 20
0.1921
 30
-0.0465
 70
192
 0
VERTEX
 8
TAPA_2_2
 10
-0.0967
 20
0.1967
 30
-0.0459
 70
192
 0
VERTEX
 8
TAPA_2_2
 10
-0.1014
 20
0.2016
 30
-0.0459
 70
192
 0
VERTEX
 8
TAPA_2_2
 10
-0.1063
 20
0.2068
 30
-0.0468
 70
192
 0
VERTEX
 8
TAPA_2_2
 10
-0.1115
 20
0.2123
 30
-0.0486
 70
192
 0
VERTEX
 8
TAPA_2_2
 10
-0.115
 20
0.2161
 30
-0.0505
 70
192
 0
VERTEX
 8
TAPA_2_2
 10
-0.1185
 20
0.2199
 30
-0.0529
 70
192
 0
VERTEX
 8
TAPA_2_2
 10
-0.1239
 20
0.2258
 30
-0.0578
 70
192
 0
VERTEX
 8
TAPA_2_2
 10
-0.1293
 20
0.2319
 30
-0.0642
 70
192
 0
VERTEX
 8
TAPA_2_2
 10
-0.1346
 20
0.2379
 30
-0.0724
 70
192
 0
VERTEX
 8
TAPA_2_2
 10
-0.138
 20
0.242
 30
-0.0789
 70
192
 0
VERTEX
 8
TAPA_2_2
 10
-0.1414
 20
0.246
 30
-0.0864
 70
192
 0
VERTEX
 8
TAPA_2_2
 10
-0.1469
 20
0.252
 30
-0.0846
 70
192
 0
VERTEX
 8
TAPA_2_2
 10
-0.1554
 20
0.2611
 30
-0.083
 70
192
 0
VERTEX
 8
TAPA_2_2
 10
-0.1642
 20
0.2706
 30
-0.0826
 70
192
 0
VERTEX
 8
TAPA_2_2
 10
-0.172
 20
0.2789
 30
-0.0834
 70
192
 0
VERTEX
 8
TAPA_2_2
 10
-0.1779
 20
0.2852
 30
-0.085
 70
192
 0
VERTEX
 8
TAPA_2_2
 10
-0.1838
 20
0.2915
 30
-0.0876
 70
192
 0
VERTEX
 8
TAPA_2_2
 10
-0.1875
 20
0.2956
 30
-0.0899
 70
192
 0
VERTEX
 8
TAPA_2_2
 10
-0.1912
 20
0.2995
 30
-0.0929
 70
192
 0
VERTEX
 8
TAPA_2_2
 10
-0.1946
 20
0.3032
 30
-0.0965
 70
192
 0
VERTEX
 8
TAPA_2_2
 10
-0.1978
 20
0.3066
 30
-0.1007
 70
192
 0
VERTEX
 8
TAPA_2_2
 10
-0.2007
 20
0.3097
 30
-0.1058
 70
192
 0
VERTEX
 8
TAPA_2_2
 10
-0.2032
 20
0.3124
 30
-0.1115
 70
192
 0
VERTEX
 8
TAPA_2_2
 10
-0.2053
 20
0.3147
 30
-0.1182
 70
192
 0
VERTEX
 8
TAPA_2_2
 10
-0.207
 20
0.3165
 30
-0.1257
 70
192
 0
VERTEX
 8
TAPA_2_2
 10
-0.2083
 20
0.3179
 30
-0.1342
 70
192
 0
VERTEX
 8
TAPA_2_2
 10
-0.2089
 20
0.3186
 30
-0.1436
 70
192
 0
VERTEX
 8
TAPA_2_2
 10
-0.2087
 20
0.3183
 30
-0.1433
 70
192
 0
VERTEX
 8
TAPA_2_2
 10
-0.2083
 20
0.3179
 30
-0.1431
 70
192
 0
VERTEX
 8
TAPA_2_2
 10
-0.2078
 20
0.3173
 30
-0.1428
 70
192
 0
VERTEX
 8
TAPA_2_2
 10
-0.2062
 20
0.3156
 30
-0.1424
 70
192
 0
VERTEX
 8
TAPA_2_2
 10
-0.1638
 20
0.2701
 30
-0.1413
 70
192
 0
VERTEX
 8
TAPA_2_2
 10
-0.1297
 20
0.2335
 30
-0.1424
 70
192
 0
VERTEX
 8
TAPA_2_2
 10
-0.1297
 20
0.2335
 30
-0.142
 70
192
 0
VERTEX
 8
TAPA_2_2
 10
-0.1295
 20
0.2333
 30
-0.1409
 70
192
 0
VERTEX
 8
TAPA_2_2
 10
-0.1292
 20
0.2329
 30
-0.1397
 70
192
 0
VERTEX
 8
TAPA_2_2
 10
-0.1287
 20
0.2324
 30
-0.1382
 70
192
 0
VERTEX
 8
TAPA_2_2
 10
-0.1282
 20
0.2319
 30
-0.137
 70
192
 0
VERTEX
 8
TAPA_2_2
 10
-0.1276
 20
0.2311
 30
-0.1357
 70
192
 0
VERTEX
 8
TAPA_2_2
 10
-0.1267
 20
0.2302
 30
-0.1344
 70
192
 0
VERTEX
 8
TAPA_2_2
 10
-0.1257
 20
0.2291
 30
-0.1332
 70
192
 0
VERTEX
 8
TAPA_2_2
 10
-0.1245
 20
0.2278
 30
-0.132
 70
192
 0
VERTEX
 8
TAPA_2_2
 10
-0.123
 20
0.2262
 30
-0.1309
 70
192
 0
VERTEX
 8
TAPA_2_2
 10
-0.1213
 20
0.2244
 30
-0.1299
 70
192
 0
VERTEX
 8
TAPA_2_2
 10
-0.1193
 20
0.2223
 30
-0.1291
 70
192
 0
VERTEX
 8
TAPA_2_2
 10
-0.117
 20
0.2199
 30
-0.1285
 70
192
 0
VERTEX
 8
TAPA_2_2
 10
-0.1154
 20
0.2181
 30
-0.1283
 70
192
 0
VERTEX
 8
TAPA_2_2
 10
-0.1126
 20
0.2151
 30
-0.1281
 70
192
 0
VERTEX
 8
TAPA_2_2
 10
0.0001
 20
0.094
 30
-0.1245
 70
192
 0
VERTEX
 8
TAPA_2_2
 10
0.0001
 20
0.094
 30
-0.0277
 70
192
 0
VERTEX
 8
TAPA_2_2
 10
0
 20
0
 30
0
 70
128
 71
1
 72
2
 73
68
 74
68
 0
VERTEX
 8
TAPA_2_2
 10
0
 20
0
 30
0
 70
128
 71
68
 72
2
 73
3
 74
4
 0
VERTEX
 8
TAPA_2_2
 10
0
 20
0
 30
0
 70
128
 71
67
 72
68
 73
4
 74
5
 0
VERTEX
 8
TAPA_2_2
 10
0
 20
0
 30
0
 70
128
 71
5
 72
6
 73
67
 74
67
 0
VERTEX
 8
TAPA_2_2
 10
0
 20
0
 30
0
 70
128
 71
6
 72
7
 73
67
 74
67
 0
VERTEX
 8
TAPA_2_2
 10
0
 20
0
 30
0
 70
128
 71
7
 72
8
 73
67
 74
67
 0
VERTEX
 8
TAPA_2_2
 10
0
 20
0
 30
0
 70
128
 71
8
 72
9
 73
67
 74
67
 0
VERTEX
 8
TAPA_2_2
 10
0
 20
0
 30
0
 70
128
 71
9
 72
10
 73
67
 74
67
 0
VERTEX
 8
TAPA_2_2
 10
0
 20
0
 30
0
 70
128
 71
10
 72
11
 73
67
 74
67
 0
VERTEX
 8
TAPA_2_2
 10
0
 20
0
 30
0
 70
128
 71
11
 72
12
 73
67
 74
67
 0
VERTEX
 8
TAPA_2_2
 10
0
 20
0
 30
0
 70
128
 71
67
 72
12
 73
13
 74
66
 0
VERTEX
 8
TAPA_2_2
 10
0
 20
0
 30
0
 70
128
 71
13
 72
14
 73
66
 74
66
 0
VERTEX
 8
TAPA_2_2
 10
0
 20
0
 30
0
 70
128
 71
14
 72
15
 73
66
 74
66
 0
VERTEX
 8
TAPA_2_2
 10
0
 20
0
 30
0
 70
128
 71
15
 72
16
 73
66
 74
66
 0
VERTEX
 8
TAPA_2_2
 10
0
 20
0
 30
0
 70
128
 71
16
 72
17
 73
66
 74
66
 0
VERTEX
 8
TAPA_2_2
 10
0
 20
0
 30
0
 70
128
 71
17
 72
18
 73
66
 74
66
 0
VERTEX
 8
TAPA_2_2
 10
0
 20
0
 30
0
 70
128
 71
18
 72
19
 73
66
 74
66
 0
VERTEX
 8
TAPA_2_2
 10
0
 20
0
 30
0
 70
128
 71
19
 72
20
 73
66
 74
66
 0
VERTEX
 8
TAPA_2_2
 10
0
 20
0
 30
0
 70
128
 71
20
 72
21
 73
66
 74
66
 0
VERTEX
 8
TAPA_2_2
 10
0
 20
0
 30
0
 70
128
 71
21
 72
22
 73
66
 74
66
 0
VERTEX
 8
TAPA_2_2
 10
0
 20
0
 30
0
 70
128
 71
22
 72
23
 73
66
 74
66
 0
VERTEX
 8
TAPA_2_2
 10
0
 20
0
 30
0
 70
128
 71
23
 72
24
 73
66
 74
66
 0
VERTEX
 8
TAPA_2_2
 10
0
 20
0
 30
0
 70
128
 71
24
 72
25
 73
66
 74
66
 0
VERTEX
 8
TAPA_2_2
 10
0
 20
0
 30
0
 70
128
 71
66
 72
25
 73
26
 74
27
 0
VERTEX
 8
TAPA_2_2
 10
0
 20
0
 30
0
 70
128
 71
64
 72
65
 73
27
 74
28
 0
VERTEX
 8
TAPA_2_2
 10
0
 20
0
 30
0
 70
128
 71
27
 72
65
 73
66
 74
66
 0
VERTEX
 8
TAPA_2_2
 10
0
 20
0
 30
0
 70
128
 71
63
 72
64
 73
28
 74
29
 0
VERTEX
 8
TAPA_2_2
 10
0
 20
0
 30
0
 70
128
 71
29
 72
56
 73
57
 74
57
 0
VERTEX
 8
TAPA_2_2
 10
0
 20
0
 30
0
 70
128
 71
29
 72
57
 73
58
 74
58
 0
VERTEX
 8
TAPA_2_2
 10
0
 20
0
 30
0
 70
128
 71
29
 72
58
 73
59
 74
59
 0
VERTEX
 8
TAPA_2_2
 10
0
 20
0
 30
0
 70
128
 71
29
 72
59
 73
60
 74
60
 0
VERTEX
 8
TAPA_2_2
 10
0
 20
0
 30
0
 70
128
 71
29
 72
60
 73
61
 74
61
 0
VERTEX
 8
TAPA_2_2
 10
0
 20
0
 30
0
 70
128
 71
29
 72
61
 73
62
 74
62
 0
VERTEX
 8
TAPA_2_2
 10
0
 20
0
 30
0
 70
128
 71
29
 72
62
 73
63
 74
63
 0
VERTEX
 8
TAPA_2_2
 10
0
 20
0
 30
0
 70
128
 71
29
 72
30
 73
50
 74
56
 0
VERTEX
 8
TAPA_2_2
 10
0
 20
0
 30
0
 70
128
 71
50
 72
30
 73
31
 74
32
 0
VERTEX
 8
TAPA_2_2
 10
0
 20
0
 30
0
 70
128
 71
32
 72
33
 73
50
 74
50
 0
VERTEX
 8
TAPA_2_2
 10
0
 20
0
 30
0
 70
128
 71
33
 72
34
 73
50
 74
50
 0
VERTEX
 8
TAPA_2_2
 10
0
 20
0
 30
0
 70
128
 71
34
 72
35
 73
50
 74
50
 0
VERTEX
 8
TAPA_2_2
 10
0
 20
0
 30
0
 70
128
 71
35
 72
36
 73
50
 74
50
 0
VERTEX
 8
TAPA_2_2
 10
0
 20
0
 30
0
 70
128
 71
36
 72
37
 73
50
 74
50
 0
VERTEX
 8
TAPA_2_2
 10
0
 20
0
 30
0
 70
128
 71
37
 72
38
 73
50
 74
50
 0
VERTEX
 8
TAPA_2_2
 10
0
 20
0
 30
0
 70
128
 71
38
 72
39
 73
50
 74
50
 0
VERTEX
 8
TAPA_2_2
 10
0
 20
0
 30
0
 70
128
 71
39
 72
40
 73
50
 74
50
 0
VERTEX
 8
TAPA_2_2
 10
0
 20
0
 30
0
 70
128
 71
40
 72
41
 73
50
 74
50
 0
VERTEX
 8
TAPA_2_2
 10
0
 20
0
 30
0
 70
128
 71
50
 72
41
 73
42
 74
49
 0
VERTEX
 8
TAPA_2_2
 10
0
 20
0
 30
0
 70
128
 71
49
 72
42
 73
43
 74
44
 0
VERTEX
 8
TAPA_2_2
 10
0
 20
0
 30
0
 70
128
 71
44
 72
48
 73
49
 74
49
 0
VERTEX
 8
TAPA_2_2
 10
0
 20
0
 30
0
 70
128
 71
44
 72
45
 73
46
 74
46
 0
VERTEX
 8
TAPA_2_2
 10
0
 20
0
 30
0
 70
128
 71
44
 72
46
 73
47
 74
47
 0
VERTEX
 8
TAPA_2_2
 10
0
 20
0
 30
0
 70
128
 71
44
 72
47
 73
48
 74
48
 0
VERTEX
 8
TAPA_2_2
 10
0
 20
0
 30
0
 70
128
 71
50
 72
51
 73
52
 74
52
 0
VERTEX
 8
TAPA_2_2
 10
0
 20
0
 30
0
 70
128
 71
50
 72
52
 73
53
 74
53
 0
VERTEX
 8
TAPA_2_2
 10
0
 20
0
 30
0
 70
128
 71
50
 72
53
 73
54
 74
54
 0
VERTEX
 8
TAPA_2_2
 10
0
 20
0
 30
0
 70
128
 71
50
 72
54
 73
55
 74
55
 0
VERTEX
 8
TAPA_2_2
 10
0
 20
0
 30
0
 70
128
 71
50
 72
55
 73
56
 74
56
 0
SEQEND
 0
POLYLINE
 8
LATHE_3
 66
1
 10
0.0
 20
0.0
 30
0.0
 70
64
 71
120
 72
120
 0
VERTEX
 8
LATHE_3
 10
0.0001
 20
-0.0021
 30
0.05
 70
192
 0
VERTEX
 8
LATHE_3
 10
0.0035
 20
-0.1242
 30
0.0486
 70
192
 0
VERTEX
 8
LATHE_3
 10
0.0036
 20
-0.1273
 30
0.0437
 70
192
 0
VERTEX
 8
LATHE_3
 10
0.0036
 20
-0.128
 30
0.0433
 70
192
 0
VERTEX
 8
LATHE_3
 10
0.0036
 20
-0.1291
 30
0.0425
 70
192
 0
VERTEX
 8
LATHE_3
 10
0.0036
 20
-0.1301
 30
0.0417
 70
192
 0
VERTEX
 8
LATHE_3
 10
0.0037
 20
-0.1308
 30
0.0409
 70
192
 0
VERTEX
 8
LATHE_3
 10
0.0037
 20
-0.1315
 30
0.04
 70
192
 0
VERTEX
 8
LATHE_3
 10
0.0037
 20
-0.1319
 30
0.0393
 70
192
 0
VERTEX
 8
LATHE_3
 10
0.0037
 20
-0.1322
 30
0.0386
 70
192
 0
VERTEX
 8
LATHE_3
 10
0.0037
 20
-0.1324
 30
0.0379
 70
192
 0
VERTEX
 8
LATHE_3
 10
0.0037
 20
-0.1325
 30
0.0371
 70
192
 0
VERTEX
 8
LATHE_3
 10
0.0037
 20
-0.1325
 30
0.0363
 70
192
 0
VERTEX
 8
LATHE_3
 10
0.0037
 20
-0.1324
 30
0.0354
 70
192
 0
VERTEX
 8
LATHE_3
 10
0.0037
 20
-0.1321
 30
0.0345
 70
192
 0
VERTEX
 8
LATHE_3
 10
0.0037
 20
-0.1316
 30
0.0335
 70
192
 0
VERTEX
 8
LATHE_3
 10
0.0037
 20
-0.1309
 30
0.0325
 70
192
 0
VERTEX
 8
LATHE_3
 10
0.0036
 20
-0.1301
 30
0.0315
 70
192
 0
VERTEX
 8
LATHE_3
 10
0.0036
 20
-0.129
 30
0.0305
 70
192
 0
VERTEX
 8
LATHE_3
 10
0.0035
 20
-0.1269
 30
0.0288
 70
192
 0
VERTEX
 8
LATHE_3
 10
0.0035
 20
-0.1242
 30
0.0271
 70
192
 0
VERTEX
 8
LATHE_3
 10
0.0035
 20
-0.1243
 30
0.0272
 70
192
 0
VERTEX
 8
LATHE_3
 10
0.0035
 20
-0.1243
 30
0.0272
 70
192
 0
VERTEX
 8
LATHE_3
 10
0.0035
 20
-0.1243
 30
0.0272
 70
192
 0
VERTEX
 8
LATHE_3
 10
0.0034
 20
-0.1222
 30
0.0246
 70
192
 0
VERTEX
 8
LATHE_3
 10
0.0034
 20
-0.1202
 30
0.0222
 70
192
 0
VERTEX
 8
LATHE_3
 10
0.0001
 20
-0.0021
 30
0.0213
 70
192
 0
VERTEX
 8
LATHE_3
 10
0.0001
 20
-0.002
 30
0.0492
 70
192
 0
VERTEX
 8
LATHE_3
 10
0.0001
 20
-0.0021
 30
0.0498
 70
192
 0
VERTEX
 8
LATHE_3
 10
0.0001
 20
-0.0021
 30
0.0499
 70
192
 0
VERTEX
 8
LATHE_3
 10
0.0021
 20
0.0001
 30
0.05
 70
192
 0
VERTEX
 8
LATHE_3
 10
0.1242
 20
0.0035
 30
0.0486
 70
192
 0
VERTEX
 8
LATHE_3
 10
0.1273
 20
0.0036
 30
0.0437
 70
192
 0
VERTEX
 8
LATHE_3
 10
0.128
 20
0.0036
 30
0.0433
 70
192
 0
VERTEX
 8
LATHE_3
 10
0.1291
 20
0.0036
 30
0.0425
 70
192
 0
VERTEX
 8
LATHE_3
 10
0.1301
 20
0.0036
 30
0.0417
 70
192
 0
VERTEX
 8
LATHE_3
 10
0.1308
 20
0.0037
 30
0.0409
 70
192
 0
VERTEX
 8
LATHE_3
 10
0.1315
 20
0.0037
 30
0.04
 70
192
 0
VERTEX
 8
LATHE_3
 10
0.1319
 20
0.0037
 30
0.0393
 70
192
 0
VERTEX
 8
LATHE_3
 10
0.1322
 20
0.0037
 30
0.0386
 70
192
 0
VERTEX
 8
LATHE_3
 10
0.1324
 20
0.0037
 30
0.0379
 70
192
 0
VERTEX
 8
LATHE_3
 10
0.1325
 20
0.0037
 30
0.0371
 70
192
 0
VERTEX
 8
LATHE_3
 10
0.1325
 20
0.0037
 30
0.0363
 70
192
 0
VERTEX
 8
LATHE_3
 10
0.1324
 20
0.0037
 30
0.0354
 70
192
 0
VERTEX
 8
LATHE_3
 10
0.1321
 20
0.0037
 30
0.0345
 70
192
 0
VERTEX
 8
LATHE_3
 10
0.1316
 20
0.0037
 30
0.0335
 70
192
 0
VERTEX
 8
LATHE_3
 10
0.1309
 20
0.0037
 30
0.0325
 70
192
 0
VERTEX
 8
LATHE_3
 10
0.1301
 20
0.0036
 30
0.0315
 70
192
 0
VERTEX
 8
LATHE_3
 10
0.129
 20
0.0036
 30
0.0305
 70
192
 0
VERTEX
 8
LATHE_3
 10
0.1269
 20
0.0035
 30
0.0288
 70
192
 0
VERTEX
 8
LATHE_3
 10
0.1242
 20
0.0035
 30
0.0271
 70
192
 0
VERTEX
 8
LATHE_3
 10
0.1243
 20
0.0035
 30
0.0272
 70
192
 0
VERTEX
 8
LATHE_3
 10
0.1243
 20
0.0035
 30
0.0272
 70
192
 0
VERTEX
 8
LATHE_3
 10
0.1243
 20
0.0035
 30
0.0272
 70
192
 0
VERTEX
 8
LATHE_3
 10
0.1222
 20
0.0034
 30
0.0246
 70
192
 0
VERTEX
 8
LATHE_3
 10
0.1202
 20
0.0034
 30
0.0222
 70
192
 0
VERTEX
 8
LATHE_3
 10
0.0021
 20
0.0001
 30
0.0213
 70
192
 0
VERTEX
 8
LATHE_3
 10
0.002
 20
0.0001
 30
0.0492
 70
192
 0
VERTEX
 8
LATHE_3
 10
0.0021
 20
0.0001
 30
0.0498
 70
192
 0
VERTEX
 8
LATHE_3
 10
0.0021
 20
0.0001
 30
0.0499
 70
192
 0
VERTEX
 8
LATHE_3
 10
-0.0001
 20
0.0021
 30
0.05
 70
192
 0
VERTEX
 8
LATHE_3
 10
-0.0035
 20
0.1242
 30
0.0486
 70
192
 0
VERTEX
 8
LATHE_3
 10
-0.0036
 20
0.1273
 30
0.0437
 70
192
 0
VERTEX
 8
LATHE_3
 10
-0.0036
 20
0.128
 30
0.0433
 70
192
 0
VERTEX
 8
LATHE_3
 10
-0.0036
 20
0.1291
 30
0.0425
 70
192
 0
VERTEX
 8
LATHE_3
 10
-0.0036
 20
0.1301
 30
0.0417
 70
192
 0
VERTEX
 8
LATHE_3
 10
-0.0037
 20
0.1308
 30
0.0409
 70
192
 0
VERTEX
 8
LATHE_3
 10
-0.0037
 20
0.1315
 30
0.04
 70
192
 0
VERTEX
 8
LATHE_3
 10
-0.0037
 20
0.1319
 30
0.0393
 70
192
 0
VERTEX
 8
LATHE_3
 10
-0.0037
 20
0.1322
 30
0.0386
 70
192
 0
VERTEX
 8
LATHE_3
 10
-0.0037
 20
0.1324
 30
0.0379
 70
192
 0
VERTEX
 8
LATHE_3
 10
-0.0037
 20
0.1325
 30
0.0371
 70
192
 0
VERTEX
 8
LATHE_3
 10
-0.0037
 20
0.1325
 30
0.0363
 70
192
 0
VERTEX
 8
LATHE_3
 10
-0.0037
 20
0.1324
 30
0.0354
 70
192
 0
VERTEX
 8
LATHE_3
 10
-0.0037
 20
0.1321
 30
0.0345
 70
192
 0
VERTEX
 8
LATHE_3
 10
-0.0037
 20
0.1316
 30
0.0335
 70
192
 0
VERTEX
 8
LATHE_3
 10
-0.0037
 20
0.1309
 30
0.0325
 70
192
 0
VERTEX
 8
LATHE_3
 10
-0.0036
 20
0.1301
 30
0.0315
 70
192
 0
VERTEX
 8
LATHE_3
 10
-0.0036
 20
0.129
 30
0.0305
 70
192
 0
VERTEX
 8
LATHE_3
 10
-0.0035
 20
0.1269
 30
0.0288
 70
192
 0
VERTEX
 8
LATHE_3
 10
-0.0035
 20
0.1242
 30
0.0271
 70
192
 0
VERTEX
 8
LATHE_3
 10
-0.0035
 20
0.1243
 30
0.0272
 70
192
 0
VERTEX
 8
LATHE_3
 10
-0.0035
 20
0.1243
 30
0.0272
 70
192
 0
VERTEX
 8
LATHE_3
 10
-0.0035
 20
0.1243
 30
0.0272
 70
192
 0
VERTEX
 8
LATHE_3
 10
-0.0034
 20
0.1222
 30
0.0246
 70
192
 0
VERTEX
 8
LATHE_3
 10
-0.0034
 20
0.1202
 30
0.0222
 70
192
 0
VERTEX
 8
LATHE_3
 10
-0.0001
 20
0.0021
 30
0.0213
 70
192
 0
VERTEX
 8
LATHE_3
 10
-0.0001
 20
0.002
 30
0.0492
 70
192
 0
VERTEX
 8
LATHE_3
 10
-0.0001
 20
0.0021
 30
0.0498
 70
192
 0
VERTEX
 8
LATHE_3
 10
-0.0001
 20
0.0021
 30
0.0499
 70
192
 0
VERTEX
 8
LATHE_3
 10
-0.0021
 20
-0.0001
 30
0.05
 70
192
 0
VERTEX
 8
LATHE_3
 10
-0.1242
 20
-0.0035
 30
0.0486
 70
192
 0
VERTEX
 8
LATHE_3
 10
-0.1273
 20
-0.0036
 30
0.0437
 70
192
 0
VERTEX
 8
LATHE_3
 10
-0.128
 20
-0.0036
 30
0.0433
 70
192
 0
VERTEX
 8
LATHE_3
 10
-0.1291
 20
-0.0036
 30
0.0425
 70
192
 0
VERTEX
 8
LATHE_3
 10
-0.1301
 20
-0.0036
 30
0.0417
 70
192
 0
VERTEX
 8
LATHE_3
 10
-0.1308
 20
-0.0037
 30
0.0409
 70
192
 0
VERTEX
 8
LATHE_3
 10
-0.1315
 20
-0.0037
 30
0.04
 70
192
 0
VERTEX
 8
LATHE_3
 10
-0.1319
 20
-0.0037
 30
0.0393
 70
192
 0
VERTEX
 8
LATHE_3
 10
-0.1322
 20
-0.0037
 30
0.0386
 70
192
 0
VERTEX
 8
LATHE_3
 10
-0.1324
 20
-0.0037
 30
0.0379
 70
192
 0
VERTEX
 8
LATHE_3
 10
-0.1325
 20
-0.0037
 30
0.0371
 70
192
 0
VERTEX
 8
LATHE_3
 10
-0.1325
 20
-0.0037
 30
0.0363
 70
192
 0
VERTEX
 8
LATHE_3
 10
-0.1324
 20
-0.0037
 30
0.0354
 70
192
 0
VERTEX
 8
LATHE_3
 10
-0.1321
 20
-0.0037
 30
0.0345
 70
192
 0
VERTEX
 8
LATHE_3
 10
-0.1316
 20
-0.0037
 30
0.0335
 70
192
 0
VERTEX
 8
LATHE_3
 10
-0.1309
 20
-0.0037
 30
0.0325
 70
192
 0
VERTEX
 8
LATHE_3
 10
-0.1301
 20
-0.0036
 30
0.0315
 70
192
 0
VERTEX
 8
LATHE_3
 10
-0.129
 20
-0.0036
 30
0.0305
 70
192
 0
VERTEX
 8
LATHE_3
 10
-0.1269
 20
-0.0035
 30
0.0288
 70
192
 0
VERTEX
 8
LATHE_3
 10
-0.1242
 20
-0.0035
 30
0.0271
 70
192
 0
VERTEX
 8
LATHE_3
 10
-0.1243
 20
-0.0035
 30
0.0272
 70
192
 0
VERTEX
 8
LATHE_3
 10
-0.1243
 20
-0.0035
 30
0.0272
 70
192
 0
VERTEX
 8
LATHE_3
 10
-0.1243
 20
-0.0035
 30
0.0272
 70
192
 0
VERTEX
 8
LATHE_3
 10
-0.1222
 20
-0.0034
 30
0.0246
 70
192
 0
VERTEX
 8
LATHE_3
 10
-0.1202
 20
-0.0034
 30
0.0222
 70
192
 0
VERTEX
 8
LATHE_3
 10
-0.0021
 20
-0.0001
 30
0.0213
 70
192
 0
VERTEX
 8
LATHE_3
 10
-0.002
 20
-0.0001
 30
0.0492
 70
192
 0
VERTEX
 8
LATHE_3
 10
-0.0021
 20
-0.0001
 30
0.0498
 70
192
 0
VERTEX
 8
LATHE_3
 10
-0.0021
 20
-0.0001
 30
0.0499
 70
192
 0
VERTEX
 8
LATHE_3
 10
0
 20
0
 30
0
 70
128
 71
1
 72
2
 73
32
 74
31
 0
VERTEX
 8
LATHE_3
 10
0
 20
0
 30
0
 70
128
 71
2
 72
3
 73
33
 74
32
 0
VERTEX
 8
LATHE_3
 10
0
 20
0
 30
0
 70
128
 71
3
 72
4
 73
34
 74
33
 0
VERTEX
 8
LATHE_3
 10
0
 20
0
 30
0
 70
128
 71
4
 72
5
 73
35
 74
34
 0
VERTEX
 8
LATHE_3
 10
0
 20
0
 30
0
 70
128
 71
5
 72
6
 73
36
 74
35
 0
VERTEX
 8
LATHE_3
 10
0
 20
0
 30
0
 70
128
 71
6
 72
7
 73
37
 74
36
 0
VERTEX
 8
LATHE_3
 10
0
 20
0
 30
0
 70
128
 71
7
 72
8
 73
38
 74
37
 0
VERTEX
 8
LATHE_3
 10
0
 20
0
 30
0
 70
128
 71
8
 72
9
 73
39
 74
38
 0
VERTEX
 8
LATHE_3
 10
0
 20
0
 30
0
 70
128
 71
9
 72
10
 73
40
 74
39
 0
VERTEX
 8
LATHE_3
 10
0
 20
0
 30
0
 70
128
 71
10
 72
11
 73
41
 74
40
 0
VERTEX
 8
LATHE_3
 10
0
 20
0
 30
0
 70
128
 71
11
 72
12
 73
42
 74
41
 0
VERTEX
 8
LATHE_3
 10
0
 20
0
 30
0
 70
128
 71
12
 72
13
 73
43
 74
42
 0
VERTEX
 8
LATHE_3
 10
0
 20
0
 30
0
 70
128
 71
13
 72
14
 73
44
 74
43
 0
VERTEX
 8
LATHE_3
 10
0
 20
0
 30
0
 70
128
 71
14
 72
15
 73
45
 74
44
 0
VERTEX
 8
LATHE_3
 10
0
 20
0
 30
0
 70
128
 71
15
 72
16
 73
46
 74
45
 0
VERTEX
 8
LATHE_3
 10
0
 20
0
 30
0
 70
128
 71
16
 72
17
 73
47
 74
46
 0
VERTEX
 8
LATHE_3
 10
0
 20
0
 30
0
 70
128
 71
17
 72
18
 73
48
 74
47
 0
VERTEX
 8
LATHE_3
 10
0
 20
0
 30
0
 70
128
 71
18
 72
19
 73
49
 74
48
 0
VERTEX
 8
LATHE_3
 10
0
 20
0
 30
0
 70
128
 71
19
 72
20
 73
50
 74
49
 0
VERTEX
 8
LATHE_3
 10
0
 20
0
 30
0
 70
128
 71
20
 72
21
 73
51
 74
50
 0
VERTEX
 8
LATHE_3
 10
0
 20
0
 30
0
 70
128
 71
21
 72
22
 73
52
 74
51
 0
VERTEX
 8
LATHE_3
 10
0
 20
0
 30
0
 70
128
 71
22
 72
23
 73
53
 74
52
 0
VERTEX
 8
LATHE_3
 10
0
 20
0
 30
0
 70
128
 71
23
 72
24
 73
54
 74
53
 0
VERTEX
 8
LATHE_3
 10
0
 20
0
 30
0
 70
128
 71
24
 72
25
 73
55
 74
54
 0
VERTEX
 8
LATHE_3
 10
0
 20
0
 30
0
 70
128
 71
25
 72
26
 73
56
 74
55
 0
VERTEX
 8
LATHE_3
 10
0
 20
0
 30
0
 70
128
 71
26
 72
27
 73
57
 74
56
 0
VERTEX
 8
LATHE_3
 10
0
 20
0
 30
0
 70
128
 71
27
 72
28
 73
58
 74
57
 0
VERTEX
 8
LATHE_3
 10
0
 20
0
 30
0
 70
128
 71
28
 72
29
 73
59
 74
58
 0
VERTEX
 8
LATHE_3
 10
0
 20
0
 30
0
 70
128
 71
29
 72
30
 73
60
 74
59
 0
VERTEX
 8
LATHE_3
 10
0
 20
0
 30
0
 70
128
 71
30
 72
1
 73
31
 74
60
 0
VERTEX
 8
LATHE_3
 10
0
 20
0
 30
0
 70
128
 71
31
 72
32
 73
62
 74
61
 0
VERTEX
 8
LATHE_3
 10
0
 20
0
 30
0
 70
128
 71
32
 72
33
 73
63
 74
62
 0
VERTEX
 8
LATHE_3
 10
0
 20
0
 30
0
 70
128
 71
33
 72
34
 73
64
 74
63
 0
VERTEX
 8
LATHE_3
 10
0
 20
0
 30
0
 70
128
 71
34
 72
35
 73
65
 74
64
 0
VERTEX
 8
LATHE_3
 10
0
 20
0
 30
0
 70
128
 71
35
 72
36
 73
66
 74
65
 0
VERTEX
 8
LATHE_3
 10
0
 20
0
 30
0
 70
128
 71
36
 72
37
 73
67
 74
66
 0
VERTEX
 8
LATHE_3
 10
0
 20
0
 30
0
 70
128
 71
37
 72
38
 73
68
 74
67
 0
VERTEX
 8
LATHE_3
 10
0
 20
0
 30
0
 70
128
 71
38
 72
39
 73
69
 74
68
 0
VERTEX
 8
LATHE_3
 10
0
 20
0
 30
0
 70
128
 71
39
 72
40
 73
70
 74
69
 0
VERTEX
 8
LATHE_3
 10
0
 20
0
 30
0
 70
128
 71
40
 72
41
 73
71
 74
70
 0
VERTEX
 8
LATHE_3
 10
0
 20
0
 30
0
 70
128
 71
41
 72
42
 73
72
 74
71
 0
VERTEX
 8
LATHE_3
 10
0
 20
0
 30
0
 70
128
 71
42
 72
43
 73
73
 74
72
 0
VERTEX
 8
LATHE_3
 10
0
 20
0
 30
0
 70
128
 71
43
 72
44
 73
74
 74
73
 0
VERTEX
 8
LATHE_3
 10
0
 20
0
 30
0
 70
128
 71
44
 72
45
 73
75
 74
74
 0
VERTEX
 8
LATHE_3
 10
0
 20
0
 30
0
 70
128
 71
45
 72
46
 73
76
 74
75
 0
VERTEX
 8
LATHE_3
 10
0
 20
0
 30
0
 70
128
 71
46
 72
47
 73
77
 74
76
 0
VERTEX
 8
LATHE_3
 10
0
 20
0
 30
0
 70
128
 71
47
 72
48
 73
78
 74
77
 0
VERTEX
 8
LATHE_3
 10
0
 20
0
 30
0
 70
128
 71
48
 72
49
 73
79
 74
78
 0
VERTEX
 8
LATHE_3
 10
0
 20
0
 30
0
 70
128
 71
49
 72
50
 73
80
 74
79
 0
VERTEX
 8
LATHE_3
 10
0
 20
0
 30
0
 70
128
 71
50
 72
51
 73
81
 74
80
 0
VERTEX
 8
LATHE_3
 10
0
 20
0
 30
0
 70
128
 71
51
 72
52
 73
82
 74
81
 0
VERTEX
 8
LATHE_3
 10
0
 20
0
 30
0
 70
128
 71
52
 72
53
 73
83
 74
82
 0
VERTEX
 8
LATHE_3
 10
0
 20
0
 30
0
 70
128
 71
53
 72
54
 73
84
 74
83
 0
VERTEX
 8
LATHE_3
 10
0
 20
0
 30
0
 70
128
 71
54
 72
55
 73
85
 74
84
 0
VERTEX
 8
LATHE_3
 10
0
 20
0
 30
0
 70
128
 71
55
 72
56
 73
86
 74
85
 0
VERTEX
 8
LATHE_3
 10
0
 20
0
 30
0
 70
128
 71
56
 72
57
 73
87
 74
86
 0
VERTEX
 8
LATHE_3
 10
0
 20
0
 30
0
 70
128
 71
57
 72
58
 73
88
 74
87
 0
VERTEX
 8
LATHE_3
 10
0
 20
0
 30
0
 70
128
 71
58
 72
59
 73
89
 74
88
 0
VERTEX
 8
LATHE_3
 10
0
 20
0
 30
0
 70
128
 71
59
 72
60
 73
90
 74
89
 0
VERTEX
 8
LATHE_3
 10
0
 20
0
 30
0
 70
128
 71
60
 72
31
 73
61
 74
90
 0
VERTEX
 8
LATHE_3
 10
0
 20
0
 30
0
 70
128
 71
61
 72
62
 73
92
 74
91
 0
VERTEX
 8
LATHE_3
 10
0
 20
0
 30
0
 70
128
 71
62
 72
63
 73
93
 74
92
 0
VERTEX
 8
LATHE_3
 10
0
 20
0
 30
0
 70
128
 71
63
 72
64
 73
94
 74
93
 0
VERTEX
 8
LATHE_3
 10
0
 20
0
 30
0
 70
128
 71
64
 72
65
 73
95
 74
94
 0
VERTEX
 8
LATHE_3
 10
0
 20
0
 30
0
 70
128
 71
65
 72
66
 73
96
 74
95
 0
VERTEX
 8
LATHE_3
 10
0
 20
0
 30
0
 70
128
 71
66
 72
67
 73
97
 74
96
 0
VERTEX
 8
LATHE_3
 10
0
 20
0
 30
0
 70
128
 71
67
 72
68
 73
98
 74
97
 0
VERTEX
 8
LATHE_3
 10
0
 20
0
 30
0
 70
128
 71
68
 72
69
 73
99
 74
98
 0
VERTEX
 8
LATHE_3
 10
0
 20
0
 30
0
 70
128
 71
69
 72
70
 73
100
 74
99
 0
VERTEX
 8
LATHE_3
 10
0
 20
0
 30
0
 70
128
 71
70
 72
71
 73
101
 74
100
 0
VERTEX
 8
LATHE_3
 10
0
 20
0
 30
0
 70
128
 71
71
 72
72
 73
102
 74
101
 0
VERTEX
 8
LATHE_3
 10
0
 20
0
 30
0
 70
128
 71
72
 72
73
 73
103
 74
102
 0
VERTEX
 8
LATHE_3
 10
0
 20
0
 30
0
 70
128
 71
73
 72
74
 73
104
 74
103
 0
VERTEX
 8
LATHE_3
 10
0
 20
0
 30
0
 70
128
 71
74
 72
75
 73
105
 74
104
 0
VERTEX
 8
LATHE_3
 10
0
 20
0
 30
0
 70
128
 71
75
 72
76
 73
106
 74
105
 0
VERTEX
 8
LATHE_3
 10
0
 20
0
 30
0
 70
128
 71
76
 72
77
 73
107
 74
106
 0
VERTEX
 8
LATHE_3
 10
0
 20
0
 30
0
 70
128
 71
77
 72
78
 73
108
 74
107
 0
VERTEX
 8
LATHE_3
 10
0
 20
0
 30
0
 70
128
 71
78
 72
79
 73
109
 74
108
 0
VERTEX
 8
LATHE_3
 10
0
 20
0
 30
0
 70
128
 71
79
 72
80
 73
110
 74
109
 0
VERTEX
 8
LATHE_3
 10
0
 20
0
 30
0
 70
128
 71
80
 72
81
 73
111
 74
110
 0
VERTEX
 8
LATHE_3
 10
0
 20
0
 30
0
 70
128
 71
81
 72
82
 73
112
 74
111
 0
VERTEX
 8
LATHE_3
 10
0
 20
0
 30
0
 70
128
 71
82
 72
83
 73
113
 74
112
 0
VERTEX
 8
LATHE_3
 10
0
 20
0
 30
0
 70
128
 71
83
 72
84
 73
114
 74
113
 0
VERTEX
 8
LATHE_3
 10
0
 20
0
 30
0
 70
128
 71
84
 72
85
 73
115
 74
114
 0
VERTEX
 8
LATHE_3
 10
0
 20
0
 30
0
 70
128
 71
85
 72
86
 73
116
 74
115
 0
VERTEX
 8
LATHE_3
 10
0
 20
0
 30
0
 70
128
 71
86
 72
87
 73
117
 74
116
 0
VERTEX
 8
LATHE_3
 10
0
 20
0
 30
0
 70
128
 71
87
 72
88
 73
118
 74
117
 0
VERTEX
 8
LATHE_3
 10
0
 20
0
 30
0
 70
128
 71
88
 72
89
 73
119
 74
118
 0
VERTEX
 8
LATHE_3
 10
0
 20
0
 30
0
 70
128
 71
89
 72
90
 73
120
 74
119
 0
VERTEX
 8
LATHE_3
 10
0
 20
0
 30
0
 70
128
 71
90
 72
61
 73
91
 74
120
 0
VERTEX
 8
LATHE_3
 10
0
 20
0
 30
0
 70
128
 71
91
 72
92
 73
2
 74
1
 0
VERTEX
 8
LATHE_3
 10
0
 20
0
 30
0
 70
128
 71
92
 72
93
 73
3
 74
2
 0
VERTEX
 8
LATHE_3
 10
0
 20
0
 30
0
 70
128
 71
93
 72
94
 73
4
 74
3
 0
VERTEX
 8
LATHE_3
 10
0
 20
0
 30
0
 70
128
 71
94
 72
95
 73
5
 74
4
 0
VERTEX
 8
LATHE_3
 10
0
 20
0
 30
0
 70
128
 71
95
 72
96
 73
6
 74
5
 0
VERTEX
 8
LATHE_3
 10
0
 20
0
 30
0
 70
128
 71
96
 72
97
 73
7
 74
6
 0
VERTEX
 8
LATHE_3
 10
0
 20
0
 30
0
 70
128
 71
97
 72
98
 73
8
 74
7
 0
VERTEX
 8
LATHE_3
 10
0
 20
0
 30
0
 70
128
 71
98
 72
99
 73
9
 74
8
 0
VERTEX
 8
LATHE_3
 10
0
 20
0
 30
0
 70
128
 71
99
 72
100
 73
10
 74
9
 0
VERTEX
 8
LATHE_3
 10
0
 20
0
 30
0
 70
128
 71
100
 72
101
 73
11
 74
10
 0
VERTEX
 8
LATHE_3
 10
0
 20
0
 30
0
 70
128
 71
101
 72
102
 73
12
 74
11
 0
VERTEX
 8
LATHE_3
 10
0
 20
0
 30
0
 70
128
 71
102
 72
103
 73
13
 74
12
 0
VERTEX
 8
LATHE_3
 10
0
 20
0
 30
0
 70
128
 71
103
 72
104
 73
14
 74
13
 0
VERTEX
 8
LATHE_3
 10
0
 20
0
 30
0
 70
128
 71
104
 72
105
 73
15
 74
14
 0
VERTEX
 8
LATHE_3
 10
0
 20
0
 30
0
 70
128
 71
105
 72
106
 73
16
 74
15
 0
VERTEX
 8
LATHE_3
 10
0
 20
0
 30
0
 70
128
 71
106
 72
107
 73
17
 74
16
 0
VERTEX
 8
LATHE_3
 10
0
 20
0
 30
0
 70
128
 71
107
 72
108
 73
18
 74
17
 0
VERTEX
 8
LATHE_3
 10
0
 20
0
 30
0
 70
128
 71
108
 72
109
 73
19
 74
18
 0
VERTEX
 8
LATHE_3
 10
0
 20
0
 30
0
 70
128
 71
109
 72
110
 73
20
 74
19
 0
VERTEX
 8
LATHE_3
 10
0
 20
0
 30
0
 70
128
 71
110
 72
111
 73
21
 74
20
 0
VERTEX
 8
LATHE_3
 10
0
 20
0
 30
0
 70
128
 71
111
 72
112
 73
22
 74
21
 0
VERTEX
 8
LATHE_3
 10
0
 20
0
 30
0
 70
128
 71
112
 72
113
 73
23
 74
22
 0
VERTEX
 8
LATHE_3
 10
0
 20
0
 30
0
 70
128
 71
113
 72
114
 73
24
 74
23
 0
VERTEX
 8
LATHE_3
 10
0
 20
0
 30
0
 70
128
 71
114
 72
115
 73
25
 74
24
 0
VERTEX
 8
LATHE_3
 10
0
 20
0
 30
0
 70
128
 71
115
 72
116
 73
26
 74
25
 0
VERTEX
 8
LATHE_3
 10
0
 20
0
 30
0
 70
128
 71
116
 72
117
 73
27
 74
26
 0
VERTEX
 8
LATHE_3
 10
0
 20
0
 30
0
 70
128
 71
117
 72
118
 73
28
 74
27
 0
VERTEX
 8
LATHE_3
 10
0
 20
0
 30
0
 70
128
 71
118
 72
119
 73
29
 74
28
 0
VERTEX
 8
LATHE_3
 10
0
 20
0
 30
0
 70
128
 71
119
 72
120
 73
30
 74
29
 0
VERTEX
 8
LATHE_3
 10
0
 20
0
 30
0
 70
128
 71
120
 72
91
 73
1
 74
30
 0
SEQEND
 0
POLYLINE
 8
LATHE_2
 66
1
 10
0.0
 20
0.0
 30
0.0
 70
64
 71
120
 72
120
 0
VERTEX
 8
LATHE_2
 10
0.0001
 20
-0.0019
 30
0.516
 70
192
 0
VERTEX
 8
LATHE_2
 10
0.0032
 20
-0.1129
 30
0.5147
 70
192
 0
VERTEX
 8
LATHE_2
 10
0.0032
 20
-0.1158
 30
0.5103
 70
192
 0
VERTEX
 8
LATHE_2
 10
0.0033
 20
-0.1164
 30
0.5099
 70
192
 0
VERTEX
 8
LATHE_2
 10
0.0033
 20
-0.1173
 30
0.5092
 70
192
 0
VERTEX
 8
LATHE_2
 10
0.0033
 20
-0.1182
 30
0.5085
 70
192
 0
VERTEX
 8
LATHE_2
 10
0.0033
 20
-0.1189
 30
0.5077
 70
192
 0
VERTEX
 8
LATHE_2
 10
0.0033
 20
-0.1195
 30
0.5069
 70
192
 0
VERTEX
 8
LATHE_2
 10
0.0033
 20
-0.1199
 30
0.5063
 70
192
 0
VERTEX
 8
LATHE_2
 10
0.0034
 20
-0.1202
 30
0.5057
 70
192
 0
VERTEX
 8
LATHE_2
 10
0.0034
 20
-0.1204
 30
0.505
 70
192
 0
VERTEX
 8
LATHE_2
 10
0.0034
 20
-0.1205
 30
0.5043
 70
192
 0
VERTEX
 8
LATHE_2
 10
0.0034
 20
-0.1205
 30
0.5035
 70
192
 0
VERTEX
 8
LATHE_2
 10
0.0034
 20
-0.1203
 30
0.5027
 70
192
 0
VERTEX
 8
LATHE_2
 10
0.0034
 20
-0.1201
 30
0.5019
 70
192
 0
VERTEX
 8
LATHE_2
 10
0.0033
 20
-0.1196
 30
0.501
 70
192
 0
VERTEX
 8
LATHE_2
 10
0.0033
 20
-0.119
 30
0.5001
 70
192
 0
VERTEX
 8
LATHE_2
 10
0.0033
 20
-0.1183
 30
0.4992
 70
192
 0
VERTEX
 8
LATHE_2
 10
0.0033
 20
-0.1173
 30
0.4982
 70
192
 0
VERTEX
 8
LATHE_2
 10
0.0032
 20
-0.1154
 30
0.4968
 70
192
 0
VERTEX
 8
LATHE_2
 10
0.0032
 20
-0.1129
 30
0.4952
 70
192
 0
VERTEX
 8
LATHE_2
 10
0.0032
 20
-0.113
 30
0.4953
 70
192
 0
VERTEX
 8
LATHE_2
 10
0.0032
 20
-0.113
 30
0.4953
 70
192
 0
VERTEX
 8
LATHE_2
 10
0.0032
 20
-0.113
 30
0.4953
 70
192
 0
VERTEX
 8
LATHE_2
 10
0.0031
 20
-0.1111
 30
0.4929
 70
192
 0
VERTEX
 8
LATHE_2
 10
0.0031
 20
-0.1093
 30
0.4908
 70
192
 0
VERTEX
 8
LATHE_2
 10
0.0001
 20
-0.0019
 30
0.4899
 70
192
 0
VERTEX
 8
LATHE_2
 10
0.0001
 20
-0.0018
 30
0.5152
 70
192
 0
VERTEX
 8
LATHE_2
 10
0.0001
 20
-0.0019
 30
0.5158
 70
192
 0
VERTEX
 8
LATHE_2
 10
0.0001
 20
-0.0019
 30
0.5159
 70
192
 0
VERTEX
 8
LATHE_2
 10
0.0019
 20
0.0001
 30
0.516
 70
192
 0
VERTEX
 8
LATHE_2
 10
0.1129
 20
0.0032
 30
0.5147
 70
192
 0
VERTEX
 8
LATHE_2
 10
0.1158
 20
0.0032
 30
0.5103
 70
192
 0
VERTEX
 8
LATHE_2
 10
0.1164
 20
0.0033
 30
0.5099
 70
192
 0
VERTEX
 8
LATHE_2
 10
0.1173
 20
0.0033
 30
0.5092
 70
192
 0
VERTEX
 8
LATHE_2
 10
0.1182
 20
0.0033
 30
0.5085
 70
192
 0
VERTEX
 8
LATHE_2
 10
0.1189
 20
0.0033
 30
0.5077
 70
192
 0
VERTEX
 8
LATHE_2
 10
0.1195
 20
0.0033
 30
0.5069
 70
192
 0
VERTEX
 8
LATHE_2
 10
0.1199
 20
0.0033
 30
0.5063
 70
192
 0
VERTEX
 8
LATHE_2
 10
0.1202
 20
0.0034
 30
0.5057
 70
192
 0
VERTEX
 8
LATHE_2
 10
0.1204
 20
0.0034
 30
0.505
 70
192
 0
VERTEX
 8
LATHE_2
 10
0.1205
 20
0.0034
 30
0.5043
 70
192
 0
VERTEX
 8
LATHE_2
 10
0.1205
 20
0.0034
 30
0.5035
 70
192
 0
VERTEX
 8
LATHE_2
 10
0.1203
 20
0.0034
 30
0.5027
 70
192
 0
VERTEX
 8
LATHE_2
 10
0.1201
 20
0.0034
 30
0.5019
 70
192
 0
VERTEX
 8
LATHE_2
 10
0.1196
 20
0.0033
 30
0.501
 70
192
 0
VERTEX
 8
LATHE_2
 10
0.119
 20
0.0033
 30
0.5001
 70
192
 0
VERTEX
 8
LATHE_2
 10
0.1183
 20
0.0033
 30
0.4992
 70
192
 0
VERTEX
 8
LATHE_2
 10
0.1173
 20
0.0033
 30
0.4982
 70
192
 0
VERTEX
 8
LATHE_2
 10
0.1154
 20
0.0032
 30
0.4968
 70
192
 0
VERTEX
 8
LATHE_2
 10
0.1129
 20
0.0032
 30
0.4952
 70
192
 0
VERTEX
 8
LATHE_2
 10
0.113
 20
0.0032
 30
0.4953
 70
192
 0
VERTEX
 8
LATHE_2
 10
0.113
 20
0.0032
 30
0.4953
 70
192
 0
VERTEX
 8
LATHE_2
 10
0.113
 20
0.0032
 30
0.4953
 70
192
 0
VERTEX
 8
LATHE_2
 10
0.1111
 20
0.0031
 30
0.4929
 70
192
 0
VERTEX
 8
LATHE_2
 10
0.1093
 20
0.0031
 30
0.4908
 70
192
 0
VERTEX
 8
LATHE_2
 10
0.0019
 20
0.0001
 30
0.4899
 70
192
 0
VERTEX
 8
LATHE_2
 10
0.0018
 20
0.0001
 30
0.5152
 70
192
 0
VERTEX
 8
LATHE_2
 10
0.0019
 20
0.0001
 30
0.5158
 70
192
 0
VERTEX
 8
LATHE_2
 10
0.0019
 20
0.0001
 30
0.5159
 70
192
 0
VERTEX
 8
LATHE_2
 10
-0.0001
 20
0.0019
 30
0.516
 70
192
 0
VERTEX
 8
LATHE_2
 10
-0.0032
 20
0.1129
 30
0.5147
 70
192
 0
VERTEX
 8
LATHE_2
 10
-0.0032
 20
0.1158
 30
0.5103
 70
192
 0
VERTEX
 8
LATHE_2
 10
-0.0033
 20
0.1164
 30
0.5099
 70
192
 0
VERTEX
 8
LATHE_2
 10
-0.0033
 20
0.1173
 30
0.5092
 70
192
 0
VERTEX
 8
LATHE_2
 10
-0.0033
 20
0.1182
 30
0.5085
 70
192
 0
VERTEX
 8
LATHE_2
 10
-0.0033
 20
0.1189
 30
0.5077
 70
192
 0
VERTEX
 8
LATHE_2
 10
-0.0033
 20
0.1195
 30
0.5069
 70
192
 0
VERTEX
 8
LATHE_2
 10
-0.0033
 20
0.1199
 30
0.5063
 70
192
 0
VERTEX
 8
LATHE_2
 10
-0.0034
 20
0.1202
 30
0.5057
 70
192
 0
VERTEX
 8
LATHE_2
 10
-0.0034
 20
0.1204
 30
0.505
 70
192
 0
VERTEX
 8
LATHE_2
 10
-0.0034
 20
0.1205
 30
0.5043
 70
192
 0
VERTEX
 8
LATHE_2
 10
-0.0034
 20
0.1205
 30
0.5035
 70
192
 0
VERTEX
 8
LATHE_2
 10
-0.0034
 20
0.1203
 30
0.5027
 70
192
 0
VERTEX
 8
LATHE_2
 10
-0.0034
 20
0.1201
 30
0.5019
 70
192
 0
VERTEX
 8
LATHE_2
 10
-0.0033
 20
0.1196
 30
0.501
 70
192
 0
VERTEX
 8
LATHE_2
 10
-0.0033
 20
0.119
 30
0.5001
 70
192
 0
VERTEX
 8
LATHE_2
 10
-0.0033
 20
0.1183
 30
0.4992
 70
192
 0
VERTEX
 8
LATHE_2
 10
-0.0033
 20
0.1173
 30
0.4982
 70
192
 0
VERTEX
 8
LATHE_2
 10
-0.0032
 20
0.1154
 30
0.4968
 70
192
 0
VERTEX
 8
LATHE_2
 10
-0.0032
 20
0.1129
 30
0.4952
 70
192
 0
VERTEX
 8
LATHE_2
 10
-0.0032
 20
0.113
 30
0.4953
 70
192
 0
VERTEX
 8
LATHE_2
 10
-0.0032
 20
0.113
 30
0.4953
 70
192
 0
VERTEX
 8
LATHE_2
 10
-0.0032
 20
0.113
 30
0.4953
 70
192
 0
VERTEX
 8
LATHE_2
 10
-0.0031
 20
0.1111
 30
0.4929
 70
192
 0
VERTEX
 8
LATHE_2
 10
-0.0031
 20
0.1093
 30
0.4908
 70
192
 0
VERTEX
 8
LATHE_2
 10
-0.0001
 20
0.0019
 30
0.4899
 70
192
 0
VERTEX
 8
LATHE_2
 10
-0.0001
 20
0.0018
 30
0.5152
 70
192
 0
VERTEX
 8
LATHE_2
 10
-0.0001
 20
0.0019
 30
0.5158
 70
192
 0
VERTEX
 8
LATHE_2
 10
-0.0001
 20
0.0019
 30
0.5159
 70
192
 0
VERTEX
 8
LATHE_2
 10
-0.0019
 20
-0.0001
 30
0.516
 70
192
 0
VERTEX
 8
LATHE_2
 10
-0.1129
 20
-0.0032
 30
0.5147
 70
192
 0
VERTEX
 8
LATHE_2
 10
-0.1158
 20
-0.0032
 30
0.5103
 70
192
 0
VERTEX
 8
LATHE_2
 10
-0.1164
 20
-0.0033
 30
0.5099
 70
192
 0
VERTEX
 8
LATHE_2
 10
-0.1173
 20
-0.0033
 30
0.5092
 70
192
 0
VERTEX
 8
LATHE_2
 10
-0.1182
 20
-0.0033
 30
0.5085
 70
192
 0
VERTEX
 8
LATHE_2
 10
-0.1189
 20
-0.0033
 30
0.5077
 70
192
 0
VERTEX
 8
LATHE_2
 10
-0.1195
 20
-0.0033
 30
0.5069
 70
192
 0
VERTEX
 8
LATHE_2
 10
-0.1199
 20
-0.0033
 30
0.5063
 70
192
 0
VERTEX
 8
LATHE_2
 10
-0.1202
 20
-0.0034
 30
0.5057
 70
192
 0
VERTEX
 8
LATHE_2
 10
-0.1204
 20
-0.0034
 30
0.505
 70
192
 0
VERTEX
 8
LATHE_2
 10
-0.1205
 20
-0.0034
 30
0.5043
 70
192
 0
VERTEX
 8
LATHE_2
 10
-0.1205
 20
-0.0034
 30
0.5035
 70
192
 0
VERTEX
 8
LATHE_2
 10
-0.1203
 20
-0.0034
 30
0.5027
 70
192
 0
VERTEX
 8
LATHE_2
 10
-0.1201
 20
-0.0034
 30
0.5019
 70
192
 0
VERTEX
 8
LATHE_2
 10
-0.1196
 20
-0.0033
 30
0.501
 70
192
 0
VERTEX
 8
LATHE_2
 10
-0.119
 20
-0.0033
 30
0.5001
 70
192
 0
VERTEX
 8
LATHE_2
 10
-0.1183
 20
-0.0033
 30
0.4992
 70
192
 0
VERTEX
 8
LATHE_2
 10
-0.1173
 20
-0.0033
 30
0.4982
 70
192
 0
VERTEX
 8
LATHE_2
 10
-0.1154
 20
-0.0032
 30
0.4968
 70
192
 0
VERTEX
 8
LATHE_2
 10
-0.1129
 20
-0.0032
 30
0.4952
 70
192
 0
VERTEX
 8
LATHE_2
 10
-0.113
 20
-0.0032
 30
0.4953
 70
192
 0
VERTEX
 8
LATHE_2
 10
-0.113
 20
-0.0032
 30
0.4953
 70
192
 0
VERTEX
 8
LATHE_2
 10
-0.113
 20
-0.0032
 30
0.4953
 70
192
 0
VERTEX
 8
LATHE_2
 10
-0.1111
 20
-0.0031
 30
0.4929
 70
192
 0
VERTEX
 8
LATHE_2
 10
-0.1093
 20
-0.0031
 30
0.4908
 70
192
 0
VERTEX
 8
LATHE_2
 10
-0.0019
 20
-0.0001
 30
0.4899
 70
192
 0
VERTEX
 8
LATHE_2
 10
-0.0018
 20
-0.0001
 30
0.5152
 70
192
 0
VERTEX
 8
LATHE_2
 10
-0.0019
 20
-0.0001
 30
0.5158
 70
192
 0
VERTEX
 8
LATHE_2
 10
-0.0019
 20
-0.0001
 30
0.5159
 70
192
 0
VERTEX
 8
LATHE_2
 10
0
 20
0
 30
0
 70
128
 71
1
 72
2
 73
32
 74
31
 0
VERTEX
 8
LATHE_2
 10
0
 20
0
 30
0
 70
128
 71
2
 72
3
 73
33
 74
32
 0
VERTEX
 8
LATHE_2
 10
0
 20
0
 30
0
 70
128
 71
3
 72
4
 73
34
 74
33
 0
VERTEX
 8
LATHE_2
 10
0
 20
0
 30
0
 70
128
 71
4
 72
5
 73
35
 74
34
 0
VERTEX
 8
LATHE_2
 10
0
 20
0
 30
0
 70
128
 71
5
 72
6
 73
36
 74
35
 0
VERTEX
 8
LATHE_2
 10
0
 20
0
 30
0
 70
128
 71
6
 72
7
 73
37
 74
36
 0
VERTEX
 8
LATHE_2
 10
0
 20
0
 30
0
 70
128
 71
7
 72
8
 73
38
 74
37
 0
VERTEX
 8
LATHE_2
 10
0
 20
0
 30
0
 70
128
 71
8
 72
9
 73
39
 74
38
 0
VERTEX
 8
LATHE_2
 10
0
 20
0
 30
0
 70
128
 71
9
 72
10
 73
40
 74
39
 0
VERTEX
 8
LATHE_2
 10
0
 20
0
 30
0
 70
128
 71
10
 72
11
 73
41
 74
40
 0
VERTEX
 8
LATHE_2
 10
0
 20
0
 30
0
 70
128
 71
11
 72
12
 73
42
 74
41
 0
VERTEX
 8
LATHE_2
 10
0
 20
0
 30
0
 70
128
 71
12
 72
13
 73
43
 74
42
 0
VERTEX
 8
LATHE_2
 10
0
 20
0
 30
0
 70
128
 71
13
 72
14
 73
44
 74
43
 0
VERTEX
 8
LATHE_2
 10
0
 20
0
 30
0
 70
128
 71
14
 72
15
 73
45
 74
44
 0
VERTEX
 8
LATHE_2
 10
0
 20
0
 30
0
 70
128
 71
15
 72
16
 73
46
 74
45
 0
VERTEX
 8
LATHE_2
 10
0
 20
0
 30
0
 70
128
 71
16
 72
17
 73
47
 74
46
 0
VERTEX
 8
LATHE_2
 10
0
 20
0
 30
0
 70
128
 71
17
 72
18
 73
48
 74
47
 0
VERTEX
 8
LATHE_2
 10
0
 20
0
 30
0
 70
128
 71
18
 72
19
 73
49
 74
48
 0
VERTEX
 8
LATHE_2
 10
0
 20
0
 30
0
 70
128
 71
19
 72
20
 73
50
 74
49
 0
VERTEX
 8
LATHE_2
 10
0
 20
0
 30
0
 70
128
 71
20
 72
21
 73
51
 74
50
 0
VERTEX
 8
LATHE_2
 10
0
 20
0
 30
0
 70
128
 71
21
 72
22
 73
52
 74
51
 0
VERTEX
 8
LATHE_2
 10
0
 20
0
 30
0
 70
128
 71
22
 72
23
 73
53
 74
52
 0
VERTEX
 8
LATHE_2
 10
0
 20
0
 30
0
 70
128
 71
23
 72
24
 73
54
 74
53
 0
VERTEX
 8
LATHE_2
 10
0
 20
0
 30
0
 70
128
 71
24
 72
25
 73
55
 74
54
 0
VERTEX
 8
LATHE_2
 10
0
 20
0
 30
0
 70
128
 71
25
 72
26
 73
56
 74
55
 0
VERTEX
 8
LATHE_2
 10
0
 20
0
 30
0
 70
128
 71
26
 72
27
 73
57
 74
56
 0
VERTEX
 8
LATHE_2
 10
0
 20
0
 30
0
 70
128
 71
27
 72
28
 73
58
 74
57
 0
VERTEX
 8
LATHE_2
 10
0
 20
0
 30
0
 70
128
 71
28
 72
29
 73
59
 74
58
 0
VERTEX
 8
LATHE_2
 10
0
 20
0
 30
0
 70
128
 71
29
 72
30
 73
60
 74
59
 0
VERTEX
 8
LATHE_2
 10
0
 20
0
 30
0
 70
128
 71
30
 72
1
 73
31
 74
60
 0
VERTEX
 8
LATHE_2
 10
0
 20
0
 30
0
 70
128
 71
31
 72
32
 73
62
 74
61
 0
VERTEX
 8
LATHE_2
 10
0
 20
0
 30
0
 70
128
 71
32
 72
33
 73
63
 74
62
 0
VERTEX
 8
LATHE_2
 10
0
 20
0
 30
0
 70
128
 71
33
 72
34
 73
64
 74
63
 0
VERTEX
 8
LATHE_2
 10
0
 20
0
 30
0
 70
128
 71
34
 72
35
 73
65
 74
64
 0
VERTEX
 8
LATHE_2
 10
0
 20
0
 30
0
 70
128
 71
35
 72
36
 73
66
 74
65
 0
VERTEX
 8
LATHE_2
 10
0
 20
0
 30
0
 70
128
 71
36
 72
37
 73
67
 74
66
 0
VERTEX
 8
LATHE_2
 10
0
 20
0
 30
0
 70
128
 71
37
 72
38
 73
68
 74
67
 0
VERTEX
 8
LATHE_2
 10
0
 20
0
 30
0
 70
128
 71
38
 72
39
 73
69
 74
68
 0
VERTEX
 8
LATHE_2
 10
0
 20
0
 30
0
 70
128
 71
39
 72
40
 73
70
 74
69
 0
VERTEX
 8
LATHE_2
 10
0
 20
0
 30
0
 70
128
 71
40
 72
41
 73
71
 74
70
 0
VERTEX
 8
LATHE_2
 10
0
 20
0
 30
0
 70
128
 71
41
 72
42
 73
72
 74
71
 0
VERTEX
 8
LATHE_2
 10
0
 20
0
 30
0
 70
128
 71
42
 72
43
 73
73
 74
72
 0
VERTEX
 8
LATHE_2
 10
0
 20
0
 30
0
 70
128
 71
43
 72
44
 73
74
 74
73
 0
VERTEX
 8
LATHE_2
 10
0
 20
0
 30
0
 70
128
 71
44
 72
45
 73
75
 74
74
 0
VERTEX
 8
LATHE_2
 10
0
 20
0
 30
0
 70
128
 71
45
 72
46
 73
76
 74
75
 0
VERTEX
 8
LATHE_2
 10
0
 20
0
 30
0
 70
128
 71
46
 72
47
 73
77
 74
76
 0
VERTEX
 8
LATHE_2
 10
0
 20
0
 30
0
 70
128
 71
47
 72
48
 73
78
 74
77
 0
VERTEX
 8
LATHE_2
 10
0
 20
0
 30
0
 70
128
 71
48
 72
49
 73
79
 74
78
 0
VERTEX
 8
LATHE_2
 10
0
 20
0
 30
0
 70
128
 71
49
 72
50
 73
80
 74
79
 0
VERTEX
 8
LATHE_2
 10
0
 20
0
 30
0
 70
128
 71
50
 72
51
 73
81
 74
80
 0
VERTEX
 8
LATHE_2
 10
0
 20
0
 30
0
 70
128
 71
51
 72
52
 73
82
 74
81
 0
VERTEX
 8
LATHE_2
 10
0
 20
0
 30
0
 70
128
 71
52
 72
53
 73
83
 74
82
 0
VERTEX
 8
LATHE_2
 10
0
 20
0
 30
0
 70
128
 71
53
 72
54
 73
84
 74
83
 0
VERTEX
 8
LATHE_2
 10
0
 20
0
 30
0
 70
128
 71
54
 72
55
 73
85
 74
84
 0
VERTEX
 8
LATHE_2
 10
0
 20
0
 30
0
 70
128
 71
55
 72
56
 73
86
 74
85
 0
VERTEX
 8
LATHE_2
 10
0
 20
0
 30
0
 70
128
 71
56
 72
57
 73
87
 74
86
 0
VERTEX
 8
LATHE_2
 10
0
 20
0
 30
0
 70
128
 71
57
 72
58
 73
88
 74
87
 0
VERTEX
 8
LATHE_2
 10
0
 20
0
 30
0
 70
128
 71
58
 72
59
 73
89
 74
88
 0
VERTEX
 8
LATHE_2
 10
0
 20
0
 30
0
 70
128
 71
59
 72
60
 73
90
 74
89
 0
VERTEX
 8
LATHE_2
 10
0
 20
0
 30
0
 70
128
 71
60
 72
31
 73
61
 74
90
 0
VERTEX
 8
LATHE_2
 10
0
 20
0
 30
0
 70
128
 71
61
 72
62
 73
92
 74
91
 0
VERTEX
 8
LATHE_2
 10
0
 20
0
 30
0
 70
128
 71
62
 72
63
 73
93
 74
92
 0
VERTEX
 8
LATHE_2
 10
0
 20
0
 30
0
 70
128
 71
63
 72
64
 73
94
 74
93
 0
VERTEX
 8
LATHE_2
 10
0
 20
0
 30
0
 70
128
 71
64
 72
65
 73
95
 74
94
 0
VERTEX
 8
LATHE_2
 10
0
 20
0
 30
0
 70
128
 71
65
 72
66
 73
96
 74
95
 0
VERTEX
 8
LATHE_2
 10
0
 20
0
 30
0
 70
128
 71
66
 72
67
 73
97
 74
96
 0
VERTEX
 8
LATHE_2
 10
0
 20
0
 30
0
 70
128
 71
67
 72
68
 73
98
 74
97
 0
VERTEX
 8
LATHE_2
 10
0
 20
0
 30
0
 70
128
 71
68
 72
69
 73
99
 74
98
 0
VERTEX
 8
LATHE_2
 10
0
 20
0
 30
0
 70
128
 71
69
 72
70
 73
100
 74
99
 0
VERTEX
 8
LATHE_2
 10
0
 20
0
 30
0
 70
128
 71
70
 72
71
 73
101
 74
100
 0
VERTEX
 8
LATHE_2
 10
0
 20
0
 30
0
 70
128
 71
71
 72
72
 73
102
 74
101
 0
VERTEX
 8
LATHE_2
 10
0
 20
0
 30
0
 70
128
 71
72
 72
73
 73
103
 74
102
 0
VERTEX
 8
LATHE_2
 10
0
 20
0
 30
0
 70
128
 71
73
 72
74
 73
104
 74
103
 0
VERTEX
 8
LATHE_2
 10
0
 20
0
 30
0
 70
128
 71
74
 72
75
 73
105
 74
104
 0
VERTEX
 8
LATHE_2
 10
0
 20
0
 30
0
 70
128
 71
75
 72
76
 73
106
 74
105
 0
VERTEX
 8
LATHE_2
 10
0
 20
0
 30
0
 70
128
 71
76
 72
77
 73
107
 74
106
 0
VERTEX
 8
LATHE_2
 10
0
 20
0
 30
0
 70
128
 71
77
 72
78
 73
108
 74
107
 0
VERTEX
 8
LATHE_2
 10
0
 20
0
 30
0
 70
128
 71
78
 72
79
 73
109
 74
108
 0
VERTEX
 8
LATHE_2
 10
0
 20
0
 30
0
 70
128
 71
79
 72
80
 73
110
 74
109
 0
VERTEX
 8
LATHE_2
 10
0
 20
0
 30
0
 70
128
 71
80
 72
81
 73
111
 74
110
 0
VERTEX
 8
LATHE_2
 10
0
 20
0
 30
0
 70
128
 71
81
 72
82
 73
112
 74
111
 0
VERTEX
 8
LATHE_2
 10
0
 20
0
 30
0
 70
128
 71
82
 72
83
 73
113
 74
112
 0
VERTEX
 8
LATHE_2
 10
0
 20
0
 30
0
 70
128
 71
83
 72
84
 73
114
 74
113
 0
VERTEX
 8
LATHE_2
 10
0
 20
0
 30
0
 70
128
 71
84
 72
85
 73
115
 74
114
 0
VERTEX
 8
LATHE_2
 10
0
 20
0
 30
0
 70
128
 71
85
 72
86
 73
116
 74
115
 0
VERTEX
 8
LATHE_2
 10
0
 20
0
 30
0
 70
128
 71
86
 72
87
 73
117
 74
116
 0
VERTEX
 8
LATHE_2
 10
0
 20
0
 30
0
 70
128
 71
87
 72
88
 73
118
 74
117
 0
VERTEX
 8
LATHE_2
 10
0
 20
0
 30
0
 70
128
 71
88
 72
89
 73
119
 74
118
 0
VERTEX
 8
LATHE_2
 10
0
 20
0
 30
0
 70
128
 71
89
 72
90
 73
120
 74
119
 0
VERTEX
 8
LATHE_2
 10
0
 20
0
 30
0
 70
128
 71
90
 72
61
 73
91
 74
120
 0
VERTEX
 8
LATHE_2
 10
0
 20
0
 30
0
 70
128
 71
91
 72
92
 73
2
 74
1
 0
VERTEX
 8
LATHE_2
 10
0
 20
0
 30
0
 70
128
 71
92
 72
93
 73
3
 74
2
 0
VERTEX
 8
LATHE_2
 10
0
 20
0
 30
0
 70
128
 71
93
 72
94
 73
4
 74
3
 0
VERTEX
 8
LATHE_2
 10
0
 20
0
 30
0
 70
128
 71
94
 72
95
 73
5
 74
4
 0
VERTEX
 8
LATHE_2
 10
0
 20
0
 30
0
 70
128
 71
95
 72
96
 73
6
 74
5
 0
VERTEX
 8
LATHE_2
 10
0
 20
0
 30
0
 70
128
 71
96
 72
97
 73
7
 74
6
 0
VERTEX
 8
LATHE_2
 10
0
 20
0
 30
0
 70
128
 71
97
 72
98
 73
8
 74
7
 0
VERTEX
 8
LATHE_2
 10
0
 20
0
 30
0
 70
128
 71
98
 72
99
 73
9
 74
8
 0
VERTEX
 8
LATHE_2
 10
0
 20
0
 30
0
 70
128
 71
99
 72
100
 73
10
 74
9
 0
VERTEX
 8
LATHE_2
 10
0
 20
0
 30
0
 70
128
 71
100
 72
101
 73
11
 74
10
 0
VERTEX
 8
LATHE_2
 10
0
 20
0
 30
0
 70
128
 71
101
 72
102
 73
12
 74
11
 0
VERTEX
 8
LATHE_2
 10
0
 20
0
 30
0
 70
128
 71
102
 72
103
 73
13
 74
12
 0
VERTEX
 8
LATHE_2
 10
0
 20
0
 30
0
 70
128
 71
103
 72
104
 73
14
 74
13
 0
VERTEX
 8
LATHE_2
 10
0
 20
0
 30
0
 70
128
 71
104
 72
105
 73
15
 74
14
 0
VERTEX
 8
LATHE_2
 10
0
 20
0
 30
0
 70
128
 71
105
 72
106
 73
16
 74
15
 0
VERTEX
 8
LATHE_2
 10
0
 20
0
 30
0
 70
128
 71
106
 72
107
 73
17
 74
16
 0
VERTEX
 8
LATHE_2
 10
0
 20
0
 30
0
 70
128
 71
107
 72
108
 73
18
 74
17
 0
VERTEX
 8
LATHE_2
 10
0
 20
0
 30
0
 70
128
 71
108
 72
109
 73
19
 74
18
 0
VERTEX
 8
LATHE_2
 10
0
 20
0
 30
0
 70
128
 71
109
 72
110
 73
20
 74
19
 0
VERTEX
 8
LATHE_2
 10
0
 20
0
 30
0
 70
128
 71
110
 72
111
 73
21
 74
20
 0
VERTEX
 8
LATHE_2
 10
0
 20
0
 30
0
 70
128
 71
111
 72
112
 73
22
 74
21
 0
VERTEX
 8
LATHE_2
 10
0
 20
0
 30
0
 70
128
 71
112
 72
113
 73
23
 74
22
 0
VERTEX
 8
LATHE_2
 10
0
 20
0
 30
0
 70
128
 71
113
 72
114
 73
24
 74
23
 0
VERTEX
 8
LATHE_2
 10
0
 20
0
 30
0
 70
128
 71
114
 72
115
 73
25
 74
24
 0
VERTEX
 8
LATHE_2
 10
0
 20
0
 30
0
 70
128
 71
115
 72
116
 73
26
 74
25
 0
VERTEX
 8
LATHE_2
 10
0
 20
0
 30
0
 70
128
 71
116
 72
117
 73
27
 74
26
 0
VERTEX
 8
LATHE_2
 10
0
 20
0
 30
0
 70
128
 71
117
 72
118
 73
28
 74
27
 0
VERTEX
 8
LATHE_2
 10
0
 20
0
 30
0
 70
128
 71
118
 72
119
 73
29
 74
28
 0
VERTEX
 8
LATHE_2
 10
0
 20
0
 30
0
 70
128
 71
119
 72
120
 73
30
 74
29
 0
VERTEX
 8
LATHE_2
 10
0
 20
0
 30
0
 70
128
 71
120
 72
91
 73
1
 74
30
 0
SEQEND
 0
POLYLINE
 8
LATHE_1
 66
1
 10
0.0
 20
0.0
 30
0.0
 70
64
 71
268
 72
268
 0
VERTEX
 8
LATHE_1
 10
-0.0002
 20
0
 30
0.4356
 70
192
 0
VERTEX
 8
LATHE_1
 10
-0.1392
 20
0
 30
0.4394
 70
192
 0
VERTEX
 8
LATHE_1
 10
-0.1396
 20
0
 30
0.4392
 70
192
 0
VERTEX
 8
LATHE_1
 10
-0.1404
 20
0
 30
0.4389
 70
192
 0
VERTEX
 8
LATHE_1
 10
-0.1412
 20
0
 30
0.4384
 70
192
 0
VERTEX
 8
LATHE_1
 10
-0.142
 20
0
 30
0.4378
 70
192
 0
VERTEX
 8
LATHE_1
 10
-0.1429
 20
0
 30
0.437
 70
192
 0
VERTEX
 8
LATHE_1
 10
-0.1435
 20
0
 30
0.4363
 70
192
 0
VERTEX
 8
LATHE_1
 10
-0.1441
 20
0
 30
0.4355
 70
192
 0
VERTEX
 8
LATHE_1
 10
-0.1446
 20
0
 30
0.4346
 70
192
 0
VERTEX
 8
LATHE_1
 10
-0.1451
 20
0
 30
0.4336
 70
192
 0
VERTEX
 8
LATHE_1
 10
-0.1454
 20
0
 30
0.4324
 70
192
 0
VERTEX
 8
LATHE_1
 10
-0.1457
 20
0
 30
0.4311
 70
192
 0
VERTEX
 8
LATHE_1
 10
-0.1459
 20
0
 30
0.4297
 70
192
 0
VERTEX
 8
LATHE_1
 10
-0.1459
 20
0
 30
0.4281
 70
192
 0
VERTEX
 8
LATHE_1
 10
-0.1456
 20
0
 30
0.4254
 70
192
 0
VERTEX
 8
LATHE_1
 10
-0.145
 20
0
 30
0.4224
 70
192
 0
VERTEX
 8
LATHE_1
 10
-0.1439
 20
0
 30
0.4189
 70
192
 0
VERTEX
 8
LATHE_1
 10
-0.1422
 20
0
 30
0.415
 70
192
 0
VERTEX
 8
LATHE_1
 10
-0.1392
 20
0
 30
0.4092
 70
192
 0
VERTEX
 8
LATHE_1
 10
-0.1391
 20
0
 30
0.4093
 70
192
 0
VERTEX
 8
LATHE_1
 10
-0.139
 20
0
 30
0.4093
 70
192
 0
VERTEX
 8
LATHE_1
 10
-0.1389
 20
0
 30
0.4093
 70
192
 0
VERTEX
 8
LATHE_1
 10
-0.1389
 20
0
 30
0.4094
 70
192
 0
VERTEX
 8
LATHE_1
 10
-0.1388
 20
0
 30
0.4094
 70
192
 0
VERTEX
 8
LATHE_1
 10
-0.1388
 20
0
 30
0.4094
 70
192
 0
VERTEX
 8
LATHE_1
 10
-0.1387
 20
0
 30
0.4094
 70
192
 0
VERTEX
 8
LATHE_1
 10
-0.1387
 20
0
 30
0.4094
 70
192
 0
VERTEX
 8
LATHE_1
 10
-0.1386
 20
0
 30
0.4093
 70
192
 0
VERTEX
 8
LATHE_1
 10
-0.1385
 20
0
 30
0.4093
 70
192
 0
VERTEX
 8
LATHE_1
 10
-0.1384
 20
0
 30
0.4092
 70
192
 0
VERTEX
 8
LATHE_1
 10
-0.1368
 20
0
 30
0.4082
 70
192
 0
VERTEX
 8
LATHE_1
 10
-0.1362
 20
0
 30
0.408
 70
192
 0
VERTEX
 8
LATHE_1
 10
-0.1354
 20
0
 30
0.4077
 70
192
 0
VERTEX
 8
LATHE_1
 10
-0.1345
 20
0
 30
0.4076
 70
192
 0
VERTEX
 8
LATHE_1
 10
-0.1334
 20
0
 30
0.4075
 70
192
 0
VERTEX
 8
LATHE_1
 10
-0.1321
 20
0
 30
0.4076
 70
192
 0
VERTEX
 8
LATHE_1
 10
-0.1322
 20
0
 30
0.4075
 70
192
 0
VERTEX
 8
LATHE_1
 10
-0.1322
 20
0
 30
0.4074
 70
192
 0
VERTEX
 8
LATHE_1
 10
-0.1322
 20
0
 30
0.4072
 70
192
 0
VERTEX
 8
LATHE_1
 10
-0.1323
 20
0
 30
0.4068
 70
192
 0
VERTEX
 8
LATHE_1
 10
-0.1322
 20
0
 30
0.406
 70
192
 0
VERTEX
 8
LATHE_1
 10
-0.1321
 20
0
 30
0.4048
 70
192
 0
VERTEX
 8
LATHE_1
 10
-0.1318
 20
0
 30
0.4034
 70
192
 0
VERTEX
 8
LATHE_1
 10
-0.1314
 20
0
 30
0.402
 70
192
 0
VERTEX
 8
LATHE_1
 10
-0.1309
 20
0
 30
0.4009
 70
192
 0
VERTEX
 8
LATHE_1
 10
-0.1304
 20
0
 30
0.4
 70
192
 0
VERTEX
 8
LATHE_1
 10
-0.13
 20
0
 30
0.3994
 70
192
 0
VERTEX
 8
LATHE_1
 10
-0.1295
 20
0
 30
0.3989
 70
192
 0
VERTEX
 8
LATHE_1
 10
-0.1292
 20
0
 30
0.3986
 70
192
 0
VERTEX
 8
LATHE_1
 10
-0.1288
 20
0
 30
0.3983
 70
192
 0
VERTEX
 8
LATHE_1
 10
-0.1286
 20
0
 30
0.3982
 70
192
 0
VERTEX
 8
LATHE_1
 10
-0.1281
 20
0
 30
0.3979
 70
192
 0
VERTEX
 8
LATHE_1
 10
-0.1271
 20
0
 30
0.3976
 70
192
 0
VERTEX
 8
LATHE_1
 10
-0.1165
 20
0
 30
0.3942
 70
192
 0
VERTEX
 8
LATHE_1
 10
-0.1128
 20
0
 30
0.3924
 70
192
 0
VERTEX
 8
LATHE_1
 10
-0.1099
 20
0
 30
0.3906
 70
192
 0
VERTEX
 8
LATHE_1
 10
-0.107
 20
0
 30
0.3883
 70
192
 0
VERTEX
 8
LATHE_1
 10
-0.1049
 20
0
 30
0.3863
 70
192
 0
VERTEX
 8
LATHE_1
 10
-0.103
 20
0
 30
0.3839
 70
192
 0
VERTEX
 8
LATHE_1
 10
-0.1012
 20
0
 30
0.3813
 70
192
 0
VERTEX
 8
LATHE_1
 10
-0.1001
 20
0
 30
0.3793
 70
192
 0
VERTEX
 8
LATHE_1
 10
-0.0991
 20
0
 30
0.3772
 70
192
 0
VERTEX
 8
LATHE_1
 10
-0.099
 20
0
 30
0.3772
 70
192
 0
VERTEX
 8
LATHE_1
 10
-0.0987
 20
0
 30
0.3773
 70
192
 0
VERTEX
 8
LATHE_1
 10
-0.0474
 20
0
 30
0.374
 70
192
 0
VERTEX
 8
LATHE_1
 10
-0.0009
 20
0
 30
0.3702
 70
192
 0
VERTEX
 8
LATHE_1
 10
0
 20
-0.0002
 30
0.4356
 70
192
 0
VERTEX
 8
LATHE_1
 10
0
 20
-0.1392
 30
0.4394
 70
192
 0
VERTEX
 8
LATHE_1
 10
0
 20
-0.1396
 30
0.4392
 70
192
 0
VERTEX
 8
LATHE_1
 10
0
 20
-0.1404
 30
0.4389
 70
192
 0
VERTEX
 8
LATHE_1
 10
0
 20
-0.1412
 30
0.4384
 70
192
 0
VERTEX
 8
LATHE_1
 10
0
 20
-0.142
 30
0.4378
 70
192
 0
VERTEX
 8
LATHE_1
 10
0
 20
-0.1429
 30
0.437
 70
192
 0
VERTEX
 8
LATHE_1
 10
0
 20
-0.1435
 30
0.4363
 70
192
 0
VERTEX
 8
LATHE_1
 10
0
 20
-0.1441
 30
0.4355
 70
192
 0
VERTEX
 8
LATHE_1
 10
0
 20
-0.1446
 30
0.4346
 70
192
 0
VERTEX
 8
LATHE_1
 10
0
 20
-0.1451
 30
0.4336
 70
192
 0
VERTEX
 8
LATHE_1
 10
0
 20
-0.1454
 30
0.4324
 70
192
 0
VERTEX
 8
LATHE_1
 10
0
 20
-0.1457
 30
0.4311
 70
192
 0
VERTEX
 8
LATHE_1
 10
0
 20
-0.1459
 30
0.4297
 70
192
 0
VERTEX
 8
LATHE_1
 10
0
 20
-0.1459
 30
0.4281
 70
192
 0
VERTEX
 8
LATHE_1
 10
0
 20
-0.1456
 30
0.4254
 70
192
 0
VERTEX
 8
LATHE_1
 10
0
 20
-0.145
 30
0.4224
 70
192
 0
VERTEX
 8
LATHE_1
 10
0
 20
-0.1439
 30
0.4189
 70
192
 0
VERTEX
 8
LATHE_1
 10
0
 20
-0.1422
 30
0.415
 70
192
 0
VERTEX
 8
LATHE_1
 10
0
 20
-0.1392
 30
0.4092
 70
192
 0
VERTEX
 8
LATHE_1
 10
0
 20
-0.1391
 30
0.4093
 70
192
 0
VERTEX
 8
LATHE_1
 10
0
 20
-0.139
 30
0.4093
 70
192
 0
VERTEX
 8
LATHE_1
 10
0
 20
-0.1389
 30
0.4093
 70
192
 0
VERTEX
 8
LATHE_1
 10
0
 20
-0.1389
 30
0.4094
 70
192
 0
VERTEX
 8
LATHE_1
 10
0
 20
-0.1388
 30
0.4094
 70
192
 0
VERTEX
 8
LATHE_1
 10
0
 20
-0.1388
 30
0.4094
 70
192
 0
VERTEX
 8
LATHE_1
 10
0
 20
-0.1387
 30
0.4094
 70
192
 0
VERTEX
 8
LATHE_1
 10
0
 20
-0.1387
 30
0.4094
 70
192
 0
VERTEX
 8
LATHE_1
 10
0
 20
-0.1386
 30
0.4093
 70
192
 0
VERTEX
 8
LATHE_1
 10
0
 20
-0.1385
 30
0.4093
 70
192
 0
VERTEX
 8
LATHE_1
 10
0
 20
-0.1384
 30
0.4092
 70
192
 0
VERTEX
 8
LATHE_1
 10
0
 20
-0.1368
 30
0.4082
 70
192
 0
VERTEX
 8
LATHE_1
 10
0
 20
-0.1362
 30
0.408
 70
192
 0
VERTEX
 8
LATHE_1
 10
0
 20
-0.1354
 30
0.4077
 70
192
 0
VERTEX
 8
LATHE_1
 10
0
 20
-0.1345
 30
0.4076
 70
192
 0
VERTEX
 8
LATHE_1
 10
0
 20
-0.1334
 30
0.4075
 70
192
 0
VERTEX
 8
LATHE_1
 10
0
 20
-0.1321
 30
0.4076
 70
192
 0
VERTEX
 8
LATHE_1
 10
0
 20
-0.1322
 30
0.4075
 70
192
 0
VERTEX
 8
LATHE_1
 10
0
 20
-0.1322
 30
0.4074
 70
192
 0
VERTEX
 8
LATHE_1
 10
0
 20
-0.1322
 30
0.4072
 70
192
 0
VERTEX
 8
LATHE_1
 10
0
 20
-0.1323
 30
0.4068
 70
192
 0
VERTEX
 8
LATHE_1
 10
0
 20
-0.1322
 30
0.406
 70
192
 0
VERTEX
 8
LATHE_1
 10
0
 20
-0.1321
 30
0.4048
 70
192
 0
VERTEX
 8
LATHE_1
 10
0
 20
-0.1318
 30
0.4034
 70
192
 0
VERTEX
 8
LATHE_1
 10
0
 20
-0.1314
 30
0.402
 70
192
 0
VERTEX
 8
LATHE_1
 10
0
 20
-0.1309
 30
0.4009
 70
192
 0
VERTEX
 8
LATHE_1
 10
0
 20
-0.1304
 30
0.4
 70
192
 0
VERTEX
 8
LATHE_1
 10
0
 20
-0.13
 30
0.3994
 70
192
 0
VERTEX
 8
LATHE_1
 10
0
 20
-0.1295
 30
0.3989
 70
192
 0
VERTEX
 8
LATHE_1
 10
0
 20
-0.1292
 30
0.3986
 70
192
 0
VERTEX
 8
LATHE_1
 10
0
 20
-0.1288
 30
0.3983
 70
192
 0
VERTEX
 8
LATHE_1
 10
0
 20
-0.1286
 30
0.3982
 70
192
 0
VERTEX
 8
LATHE_1
 10
0
 20
-0.1281
 30
0.3979
 70
192
 0
VERTEX
 8
LATHE_1
 10
0
 20
-0.1271
 30
0.3976
 70
192
 0
VERTEX
 8
LATHE_1
 10
0
 20
-0.1165
 30
0.3942
 70
192
 0
VERTEX
 8
LATHE_1
 10
0
 20
-0.1128
 30
0.3924
 70
192
 0
VERTEX
 8
LATHE_1
 10
0
 20
-0.1099
 30
0.3906
 70
192
 0
VERTEX
 8
LATHE_1
 10
0
 20
-0.107
 30
0.3883
 70
192
 0
VERTEX
 8
LATHE_1
 10
0
 20
-0.1049
 30
0.3863
 70
192
 0
VERTEX
 8
LATHE_1
 10
0
 20
-0.103
 30
0.3839
 70
192
 0
VERTEX
 8
LATHE_1
 10
0
 20
-0.1012
 30
0.3813
 70
192
 0
VERTEX
 8
LATHE_1
 10
0
 20
-0.1001
 30
0.3793
 70
192
 0
VERTEX
 8
LATHE_1
 10
0
 20
-0.0991
 30
0.3772
 70
192
 0
VERTEX
 8
LATHE_1
 10
0
 20
-0.099
 30
0.3772
 70
192
 0
VERTEX
 8
LATHE_1
 10
0
 20
-0.0987
 30
0.3773
 70
192
 0
VERTEX
 8
LATHE_1
 10
0
 20
-0.0474
 30
0.374
 70
192
 0
VERTEX
 8
LATHE_1
 10
0
 20
-0.0009
 30
0.3702
 70
192
 0
VERTEX
 8
LATHE_1
 10
0.0002
 20
0
 30
0.4356
 70
192
 0
VERTEX
 8
LATHE_1
 10
0.1392
 20
0
 30
0.4394
 70
192
 0
VERTEX
 8
LATHE_1
 10
0.1396
 20
0
 30
0.4392
 70
192
 0
VERTEX
 8
LATHE_1
 10
0.1404
 20
0
 30
0.4389
 70
192
 0
VERTEX
 8
LATHE_1
 10
0.1412
 20
0
 30
0.4384
 70
192
 0
VERTEX
 8
LATHE_1
 10
0.142
 20
0
 30
0.4378
 70
192
 0
VERTEX
 8
LATHE_1
 10
0.1429
 20
0
 30
0.437
 70
192
 0
VERTEX
 8
LATHE_1
 10
0.1435
 20
0
 30
0.4363
 70
192
 0
VERTEX
 8
LATHE_1
 10
0.1441
 20
0
 30
0.4355
 70
192
 0
VERTEX
 8
LATHE_1
 10
0.1446
 20
0
 30
0.4346
 70
192
 0
VERTEX
 8
LATHE_1
 10
0.1451
 20
0
 30
0.4336
 70
192
 0
VERTEX
 8
LATHE_1
 10
0.1454
 20
0
 30
0.4324
 70
192
 0
VERTEX
 8
LATHE_1
 10
0.1457
 20
0
 30
0.4311
 70
192
 0
VERTEX
 8
LATHE_1
 10
0.1459
 20
0
 30
0.4297
 70
192
 0
VERTEX
 8
LATHE_1
 10
0.1459
 20
0
 30
0.4281
 70
192
 0
VERTEX
 8
LATHE_1
 10
0.1456
 20
0
 30
0.4254
 70
192
 0
VERTEX
 8
LATHE_1
 10
0.145
 20
0
 30
0.4224
 70
192
 0
VERTEX
 8
LATHE_1
 10
0.1439
 20
0
 30
0.4189
 70
192
 0
VERTEX
 8
LATHE_1
 10
0.1422
 20
0
 30
0.415
 70
192
 0
VERTEX
 8
LATHE_1
 10
0.1392
 20
0
 30
0.4092
 70
192
 0
VERTEX
 8
LATHE_1
 10
0.1391
 20
0
 30
0.4093
 70
192
 0
VERTEX
 8
LATHE_1
 10
0.139
 20
0
 30
0.4093
 70
192
 0
VERTEX
 8
LATHE_1
 10
0.1389
 20
0
 30
0.4093
 70
192
 0
VERTEX
 8
LATHE_1
 10
0.1389
 20
0
 30
0.4094
 70
192
 0
VERTEX
 8
LATHE_1
 10
0.1388
 20
0
 30
0.4094
 70
192
 0
VERTEX
 8
LATHE_1
 10
0.1388
 20
0
 30
0.4094
 70
192
 0
VERTEX
 8
LATHE_1
 10
0.1387
 20
0
 30
0.4094
 70
192
 0
VERTEX
 8
LATHE_1
 10
0.1387
 20
0
 30
0.4094
 70
192
 0
VERTEX
 8
LATHE_1
 10
0.1386
 20
0
 30
0.4093
 70
192
 0
VERTEX
 8
LATHE_1
 10
0.1385
 20
0
 30
0.4093
 70
192
 0
VERTEX
 8
LATHE_1
 10
0.1384
 20
0
 30
0.4092
 70
192
 0
VERTEX
 8
LATHE_1
 10
0.1368
 20
0
 30
0.4082
 70
192
 0
VERTEX
 8
LATHE_1
 10
0.1362
 20
0
 30
0.408
 70
192
 0
VERTEX
 8
LATHE_1
 10
0.1354
 20
0
 30
0.4077
 70
192
 0
VERTEX
 8
LATHE_1
 10
0.1345
 20
0
 30
0.4076
 70
192
 0
VERTEX
 8
LATHE_1
 10
0.1334
 20
0
 30
0.4075
 70
192
 0
VERTEX
 8
LATHE_1
 10
0.1321
 20
0
 30
0.4076
 70
192
 0
VERTEX
 8
LATHE_1
 10
0.1322
 20
0
 30
0.4075
 70
192
 0
VERTEX
 8
LATHE_1
 10
0.1322
 20
0
 30
0.4074
 70
192
 0
VERTEX
 8
LATHE_1
 10
0.1322
 20
0
 30
0.4072
 70
192
 0
VERTEX
 8
LATHE_1
 10
0.1323
 20
0
 30
0.4068
 70
192
 0
VERTEX
 8
LATHE_1
 10
0.1322
 20
0
 30
0.406
 70
192
 0
VERTEX
 8
LATHE_1
 10
0.1321
 20
0
 30
0.4048
 70
192
 0
VERTEX
 8
LATHE_1
 10
0.1318
 20
0
 30
0.4034
 70
192
 0
VERTEX
 8
LATHE_1
 10
0.1314
 20
0
 30
0.402
 70
192
 0
VERTEX
 8
LATHE_1
 10
0.1309
 20
0
 30
0.4009
 70
192
 0
VERTEX
 8
LATHE_1
 10
0.1304
 20
0
 30
0.4
 70
192
 0
VERTEX
 8
LATHE_1
 10
0.13
 20
0
 30
0.3994
 70
192
 0
VERTEX
 8
LATHE_1
 10
0.1295
 20
0
 30
0.3989
 70
192
 0
VERTEX
 8
LATHE_1
 10
0.1292
 20
0
 30
0.3986
 70
192
 0
VERTEX
 8
LATHE_1
 10
0.1288
 20
0
 30
0.3983
 70
192
 0
VERTEX
 8
LATHE_1
 10
0.1286
 20
0
 30
0.3982
 70
192
 0
VERTEX
 8
LATHE_1
 10
0.1281
 20
0
 30
0.3979
 70
192
 0
VERTEX
 8
LATHE_1
 10
0.1271
 20
0
 30
0.3976
 70
192
 0
VERTEX
 8
LATHE_1
 10
0.1165
 20
0
 30
0.3942
 70
192
 0
VERTEX
 8
LATHE_1
 10
0.1128
 20
0
 30
0.3924
 70
192
 0
VERTEX
 8
LATHE_1
 10
0.1099
 20
0
 30
0.3906
 70
192
 0
VERTEX
 8
LATHE_1
 10
0.107
 20
0
 30
0.3883
 70
192
 0
VERTEX
 8
LATHE_1
 10
0.1049
 20
0
 30
0.3863
 70
192
 0
VERTEX
 8
LATHE_1
 10
0.103
 20
0
 30
0.3839
 70
192
 0
VERTEX
 8
LATHE_1
 10
0.1012
 20
0
 30
0.3813
 70
192
 0
VERTEX
 8
LATHE_1
 10
0.1001
 20
0
 30
0.3793
 70
192
 0
VERTEX
 8
LATHE_1
 10
0.0991
 20
0
 30
0.3772
 70
192
 0
VERTEX
 8
LATHE_1
 10
0.099
 20
0
 30
0.3772
 70
192
 0
VERTEX
 8
LATHE_1
 10
0.0987
 20
0
 30
0.3773
 70
192
 0
VERTEX
 8
LATHE_1
 10
0.0474
 20
0
 30
0.374
 70
192
 0
VERTEX
 8
LATHE_1
 10
0.0009
 20
0
 30
0.3702
 70
192
 0
VERTEX
 8
LATHE_1
 10
0
 20
0.0002
 30
0.4356
 70
192
 0
VERTEX
 8
LATHE_1
 10
0
 20
0.1392
 30
0.4394
 70
192
 0
VERTEX
 8
LATHE_1
 10
0
 20
0.1396
 30
0.4392
 70
192
 0
VERTEX
 8
LATHE_1
 10
0
 20
0.1404
 30
0.4389
 70
192
 0
VERTEX
 8
LATHE_1
 10
0
 20
0.1412
 30
0.4384
 70
192
 0
VERTEX
 8
LATHE_1
 10
0
 20
0.142
 30
0.4378
 70
192
 0
VERTEX
 8
LATHE_1
 10
0
 20
0.1429
 30
0.437
 70
192
 0
VERTEX
 8
LATHE_1
 10
0
 20
0.1435
 30
0.4363
 70
192
 0
VERTEX
 8
LATHE_1
 10
0
 20
0.1441
 30
0.4355
 70
192
 0
VERTEX
 8
LATHE_1
 10
0
 20
0.1446
 30
0.4346
 70
192
 0
VERTEX
 8
LATHE_1
 10
0
 20
0.1451
 30
0.4336
 70
192
 0
VERTEX
 8
LATHE_1
 10
0
 20
0.1454
 30
0.4324
 70
192
 0
VERTEX
 8
LATHE_1
 10
0
 20
0.1457
 30
0.4311
 70
192
 0
VERTEX
 8
LATHE_1
 10
0
 20
0.1459
 30
0.4297
 70
192
 0
VERTEX
 8
LATHE_1
 10
0
 20
0.1459
 30
0.4281
 70
192
 0
VERTEX
 8
LATHE_1
 10
0
 20
0.1456
 30
0.4254
 70
192
 0
VERTEX
 8
LATHE_1
 10
0
 20
0.145
 30
0.4224
 70
192
 0
VERTEX
 8
LATHE_1
 10
0
 20
0.1439
 30
0.4189
 70
192
 0
VERTEX
 8
LATHE_1
 10
0
 20
0.1422
 30
0.415
 70
192
 0
VERTEX
 8
LATHE_1
 10
0
 20
0.1392
 30
0.4092
 70
192
 0
VERTEX
 8
LATHE_1
 10
0
 20
0.1391
 30
0.4093
 70
192
 0
VERTEX
 8
LATHE_1
 10
0
 20
0.139
 30
0.4093
 70
192
 0
VERTEX
 8
LATHE_1
 10
0
 20
0.1389
 30
0.4093
 70
192
 0
VERTEX
 8
LATHE_1
 10
0
 20
0.1389
 30
0.4094
 70
192
 0
VERTEX
 8
LATHE_1
 10
0
 20
0.1388
 30
0.4094
 70
192
 0
VERTEX
 8
LATHE_1
 10
0
 20
0.1388
 30
0.4094
 70
192
 0
VERTEX
 8
LATHE_1
 10
0
 20
0.1387
 30
0.4094
 70
192
 0
VERTEX
 8
LATHE_1
 10
0
 20
0.1387
 30
0.4094
 70
192
 0
VERTEX
 8
LATHE_1
 10
0
 20
0.1386
 30
0.4093
 70
192
 0
VERTEX
 8
LATHE_1
 10
0
 20
0.1385
 30
0.4093
 70
192
 0
VERTEX
 8
LATHE_1
 10
0
 20
0.1384
 30
0.4092
 70
192
 0
VERTEX
 8
LATHE_1
 10
0
 20
0.1368
 30
0.4082
 70
192
 0
VERTEX
 8
LATHE_1
 10
0
 20
0.1362
 30
0.408
 70
192
 0
VERTEX
 8
LATHE_1
 10
0
 20
0.1354
 30
0.4077
 70
192
 0
VERTEX
 8
LATHE_1
 10
0
 20
0.1345
 30
0.4076
 70
192
 0
VERTEX
 8
LATHE_1
 10
0
 20
0.1334
 30
0.4075
 70
192
 0
VERTEX
 8
LATHE_1
 10
0
 20
0.1321
 30
0.4076
 70
192
 0
VERTEX
 8
LATHE_1
 10
0
 20
0.1322
 30
0.4075
 70
192
 0
VERTEX
 8
LATHE_1
 10
0
 20
0.1322
 30
0.4074
 70
192
 0
VERTEX
 8
LATHE_1
 10
0
 20
0.1322
 30
0.4072
 70
192
 0
VERTEX
 8
LATHE_1
 10
0
 20
0.1323
 30
0.4068
 70
192
 0
VERTEX
 8
LATHE_1
 10
0
 20
0.1322
 30
0.406
 70
192
 0
VERTEX
 8
LATHE_1
 10
0
 20
0.1321
 30
0.4048
 70
192
 0
VERTEX
 8
LATHE_1
 10
0
 20
0.1318
 30
0.4034
 70
192
 0
VERTEX
 8
LATHE_1
 10
0
 20
0.1314
 30
0.402
 70
192
 0
VERTEX
 8
LATHE_1
 10
0
 20
0.1309
 30
0.4009
 70
192
 0
VERTEX
 8
LATHE_1
 10
0
 20
0.1304
 30
0.4
 70
192
 0
VERTEX
 8
LATHE_1
 10
0
 20
0.13
 30
0.3994
 70
192
 0
VERTEX
 8
LATHE_1
 10
0
 20
0.1295
 30
0.3989
 70
192
 0
VERTEX
 8
LATHE_1
 10
0
 20
0.1292
 30
0.3986
 70
192
 0
VERTEX
 8
LATHE_1
 10
0
 20
0.1288
 30
0.3983
 70
192
 0
VERTEX
 8
LATHE_1
 10
0
 20
0.1286
 30
0.3982
 70
192
 0
VERTEX
 8
LATHE_1
 10
0
 20
0.1281
 30
0.3979
 70
192
 0
VERTEX
 8
LATHE_1
 10
0
 20
0.1271
 30
0.3976
 70
192
 0
VERTEX
 8
LATHE_1
 10
0
 20
0.1165
 30
0.3942
 70
192
 0
VERTEX
 8
LATHE_1
 10
0
 20
0.1128
 30
0.3924
 70
192
 0
VERTEX
 8
LATHE_1
 10
0
 20
0.1099
 30
0.3906
 70
192
 0
VERTEX
 8
LATHE_1
 10
0
 20
0.107
 30
0.3883
 70
192
 0
VERTEX
 8
LATHE_1
 10
0
 20
0.1049
 30
0.3863
 70
192
 0
VERTEX
 8
LATHE_1
 10
0
 20
0.103
 30
0.3839
 70
192
 0
VERTEX
 8
LATHE_1
 10
0
 20
0.1012
 30
0.3813
 70
192
 0
VERTEX
 8
LATHE_1
 10
0
 20
0.1001
 30
0.3793
 70
192
 0
VERTEX
 8
LATHE_1
 10
0
 20
0.0991
 30
0.3772
 70
192
 0
VERTEX
 8
LATHE_1
 10
0
 20
0.099
 30
0.3772
 70
192
 0
VERTEX
 8
LATHE_1
 10
0
 20
0.0987
 30
0.3773
 70
192
 0
VERTEX
 8
LATHE_1
 10
0
 20
0.0474
 30
0.374
 70
192
 0
VERTEX
 8
LATHE_1
 10
0
 20
0.0009
 30
0.3702
 70
192
 0
VERTEX
 8
LATHE_1
 10
0
 20
0
 30
0
 70
128
 71
1
 72
2
 73
69
 74
68
 0
VERTEX
 8
LATHE_1
 10
0
 20
0
 30
0
 70
128
 71
2
 72
3
 73
70
 74
69
 0
VERTEX
 8
LATHE_1
 10
0
 20
0
 30
0
 70
128
 71
3
 72
4
 73
71
 74
70
 0
VERTEX
 8
LATHE_1
 10
0
 20
0
 30
0
 70
128
 71
4
 72
5
 73
72
 74
71
 0
VERTEX
 8
LATHE_1
 10
0
 20
0
 30
0
 70
128
 71
5
 72
6
 73
73
 74
72
 0
VERTEX
 8
LATHE_1
 10
0
 20
0
 30
0
 70
128
 71
6
 72
7
 73
74
 74
73
 0
VERTEX
 8
LATHE_1
 10
0
 20
0
 30
0
 70
128
 71
7
 72
8
 73
75
 74
74
 0
VERTEX
 8
LATHE_1
 10
0
 20
0
 30
0
 70
128
 71
8
 72
9
 73
76
 74
75
 0
VERTEX
 8
LATHE_1
 10
0
 20
0
 30
0
 70
128
 71
9
 72
10
 73
77
 74
76
 0
VERTEX
 8
LATHE_1
 10
0
 20
0
 30
0
 70
128
 71
10
 72
11
 73
78
 74
77
 0
VERTEX
 8
LATHE_1
 10
0
 20
0
 30
0
 70
128
 71
11
 72
12
 73
79
 74
78
 0
VERTEX
 8
LATHE_1
 10
0
 20
0
 30
0
 70
128
 71
12
 72
13
 73
80
 74
79
 0
VERTEX
 8
LATHE_1
 10
0
 20
0
 30
0
 70
128
 71
13
 72
14
 73
81
 74
80
 0
VERTEX
 8
LATHE_1
 10
0
 20
0
 30
0
 70
128
 71
14
 72
15
 73
82
 74
81
 0
VERTEX
 8
LATHE_1
 10
0
 20
0
 30
0
 70
128
 71
15
 72
16
 73
83
 74
82
 0
VERTEX
 8
LATHE_1
 10
0
 20
0
 30
0
 70
128
 71
16
 72
17
 73
84
 74
83
 0
VERTEX
 8
LATHE_1
 10
0
 20
0
 30
0
 70
128
 71
17
 72
18
 73
85
 74
84
 0
VERTEX
 8
LATHE_1
 10
0
 20
0
 30
0
 70
128
 71
18
 72
19
 73
86
 74
85
 0
VERTEX
 8
LATHE_1
 10
0
 20
0
 30
0
 70
128
 71
19
 72
20
 73
87
 74
86
 0
VERTEX
 8
LATHE_1
 10
0
 20
0
 30
0
 70
128
 71
20
 72
21
 73
88
 74
87
 0
VERTEX
 8
LATHE_1
 10
0
 20
0
 30
0
 70
128
 71
21
 72
22
 73
89
 74
88
 0
VERTEX
 8
LATHE_1
 10
0
 20
0
 30
0
 70
128
 71
22
 72
23
 73
90
 74
89
 0
VERTEX
 8
LATHE_1
 10
0
 20
0
 30
0
 70
128
 71
23
 72
24
 73
91
 74
90
 0
VERTEX
 8
LATHE_1
 10
0
 20
0
 30
0
 70
128
 71
24
 72
25
 73
92
 74
91
 0
VERTEX
 8
LATHE_1
 10
0
 20
0
 30
0
 70
128
 71
25
 72
26
 73
93
 74
92
 0
VERTEX
 8
LATHE_1
 10
0
 20
0
 30
0
 70
128
 71
26
 72
27
 73
94
 74
93
 0
VERTEX
 8
LATHE_1
 10
0
 20
0
 30
0
 70
128
 71
27
 72
28
 73
95
 74
94
 0
VERTEX
 8
LATHE_1
 10
0
 20
0
 30
0
 70
128
 71
28
 72
29
 73
96
 74
95
 0
VERTEX
 8
LATHE_1
 10
0
 20
0
 30
0
 70
128
 71
29
 72
30
 73
97
 74
96
 0
VERTEX
 8
LATHE_1
 10
0
 20
0
 30
0
 70
128
 71
30
 72
31
 73
98
 74
97
 0
VERTEX
 8
LATHE_1
 10
0
 20
0
 30
0
 70
128
 71
31
 72
32
 73
99
 74
98
 0
VERTEX
 8
LATHE_1
 10
0
 20
0
 30
0
 70
128
 71
32
 72
33
 73
100
 74
99
 0
VERTEX
 8
LATHE_1
 10
0
 20
0
 30
0
 70
128
 71
33
 72
34
 73
101
 74
100
 0
VERTEX
 8
LATHE_1
 10
0
 20
0
 30
0
 70
128
 71
34
 72
35
 73
102
 74
101
 0
VERTEX
 8
LATHE_1
 10
0
 20
0
 30
0
 70
128
 71
35
 72
36
 73
103
 74
102
 0
VERTEX
 8
LATHE_1
 10
0
 20
0
 30
0
 70
128
 71
36
 72
37
 73
104
 74
103
 0
VERTEX
 8
LATHE_1
 10
0
 20
0
 30
0
 70
128
 71
37
 72
38
 73
105
 74
104
 0
VERTEX
 8
LATHE_1
 10
0
 20
0
 30
0
 70
128
 71
38
 72
39
 73
106
 74
105
 0
VERTEX
 8
LATHE_1
 10
0
 20
0
 30
0
 70
128
 71
39
 72
40
 73
107
 74
106
 0
VERTEX
 8
LATHE_1
 10
0
 20
0
 30
0
 70
128
 71
40
 72
41
 73
108
 74
107
 0
VERTEX
 8
LATHE_1
 10
0
 20
0
 30
0
 70
128
 71
41
 72
42
 73
109
 74
108
 0
VERTEX
 8
LATHE_1
 10
0
 20
0
 30
0
 70
128
 71
42
 72
43
 73
110
 74
109
 0
VERTEX
 8
LATHE_1
 10
0
 20
0
 30
0
 70
128
 71
43
 72
44
 73
111
 74
110
 0
VERTEX
 8
LATHE_1
 10
0
 20
0
 30
0
 70
128
 71
44
 72
45
 73
112
 74
111
 0
VERTEX
 8
LATHE_1
 10
0
 20
0
 30
0
 70
128
 71
45
 72
46
 73
113
 74
112
 0
VERTEX
 8
LATHE_1
 10
0
 20
0
 30
0
 70
128
 71
46
 72
47
 73
114
 74
113
 0
VERTEX
 8
LATHE_1
 10
0
 20
0
 30
0
 70
128
 71
47
 72
48
 73
115
 74
114
 0
VERTEX
 8
LATHE_1
 10
0
 20
0
 30
0
 70
128
 71
48
 72
49
 73
116
 74
115
 0
VERTEX
 8
LATHE_1
 10
0
 20
0
 30
0
 70
128
 71
49
 72
50
 73
117
 74
116
 0
VERTEX
 8
LATHE_1
 10
0
 20
0
 30
0
 70
128
 71
50
 72
51
 73
118
 74
117
 0
VERTEX
 8
LATHE_1
 10
0
 20
0
 30
0
 70
128
 71
51
 72
52
 73
119
 74
118
 0
VERTEX
 8
LATHE_1
 10
0
 20
0
 30
0
 70
128
 71
52
 72
53
 73
120
 74
119
 0
VERTEX
 8
LATHE_1
 10
0
 20
0
 30
0
 70
128
 71
53
 72
54
 73
121
 74
120
 0
VERTEX
 8
LATHE_1
 10
0
 20
0
 30
0
 70
128
 71
54
 72
55
 73
122
 74
121
 0
VERTEX
 8
LATHE_1
 10
0
 20
0
 30
0
 70
128
 71
55
 72
56
 73
123
 74
122
 0
VERTEX
 8
LATHE_1
 10
0
 20
0
 30
0
 70
128
 71
56
 72
57
 73
124
 74
123
 0
VERTEX
 8
LATHE_1
 10
0
 20
0
 30
0
 70
128
 71
57
 72
58
 73
125
 74
124
 0
VERTEX
 8
LATHE_1
 10
0
 20
0
 30
0
 70
128
 71
58
 72
59
 73
126
 74
125
 0
VERTEX
 8
LATHE_1
 10
0
 20
0
 30
0
 70
128
 71
59
 72
60
 73
127
 74
126
 0
VERTEX
 8
LATHE_1
 10
0
 20
0
 30
0
 70
128
 71
60
 72
61
 73
128
 74
127
 0
VERTEX
 8
LATHE_1
 10
0
 20
0
 30
0
 70
128
 71
61
 72
62
 73
129
 74
128
 0
VERTEX
 8
LATHE_1
 10
0
 20
0
 30
0
 70
128
 71
62
 72
63
 73
130
 74
129
 0
VERTEX
 8
LATHE_1
 10
0
 20
0
 30
0
 70
128
 71
63
 72
64
 73
131
 74
130
 0
VERTEX
 8
LATHE_1
 10
0
 20
0
 30
0
 70
128
 71
64
 72
65
 73
132
 74
131
 0
VERTEX
 8
LATHE_1
 10
0
 20
0
 30
0
 70
128
 71
65
 72
66
 73
133
 74
132
 0
VERTEX
 8
LATHE_1
 10
0
 20
0
 30
0
 70
128
 71
66
 72
67
 73
134
 74
133
 0
VERTEX
 8
LATHE_1
 10
0
 20
0
 30
0
 70
128
 71
67
 72
1
 73
68
 74
134
 0
VERTEX
 8
LATHE_1
 10
0
 20
0
 30
0
 70
128
 71
68
 72
69
 73
136
 74
135
 0
VERTEX
 8
LATHE_1
 10
0
 20
0
 30
0
 70
128
 71
69
 72
70
 73
137
 74
136
 0
VERTEX
 8
LATHE_1
 10
0
 20
0
 30
0
 70
128
 71
70
 72
71
 73
138
 74
137
 0
VERTEX
 8
LATHE_1
 10
0
 20
0
 30
0
 70
128
 71
71
 72
72
 73
139
 74
138
 0
VERTEX
 8
LATHE_1
 10
0
 20
0
 30
0
 70
128
 71
72
 72
73
 73
140
 74
139
 0
VERTEX
 8
LATHE_1
 10
0
 20
0
 30
0
 70
128
 71
73
 72
74
 73
141
 74
140
 0
VERTEX
 8
LATHE_1
 10
0
 20
0
 30
0
 70
128
 71
74
 72
75
 73
142
 74
141
 0
VERTEX
 8
LATHE_1
 10
0
 20
0
 30
0
 70
128
 71
75
 72
76
 73
143
 74
142
 0
VERTEX
 8
LATHE_1
 10
0
 20
0
 30
0
 70
128
 71
76
 72
77
 73
144
 74
143
 0
VERTEX
 8
LATHE_1
 10
0
 20
0
 30
0
 70
128
 71
77
 72
78
 73
145
 74
144
 0
VERTEX
 8
LATHE_1
 10
0
 20
0
 30
0
 70
128
 71
78
 72
79
 73
146
 74
145
 0
VERTEX
 8
LATHE_1
 10
0
 20
0
 30
0
 70
128
 71
79
 72
80
 73
147
 74
146
 0
VERTEX
 8
LATHE_1
 10
0
 20
0
 30
0
 70
128
 71
80
 72
81
 73
148
 74
147
 0
VERTEX
 8
LATHE_1
 10
0
 20
0
 30
0
 70
128
 71
81
 72
82
 73
149
 74
148
 0
VERTEX
 8
LATHE_1
 10
0
 20
0
 30
0
 70
128
 71
82
 72
83
 73
150
 74
149
 0
VERTEX
 8
LATHE_1
 10
0
 20
0
 30
0
 70
128
 71
83
 72
84
 73
151
 74
150
 0
VERTEX
 8
LATHE_1
 10
0
 20
0
 30
0
 70
128
 71
84
 72
85
 73
152
 74
151
 0
VERTEX
 8
LATHE_1
 10
0
 20
0
 30
0
 70
128
 71
85
 72
86
 73
153
 74
152
 0
VERTEX
 8
LATHE_1
 10
0
 20
0
 30
0
 70
128
 71
86
 72
87
 73
154
 74
153
 0
VERTEX
 8
LATHE_1
 10
0
 20
0
 30
0
 70
128
 71
87
 72
88
 73
155
 74
154
 0
VERTEX
 8
LATHE_1
 10
0
 20
0
 30
0
 70
128
 71
88
 72
89
 73
156
 74
155
 0
VERTEX
 8
LATHE_1
 10
0
 20
0
 30
0
 70
128
 71
89
 72
90
 73
157
 74
156
 0
VERTEX
 8
LATHE_1
 10
0
 20
0
 30
0
 70
128
 71
90
 72
91
 73
158
 74
157
 0
VERTEX
 8
LATHE_1
 10
0
 20
0
 30
0
 70
128
 71
91
 72
92
 73
159
 74
158
 0
VERTEX
 8
LATHE_1
 10
0
 20
0
 30
0
 70
128
 71
92
 72
93
 73
160
 74
159
 0
VERTEX
 8
LATHE_1
 10
0
 20
0
 30
0
 70
128
 71
93
 72
94
 73
161
 74
160
 0
VERTEX
 8
LATHE_1
 10
0
 20
0
 30
0
 70
128
 71
94
 72
95
 73
162
 74
161
 0
VERTEX
 8
LATHE_1
 10
0
 20
0
 30
0
 70
128
 71
95
 72
96
 73
163
 74
162
 0
VERTEX
 8
LATHE_1
 10
0
 20
0
 30
0
 70
128
 71
96
 72
97
 73
164
 74
163
 0
VERTEX
 8
LATHE_1
 10
0
 20
0
 30
0
 70
128
 71
97
 72
98
 73
165
 74
164
 0
VERTEX
 8
LATHE_1
 10
0
 20
0
 30
0
 70
128
 71
98
 72
99
 73
166
 74
165
 0
VERTEX
 8
LATHE_1
 10
0
 20
0
 30
0
 70
128
 71
99
 72
100
 73
167
 74
166
 0
VERTEX
 8
LATHE_1
 10
0
 20
0
 30
0
 70
128
 71
100
 72
101
 73
168
 74
167
 0
VERTEX
 8
LATHE_1
 10
0
 20
0
 30
0
 70
128
 71
101
 72
102
 73
169
 74
168
 0
VERTEX
 8
LATHE_1
 10
0
 20
0
 30
0
 70
128
 71
102
 72
103
 73
170
 74
169
 0
VERTEX
 8
LATHE_1
 10
0
 20
0
 30
0
 70
128
 71
103
 72
104
 73
171
 74
170
 0
VERTEX
 8
LATHE_1
 10
0
 20
0
 30
0
 70
128
 71
104
 72
105
 73
172
 74
171
 0
VERTEX
 8
LATHE_1
 10
0
 20
0
 30
0
 70
128
 71
105
 72
106
 73
173
 74
172
 0
VERTEX
 8
LATHE_1
 10
0
 20
0
 30
0
 70
128
 71
106
 72
107
 73
174
 74
173
 0
VERTEX
 8
LATHE_1
 10
0
 20
0
 30
0
 70
128
 71
107
 72
108
 73
175
 74
174
 0
VERTEX
 8
LATHE_1
 10
0
 20
0
 30
0
 70
128
 71
108
 72
109
 73
176
 74
175
 0
VERTEX
 8
LATHE_1
 10
0
 20
0
 30
0
 70
128
 71
109
 72
110
 73
177
 74
176
 0
VERTEX
 8
LATHE_1
 10
0
 20
0
 30
0
 70
128
 71
110
 72
111
 73
178
 74
177
 0
VERTEX
 8
LATHE_1
 10
0
 20
0
 30
0
 70
128
 71
111
 72
112
 73
179
 74
178
 0
VERTEX
 8
LATHE_1
 10
0
 20
0
 30
0
 70
128
 71
112
 72
113
 73
180
 74
179
 0
VERTEX
 8
LATHE_1
 10
0
 20
0
 30
0
 70
128
 71
113
 72
114
 73
181
 74
180
 0
VERTEX
 8
LATHE_1
 10
0
 20
0
 30
0
 70
128
 71
114
 72
115
 73
182
 74
181
 0
VERTEX
 8
LATHE_1
 10
0
 20
0
 30
0
 70
128
 71
115
 72
116
 73
183
 74
182
 0
VERTEX
 8
LATHE_1
 10
0
 20
0
 30
0
 70
128
 71
116
 72
117
 73
184
 74
183
 0
VERTEX
 8
LATHE_1
 10
0
 20
0
 30
0
 70
128
 71
117
 72
118
 73
185
 74
184
 0
VERTEX
 8
LATHE_1
 10
0
 20
0
 30
0
 70
128
 71
118
 72
119
 73
186
 74
185
 0
VERTEX
 8
LATHE_1
 10
0
 20
0
 30
0
 70
128
 71
119
 72
120
 73
187
 74
186
 0
VERTEX
 8
LATHE_1
 10
0
 20
0
 30
0
 70
128
 71
120
 72
121
 73
188
 74
187
 0
VERTEX
 8
LATHE_1
 10
0
 20
0
 30
0
 70
128
 71
121
 72
122
 73
189
 74
188
 0
VERTEX
 8
LATHE_1
 10
0
 20
0
 30
0
 70
128
 71
122
 72
123
 73
190
 74
189
 0
VERTEX
 8
LATHE_1
 10
0
 20
0
 30
0
 70
128
 71
123
 72
124
 73
191
 74
190
 0
VERTEX
 8
LATHE_1
 10
0
 20
0
 30
0
 70
128
 71
124
 72
125
 73
192
 74
191
 0
VERTEX
 8
LATHE_1
 10
0
 20
0
 30
0
 70
128
 71
125
 72
126
 73
193
 74
192
 0
VERTEX
 8
LATHE_1
 10
0
 20
0
 30
0
 70
128
 71
126
 72
127
 73
194
 74
193
 0
VERTEX
 8
LATHE_1
 10
0
 20
0
 30
0
 70
128
 71
127
 72
128
 73
195
 74
194
 0
VERTEX
 8
LATHE_1
 10
0
 20
0
 30
0
 70
128
 71
128
 72
129
 73
196
 74
195
 0
VERTEX
 8
LATHE_1
 10
0
 20
0
 30
0
 70
128
 71
129
 72
130
 73
197
 74
196
 0
VERTEX
 8
LATHE_1
 10
0
 20
0
 30
0
 70
128
 71
130
 72
131
 73
198
 74
197
 0
VERTEX
 8
LATHE_1
 10
0
 20
0
 30
0
 70
128
 71
131
 72
132
 73
199
 74
198
 0
VERTEX
 8
LATHE_1
 10
0
 20
0
 30
0
 70
128
 71
132
 72
133
 73
200
 74
199
 0
VERTEX
 8
LATHE_1
 10
0
 20
0
 30
0
 70
128
 71
133
 72
134
 73
201
 74
200
 0
VERTEX
 8
LATHE_1
 10
0
 20
0
 30
0
 70
128
 71
134
 72
68
 73
135
 74
201
 0
VERTEX
 8
LATHE_1
 10
0
 20
0
 30
0
 70
128
 71
135
 72
136
 73
203
 74
202
 0
VERTEX
 8
LATHE_1
 10
0
 20
0
 30
0
 70
128
 71
136
 72
137
 73
204
 74
203
 0
VERTEX
 8
LATHE_1
 10
0
 20
0
 30
0
 70
128
 71
137
 72
138
 73
205
 74
204
 0
VERTEX
 8
LATHE_1
 10
0
 20
0
 30
0
 70
128
 71
138
 72
139
 73
206
 74
205
 0
VERTEX
 8
LATHE_1
 10
0
 20
0
 30
0
 70
128
 71
139
 72
140
 73
207
 74
206
 0
VERTEX
 8
LATHE_1
 10
0
 20
0
 30
0
 70
128
 71
140
 72
141
 73
208
 74
207
 0
VERTEX
 8
LATHE_1
 10
0
 20
0
 30
0
 70
128
 71
141
 72
142
 73
209
 74
208
 0
VERTEX
 8
LATHE_1
 10
0
 20
0
 30
0
 70
128
 71
142
 72
143
 73
210
 74
209
 0
VERTEX
 8
LATHE_1
 10
0
 20
0
 30
0
 70
128
 71
143
 72
144
 73
211
 74
210
 0
VERTEX
 8
LATHE_1
 10
0
 20
0
 30
0
 70
128
 71
144
 72
145
 73
212
 74
211
 0
VERTEX
 8
LATHE_1
 10
0
 20
0
 30
0
 70
128
 71
145
 72
146
 73
213
 74
212
 0
VERTEX
 8
LATHE_1
 10
0
 20
0
 30
0
 70
128
 71
146
 72
147
 73
214
 74
213
 0
VERTEX
 8
LATHE_1
 10
0
 20
0
 30
0
 70
128
 71
147
 72
148
 73
215
 74
214
 0
VERTEX
 8
LATHE_1
 10
0
 20
0
 30
0
 70
128
 71
148
 72
149
 73
216
 74
215
 0
VERTEX
 8
LATHE_1
 10
0
 20
0
 30
0
 70
128
 71
149
 72
150
 73
217
 74
216
 0
VERTEX
 8
LATHE_1
 10
0
 20
0
 30
0
 70
128
 71
150
 72
151
 73
218
 74
217
 0
VERTEX
 8
LATHE_1
 10
0
 20
0
 30
0
 70
128
 71
151
 72
152
 73
219
 74
218
 0
VERTEX
 8
LATHE_1
 10
0
 20
0
 30
0
 70
128
 71
152
 72
153
 73
220
 74
219
 0
VERTEX
 8
LATHE_1
 10
0
 20
0
 30
0
 70
128
 71
153
 72
154
 73
221
 74
220
 0
VERTEX
 8
LATHE_1
 10
0
 20
0
 30
0
 70
128
 71
154
 72
155
 73
222
 74
221
 0
VERTEX
 8
LATHE_1
 10
0
 20
0
 30
0
 70
128
 71
155
 72
156
 73
223
 74
222
 0
VERTEX
 8
LATHE_1
 10
0
 20
0
 30
0
 70
128
 71
156
 72
157
 73
224
 74
223
 0
VERTEX
 8
LATHE_1
 10
0
 20
0
 30
0
 70
128
 71
157
 72
158
 73
225
 74
224
 0
VERTEX
 8
LATHE_1
 10
0
 20
0
 30
0
 70
128
 71
158
 72
159
 73
226
 74
225
 0
VERTEX
 8
LATHE_1
 10
0
 20
0
 30
0
 70
128
 71
159
 72
160
 73
227
 74
226
 0
VERTEX
 8
LATHE_1
 10
0
 20
0
 30
0
 70
128
 71
160
 72
161
 73
228
 74
227
 0
VERTEX
 8
LATHE_1
 10
0
 20
0
 30
0
 70
128
 71
161
 72
162
 73
229
 74
228
 0
VERTEX
 8
LATHE_1
 10
0
 20
0
 30
0
 70
128
 71
162
 72
163
 73
230
 74
229
 0
VERTEX
 8
LATHE_1
 10
0
 20
0
 30
0
 70
128
 71
163
 72
164
 73
231
 74
230
 0
VERTEX
 8
LATHE_1
 10
0
 20
0
 30
0
 70
128
 71
164
 72
165
 73
232
 74
231
 0
VERTEX
 8
LATHE_1
 10
0
 20
0
 30
0
 70
128
 71
165
 72
166
 73
233
 74
232
 0
VERTEX
 8
LATHE_1
 10
0
 20
0
 30
0
 70
128
 71
166
 72
167
 73
234
 74
233
 0
VERTEX
 8
LATHE_1
 10
0
 20
0
 30
0
 70
128
 71
167
 72
168
 73
235
 74
234
 0
VERTEX
 8
LATHE_1
 10
0
 20
0
 30
0
 70
128
 71
168
 72
169
 73
236
 74
235
 0
VERTEX
 8
LATHE_1
 10
0
 20
0
 30
0
 70
128
 71
169
 72
170
 73
237
 74
236
 0
VERTEX
 8
LATHE_1
 10
0
 20
0
 30
0
 70
128
 71
170
 72
171
 73
238
 74
237
 0
VERTEX
 8
LATHE_1
 10
0
 20
0
 30
0
 70
128
 71
171
 72
172
 73
239
 74
238
 0
VERTEX
 8
LATHE_1
 10
0
 20
0
 30
0
 70
128
 71
172
 72
173
 73
240
 74
239
 0
VERTEX
 8
LATHE_1
 10
0
 20
0
 30
0
 70
128
 71
173
 72
174
 73
241
 74
240
 0
VERTEX
 8
LATHE_1
 10
0
 20
0
 30
0
 70
128
 71
174
 72
175
 73
242
 74
241
 0
VERTEX
 8
LATHE_1
 10
0
 20
0
 30
0
 70
128
 71
175
 72
176
 73
243
 74
242
 0
VERTEX
 8
LATHE_1
 10
0
 20
0
 30
0
 70
128
 71
176
 72
177
 73
244
 74
243
 0
VERTEX
 8
LATHE_1
 10
0
 20
0
 30
0
 70
128
 71
177
 72
178
 73
245
 74
244
 0
VERTEX
 8
LATHE_1
 10
0
 20
0
 30
0
 70
128
 71
178
 72
179
 73
246
 74
245
 0
VERTEX
 8
LATHE_1
 10
0
 20
0
 30
0
 70
128
 71
179
 72
180
 73
247
 74
246
 0
VERTEX
 8
LATHE_1
 10
0
 20
0
 30
0
 70
128
 71
180
 72
181
 73
248
 74
247
 0
VERTEX
 8
LATHE_1
 10
0
 20
0
 30
0
 70
128
 71
181
 72
182
 73
249
 74
248
 0
VERTEX
 8
LATHE_1
 10
0
 20
0
 30
0
 70
128
 71
182
 72
183
 73
250
 74
249
 0
VERTEX
 8
LATHE_1
 10
0
 20
0
 30
0
 70
128
 71
183
 72
184
 73
251
 74
250
 0
VERTEX
 8
LATHE_1
 10
0
 20
0
 30
0
 70
128
 71
184
 72
185
 73
252
 74
251
 0
VERTEX
 8
LATHE_1
 10
0
 20
0
 30
0
 70
128
 71
185
 72
186
 73
253
 74
252
 0
VERTEX
 8
LATHE_1
 10
0
 20
0
 30
0
 70
128
 71
186
 72
187
 73
254
 74
253
 0
VERTEX
 8
LATHE_1
 10
0
 20
0
 30
0
 70
128
 71
187
 72
188
 73
255
 74
254
 0
VERTEX
 8
LATHE_1
 10
0
 20
0
 30
0
 70
128
 71
188
 72
189
 73
256
 74
255
 0
VERTEX
 8
LATHE_1
 10
0
 20
0
 30
0
 70
128
 71
189
 72
190
 73
257
 74
256
 0
VERTEX
 8
LATHE_1
 10
0
 20
0
 30
0
 70
128
 71
190
 72
191
 73
258
 74
257
 0
VERTEX
 8
LATHE_1
 10
0
 20
0
 30
0
 70
128
 71
191
 72
192
 73
259
 74
258
 0
VERTEX
 8
LATHE_1
 10
0
 20
0
 30
0
 70
128
 71
192
 72
193
 73
260
 74
259
 0
VERTEX
 8
LATHE_1
 10
0
 20
0
 30
0
 70
128
 71
193
 72
194
 73
261
 74
260
 0
VERTEX
 8
LATHE_1
 10
0
 20
0
 30
0
 70
128
 71
194
 72
195
 73
262
 74
261
 0
VERTEX
 8
LATHE_1
 10
0
 20
0
 30
0
 70
128
 71
195
 72
196
 73
263
 74
262
 0
VERTEX
 8
LATHE_1
 10
0
 20
0
 30
0
 70
128
 71
196
 72
197
 73
264
 74
263
 0
VERTEX
 8
LATHE_1
 10
0
 20
0
 30
0
 70
128
 71
197
 72
198
 73
265
 74
264
 0
VERTEX
 8
LATHE_1
 10
0
 20
0
 30
0
 70
128
 71
198
 72
199
 73
266
 74
265
 0
VERTEX
 8
LATHE_1
 10
0
 20
0
 30
0
 70
128
 71
199
 72
200
 73
267
 74
266
 0
VERTEX
 8
LATHE_1
 10
0
 20
0
 30
0
 70
128
 71
200
 72
201
 73
268
 74
267
 0
VERTEX
 8
LATHE_1
 10
0
 20
0
 30
0
 70
128
 71
201
 72
135
 73
202
 74
268
 0
VERTEX
 8
LATHE_1
 10
0
 20
0
 30
0
 70
128
 71
202
 72
203
 73
2
 74
1
 0
VERTEX
 8
LATHE_1
 10
0
 20
0
 30
0
 70
128
 71
203
 72
204
 73
3
 74
2
 0
VERTEX
 8
LATHE_1
 10
0
 20
0
 30
0
 70
128
 71
204
 72
205
 73
4
 74
3
 0
VERTEX
 8
LATHE_1
 10
0
 20
0
 30
0
 70
128
 71
205
 72
206
 73
5
 74
4
 0
VERTEX
 8
LATHE_1
 10
0
 20
0
 30
0
 70
128
 71
206
 72
207
 73
6
 74
5
 0
VERTEX
 8
LATHE_1
 10
0
 20
0
 30
0
 70
128
 71
207
 72
208
 73
7
 74
6
 0
VERTEX
 8
LATHE_1
 10
0
 20
0
 30
0
 70
128
 71
208
 72
209
 73
8
 74
7
 0
VERTEX
 8
LATHE_1
 10
0
 20
0
 30
0
 70
128
 71
209
 72
210
 73
9
 74
8
 0
VERTEX
 8
LATHE_1
 10
0
 20
0
 30
0
 70
128
 71
210
 72
211
 73
10
 74
9
 0
VERTEX
 8
LATHE_1
 10
0
 20
0
 30
0
 70
128
 71
211
 72
212
 73
11
 74
10
 0
VERTEX
 8
LATHE_1
 10
0
 20
0
 30
0
 70
128
 71
212
 72
213
 73
12
 74
11
 0
VERTEX
 8
LATHE_1
 10
0
 20
0
 30
0
 70
128
 71
213
 72
214
 73
13
 74
12
 0
VERTEX
 8
LATHE_1
 10
0
 20
0
 30
0
 70
128
 71
214
 72
215
 73
14
 74
13
 0
VERTEX
 8
LATHE_1
 10
0
 20
0
 30
0
 70
128
 71
215
 72
216
 73
15
 74
14
 0
VERTEX
 8
LATHE_1
 10
0
 20
0
 30
0
 70
128
 71
216
 72
217
 73
16
 74
15
 0
VERTEX
 8
LATHE_1
 10
0
 20
0
 30
0
 70
128
 71
217
 72
218
 73
17
 74
16
 0
VERTEX
 8
LATHE_1
 10
0
 20
0
 30
0
 70
128
 71
218
 72
219
 73
18
 74
17
 0
VERTEX
 8
LATHE_1
 10
0
 20
0
 30
0
 70
128
 71
219
 72
220
 73
19
 74
18
 0
VERTEX
 8
LATHE_1
 10
0
 20
0
 30
0
 70
128
 71
220
 72
221
 73
20
 74
19
 0
VERTEX
 8
LATHE_1
 10
0
 20
0
 30
0
 70
128
 71
221
 72
222
 73
21
 74
20
 0
VERTEX
 8
LATHE_1
 10
0
 20
0
 30
0
 70
128
 71
222
 72
223
 73
22
 74
21
 0
VERTEX
 8
LATHE_1
 10
0
 20
0
 30
0
 70
128
 71
223
 72
224
 73
23
 74
22
 0
VERTEX
 8
LATHE_1
 10
0
 20
0
 30
0
 70
128
 71
224
 72
225
 73
24
 74
23
 0
VERTEX
 8
LATHE_1
 10
0
 20
0
 30
0
 70
128
 71
225
 72
226
 73
25
 74
24
 0
VERTEX
 8
LATHE_1
 10
0
 20
0
 30
0
 70
128
 71
226
 72
227
 73
26
 74
25
 0
VERTEX
 8
LATHE_1
 10
0
 20
0
 30
0
 70
128
 71
227
 72
228
 73
27
 74
26
 0
VERTEX
 8
LATHE_1
 10
0
 20
0
 30
0
 70
128
 71
228
 72
229
 73
28
 74
27
 0
VERTEX
 8
LATHE_1
 10
0
 20
0
 30
0
 70
128
 71
229
 72
230
 73
29
 74
28
 0
VERTEX
 8
LATHE_1
 10
0
 20
0
 30
0
 70
128
 71
230
 72
231
 73
30
 74
29
 0
VERTEX
 8
LATHE_1
 10
0
 20
0
 30
0
 70
128
 71
231
 72
232
 73
31
 74
30
 0
VERTEX
 8
LATHE_1
 10
0
 20
0
 30
0
 70
128
 71
232
 72
233
 73
32
 74
31
 0
VERTEX
 8
LATHE_1
 10
0
 20
0
 30
0
 70
128
 71
233
 72
234
 73
33
 74
32
 0
VERTEX
 8
LATHE_1
 10
0
 20
0
 30
0
 70
128
 71
234
 72
235
 73
34
 74
33
 0
VERTEX
 8
LATHE_1
 10
0
 20
0
 30
0
 70
128
 71
235
 72
236
 73
35
 74
34
 0
VERTEX
 8
LATHE_1
 10
0
 20
0
 30
0
 70
128
 71
236
 72
237
 73
36
 74
35
 0
VERTEX
 8
LATHE_1
 10
0
 20
0
 30
0
 70
128
 71
237
 72
238
 73
37
 74
36
 0
VERTEX
 8
LATHE_1
 10
0
 20
0
 30
0
 70
128
 71
238
 72
239
 73
38
 74
37
 0
VERTEX
 8
LATHE_1
 10
0
 20
0
 30
0
 70
128
 71
239
 72
240
 73
39
 74
38
 0
VERTEX
 8
LATHE_1
 10
0
 20
0
 30
0
 70
128
 71
240
 72
241
 73
40
 74
39
 0
VERTEX
 8
LATHE_1
 10
0
 20
0
 30
0
 70
128
 71
241
 72
242
 73
41
 74
40
 0
VERTEX
 8
LATHE_1
 10
0
 20
0
 30
0
 70
128
 71
242
 72
243
 73
42
 74
41
 0
VERTEX
 8
LATHE_1
 10
0
 20
0
 30
0
 70
128
 71
243
 72
244
 73
43
 74
42
 0
VERTEX
 8
LATHE_1
 10
0
 20
0
 30
0
 70
128
 71
244
 72
245
 73
44
 74
43
 0
VERTEX
 8
LATHE_1
 10
0
 20
0
 30
0
 70
128
 71
245
 72
246
 73
45
 74
44
 0
VERTEX
 8
LATHE_1
 10
0
 20
0
 30
0
 70
128
 71
246
 72
247
 73
46
 74
45
 0
VERTEX
 8
LATHE_1
 10
0
 20
0
 30
0
 70
128
 71
247
 72
248
 73
47
 74
46
 0
VERTEX
 8
LATHE_1
 10
0
 20
0
 30
0
 70
128
 71
248
 72
249
 73
48
 74
47
 0
VERTEX
 8
LATHE_1
 10
0
 20
0
 30
0
 70
128
 71
249
 72
250
 73
49
 74
48
 0
VERTEX
 8
LATHE_1
 10
0
 20
0
 30
0
 70
128
 71
250
 72
251
 73
50
 74
49
 0
VERTEX
 8
LATHE_1
 10
0
 20
0
 30
0
 70
128
 71
251
 72
252
 73
51
 74
50
 0
VERTEX
 8
LATHE_1
 10
0
 20
0
 30
0
 70
128
 71
252
 72
253
 73
52
 74
51
 0
VERTEX
 8
LATHE_1
 10
0
 20
0
 30
0
 70
128
 71
253
 72
254
 73
53
 74
52
 0
VERTEX
 8
LATHE_1
 10
0
 20
0
 30
0
 70
128
 71
254
 72
255
 73
54
 74
53
 0
VERTEX
 8
LATHE_1
 10
0
 20
0
 30
0
 70
128
 71
255
 72
256
 73
55
 74
54
 0
VERTEX
 8
LATHE_1
 10
0
 20
0
 30
0
 70
128
 71
256
 72
257
 73
56
 74
55
 0
VERTEX
 8
LATHE_1
 10
0
 20
0
 30
0
 70
128
 71
257
 72
258
 73
57
 74
56
 0
VERTEX
 8
LATHE_1
 10
0
 20
0
 30
0
 70
128
 71
258
 72
259
 73
58
 74
57
 0
VERTEX
 8
LATHE_1
 10
0
 20
0
 30
0
 70
128
 71
259
 72
260
 73
59
 74
58
 0
VERTEX
 8
LATHE_1
 10
0
 20
0
 30
0
 70
128
 71
260
 72
261
 73
60
 74
59
 0
VERTEX
 8
LATHE_1
 10
0
 20
0
 30
0
 70
128
 71
261
 72
262
 73
61
 74
60
 0
VERTEX
 8
LATHE_1
 10
0
 20
0
 30
0
 70
128
 71
262
 72
263
 73
62
 74
61
 0
VERTEX
 8
LATHE_1
 10
0
 20
0
 30
0
 70
128
 71
263
 72
264
 73
63
 74
62
 0
VERTEX
 8
LATHE_1
 10
0
 20
0
 30
0
 70
128
 71
264
 72
265
 73
64
 74
63
 0
VERTEX
 8
LATHE_1
 10
0
 20
0
 30
0
 70
128
 71
265
 72
266
 73
65
 74
64
 0
VERTEX
 8
LATHE_1
 10
0
 20
0
 30
0
 70
128
 71
266
 72
267
 73
66
 74
65
 0
VERTEX
 8
LATHE_1
 10
0
 20
0
 30
0
 70
128
 71
267
 72
268
 73
67
 74
66
 0
VERTEX
 8
LATHE_1
 10
0
 20
0
 30
0
 70
128
 71
268
 72
202
 73
1
 74
67
 0
SEQEND
 0
POLYLINE
 8
EXTRUDE
 66
1
 10
0.0
 20
0.0
 30
0.0
 70
64
 71
136
 72
68
 0
VERTEX
 8
EXTRUDE
 10
-0.0011
 20
-0.0958
 30
-0.0253
 70
192
 0
VERTEX
 8
EXTRUDE
 10
0.002
 20
-0.0991
 30
-0.0239
 70
192
 0
VERTEX
 8
EXTRUDE
 10
0.009
 20
-0.1066
 30
-0.0216
 70
192
 0
VERTEX
 8
EXTRUDE
 10
0.016
 20
-0.1142
 30
-0.0204
 70
192
 0
VERTEX
 8
EXTRUDE
 10
0.0243
 20
-0.1231
 30
-0.0202
 70
192
 0
VERTEX
 8
EXTRUDE
 10
0.0316
 20
-0.131
 30
-0.0211
 70
192
 0
VERTEX
 8
EXTRUDE
 10
0.0394
 20
-0.1394
 30
-0.0233
 70
192
 0
VERTEX
 8
EXTRUDE
 10
0.0455
 20
-0.1459
 30
-0.026
 70
192
 0
VERTEX
 8
EXTRUDE
 10
0.0517
 20
-0.1525
 30
-0.0298
 70
192
 0
VERTEX
 8
EXTRUDE
 10
0.0579
 20
-0.1592
 30
-0.0347
 70
192
 0
VERTEX
 8
EXTRUDE
 10
0.0641
 20
-0.1658
 30
-0.041
 70
192
 0
VERTEX
 8
EXTRUDE
 10
0.0681
 20
-0.1702
 30
-0.0459
 70
192
 0
VERTEX
 8
EXTRUDE
 10
0.0741
 20
-0.1766
 30
-0.0546
 70
192
 0
VERTEX
 8
EXTRUDE
 10
0.0742
 20
-0.1767
 30
-0.0546
 70
192
 0
VERTEX
 8
EXTRUDE
 10
0.0746
 20
-0.1772
 30
-0.0543
 70
192
 0
VERTEX
 8
EXTRUDE
 10
0.081
 20
-0.1845
 30
-0.05
 70
192
 0
VERTEX
 8
EXTRUDE
 10
0.0851
 20
-0.1893
 30
-0.0481
 70
192
 0
VERTEX
 8
EXTRUDE
 10
0.0901
 20
-0.195
 30
-0.0465
 70
192
 0
VERTEX
 8
EXTRUDE
 10
0.0943
 20
-0.1997
 30
-0.0459
 70
192
 0
VERTEX
 8
EXTRUDE
 10
0.0989
 20
-0.2047
 30
-0.0459
 70
192
 0
VERTEX
 8
EXTRUDE
 10
0.1037
 20
-0.21
 30
-0.0468
 70
192
 0
VERTEX
 8
EXTRUDE
 10
0.1088
 20
-0.2155
 30
-0.0486
 70
192
 0
VERTEX
 8
EXTRUDE
 10
0.1124
 20
-0.2193
 30
-0.0505
 70
192
 0
VERTEX
 8
EXTRUDE
 10
0.116
 20
-0.2231
 30
-0.0529
 70
192
 0
VERTEX
 8
EXTRUDE
 10
0.1215
 20
-0.2289
 30
-0.0578
 70
192
 0
VERTEX
 8
EXTRUDE
 10
0.1271
 20
-0.2347
 30
-0.0642
 70
192
 0
VERTEX
 8
EXTRUDE
 10
0.1328
 20
-0.2404
 30
-0.0724
 70
192
 0
VERTEX
 8
EXTRUDE
 10
0.1366
 20
-0.2442
 30
-0.0789
 70
192
 0
VERTEX
 8
EXTRUDE
 10
0.1404
 20
-0.2478
 30
-0.0864
 70
192
 0
VERTEX
 8
EXTRUDE
 10
0.1459
 20
-0.2538
 30
-0.0846
 70
192
 0
VERTEX
 8
EXTRUDE
 10
0.1543
 20
-0.2628
 30
-0.083
 70
192
 0
VERTEX
 8
EXTRUDE
 10
0.1632
 20
-0.2724
 30
-0.0826
 70
192
 0
VERTEX
 8
EXTRUDE
 10
0.1709
 20
-0.2807
 30
-0.0834
 70
192
 0
VERTEX
 8
EXTRUDE
 10
0.1769
 20
-0.287
 30
-0.085
 70
192
 0
VERTEX
 8
EXTRUDE
 10
0.1827
 20
-0.2933
 30
-0.0876
 70
192
 0
VERTEX
 8
EXTRUDE
 10
0.1865
 20
-0.2974
 30
-0.0899
 70
192
 0
VERTEX
 8
EXTRUDE
 10
0.1901
 20
-0.3013
 30
-0.0929
 70
192
 0
VERTEX
 8
EXTRUDE
 10
0.1936
 20
-0.305
 30
-0.0965
 70
192
 0
VERTEX
 8
EXTRUDE
 10
0.1967
 20
-0.3084
 30
-0.1007
 70
192
 0
VERTEX
 8
EXTRUDE
 10
0.1996
 20
-0.3115
 30
-0.1058
 70
192
 0
VERTEX
 8
EXTRUDE
 10
0.2022
 20
-0.3142
 30
-0.1115
 70
192
 0
VERTEX
 8
EXTRUDE
 10
0.2043
 20
-0.3165
 30
-0.1182
 70
192
 0
VERTEX
 8
EXTRUDE
 10
0.206
 20
-0.3183
 30
-0.1257
 70
192
 0
VERTEX
 8
EXTRUDE
 10
0.2072
 20
-0.3196
 30
-0.1342
 70
192
 0
VERTEX
 8
EXTRUDE
 10
0.2079
 20
-0.3204
 30
-0.1436
 70
192
 0
VERTEX
 8
EXTRUDE
 10
0.2077
 20
-0.3201
 30
-0.1433
 70
192
 0
VERTEX
 8
EXTRUDE
 10
0.2073
 20
-0.3197
 30
-0.1431
 70
192
 0
VERTEX
 8
EXTRUDE
 10
0.2067
 20
-0.3191
 30
-0.1428
 70
192
 0
VERTEX
 8
EXTRUDE
 10
0.2051
 20
-0.3174
 30
-0.1424
 70
192
 0
VERTEX
 8
EXTRUDE
 10
0.1628
 20
-0.2719
 30
-0.1413
 70
192
 0
VERTEX
 8
EXTRUDE
 10
0.1287
 20
-0.2353
 30
-0.1424
 70
192
 0
VERTEX
 8
EXTRUDE
 10
0.1287
 20
-0.2352
 30
-0.142
 70
192
 0
VERTEX
 8
EXTRUDE
 10
0.1285
 20
-0.2351
 30
-0.1409
 70
192
 0
VERTEX
 8
EXTRUDE
 10
0.1282
 20
-0.2347
 30
-0.1397
 70
192
 0
VERTEX
 8
EXTRUDE
 10
0.1277
 20
-0.2342
 30
-0.1382
 70
192
 0
VERTEX
 8
EXTRUDE
 10
0.1272
 20
-0.2337
 30
-0.137
 70
192
 0
VERTEX
 8
EXTRUDE
 10
0.1265
 20
-0.2329
 30
-0.1357
 70
192
 0
VERTEX
 8
EXTRUDE
 10
0.1257
 20
-0.232
 30
-0.1344
 70
192
 0
VERTEX
 8
EXTRUDE
 10
0.1246
 20
-0.2309
 30
-0.1332
 70
192
 0
VERTEX
 8
EXTRUDE
 10
0.1234
 20
-0.2296
 30
-0.132
 70
192
 0
VERTEX
 8
EXTRUDE
 10
0.1219
 20
-0.228
 30
-0.1309
 70
192
 0
VERTEX
 8
EXTRUDE
 10
0.1202
 20
-0.2262
 30
-0.1299
 70
192
 0
VERTEX
 8
EXTRUDE
 10
0.1183
 20
-0.2241
 30
-0.1291
 70
192
 0
VERTEX
 8
EXTRUDE
 10
0.116
 20
-0.2216
 30
-0.1285
 70
192
 0
VERTEX
 8
EXTRUDE
 10
0.1143
 20
-0.2199
 30
-0.1283
 70
192
 0
VERTEX
 8
EXTRUDE
 10
0.1116
 20
-0.2169
 30
-0.1281
 70
192
 0
VERTEX
 8
EXTRUDE
 10
-0.0011
 20
-0.0958
 30
-0.1245
 70
192
 0
VERTEX
 8
EXTRUDE
 10
-0.0011
 20
-0.0958
 30
-0.0277
 70
192
 0
VERTEX
 8
EXTRUDE
 10
0.1014
 20
-0.0004
 30
-0.0253
 70
192
 0
VERTEX
 8
EXTRUDE
 10
0.1044
 20
-0.0037
 30
-0.0239
 70
192
 0
VERTEX
 8
EXTRUDE
 10
0.1115
 20
-0.0113
 30
-0.0216
 70
192
 0
VERTEX
 8
EXTRUDE
 10
0.1185
 20
-0.0188
 30
-0.0204
 70
192
 0
VERTEX
 8
EXTRUDE
 10
0.1267
 20
-0.0277
 30
-0.0202
 70
192
 0
VERTEX
 8
EXTRUDE
 10
0.1341
 20
-0.0356
 30
-0.0211
 70
192
 0
VERTEX
 8
EXTRUDE
 10
0.1419
 20
-0.044
 30
-0.0233
 70
192
 0
VERTEX
 8
EXTRUDE
 10
0.148
 20
-0.0505
 30
-0.026
 70
192
 0
VERTEX
 8
EXTRUDE
 10
0.1542
 20
-0.0571
 30
-0.0298
 70
192
 0
VERTEX
 8
EXTRUDE
 10
0.1604
 20
-0.0638
 30
-0.0347
 70
192
 0
VERTEX
 8
EXTRUDE
 10
0.1666
 20
-0.0705
 30
-0.041
 70
192
 0
VERTEX
 8
EXTRUDE
 10
0.1706
 20
-0.0748
 30
-0.0459
 70
192
 0
VERTEX
 8
EXTRUDE
 10
0.1766
 20
-0.0812
 30
-0.0546
 70
192
 0
VERTEX
 8
EXTRUDE
 10
0.1767
 20
-0.0814
 30
-0.0546
 70
192
 0
VERTEX
 8
EXTRUDE
 10
0.1771
 20
-0.0819
 30
-0.0543
 70
192
 0
VERTEX
 8
EXTRUDE
 10
0.1834
 20
-0.0891
 30
-0.05
 70
192
 0
VERTEX
 8
EXTRUDE
 10
0.1876
 20
-0.0939
 30
-0.0481
 70
192
 0
VERTEX
 8
EXTRUDE
 10
0.1926
 20
-0.0996
 30
-0.0465
 70
192
 0
VERTEX
 8
EXTRUDE
 10
0.1968
 20
-0.1043
 30
-0.0459
 70
192
 0
VERTEX
 8
EXTRUDE
 10
0.2014
 20
-0.1093
 30
-0.0459
 70
192
 0
VERTEX
 8
EXTRUDE
 10
0.2062
 20
-0.1146
 30
-0.0468
 70
192
 0
VERTEX
 8
EXTRUDE
 10
0.2113
 20
-0.1202
 30
-0.0486
 70
192
 0
VERTEX
 8
EXTRUDE
 10
0.2148
 20
-0.1239
 30
-0.0505
 70
192
 0
VERTEX
 8
EXTRUDE
 10
0.2184
 20
-0.1278
 30
-0.0529
 70
192
 0
VERTEX
 8
EXTRUDE
 10
0.224
 20
-0.1335
 30
-0.0578
 70
192
 0
VERTEX
 8
EXTRUDE
 10
0.2296
 20
-0.1393
 30
-0.0642
 70
192
 0
VERTEX
 8
EXTRUDE
 10
0.2353
 20
-0.145
 30
-0.0724
 70
192
 0
VERTEX
 8
EXTRUDE
 10
0.2391
 20
-0.1488
 30
-0.0789
 70
192
 0
VERTEX
 8
EXTRUDE
 10
0.2429
 20
-0.1525
 30
-0.0864
 70
192
 0
VERTEX
 8
EXTRUDE
 10
0.2484
 20
-0.1584
 30
-0.0846
 70
192
 0
VERTEX
 8
EXTRUDE
 10
0.2568
 20
-0.1675
 30
-0.083
 70
192
 0
VERTEX
 8
EXTRUDE
 10
0.2657
 20
-0.177
 30
-0.0826
 70
192
 0
VERTEX
 8
EXTRUDE
 10
0.2734
 20
-0.1853
 30
-0.0834
 70
192
 0
VERTEX
 8
EXTRUDE
 10
0.2793
 20
-0.1917
 30
-0.085
 70
192
 0
VERTEX
 8
EXTRUDE
 10
0.2852
 20
-0.1979
 30
-0.0876
 70
192
 0
VERTEX
 8
EXTRUDE
 10
0.289
 20
-0.202
 30
-0.0899
 70
192
 0
VERTEX
 8
EXTRUDE
 10
0.2926
 20
-0.2059
 30
-0.0929
 70
192
 0
VERTEX
 8
EXTRUDE
 10
0.296
 20
-0.2096
 30
-0.0965
 70
192
 0
VERTEX
 8
EXTRUDE
 10
0.2992
 20
-0.213
 30
-0.1007
 70
192
 0
VERTEX
 8
EXTRUDE
 10
0.3021
 20
-0.2161
 30
-0.1058
 70
192
 0
VERTEX
 8
EXTRUDE
 10
0.3046
 20
-0.2188
 30
-0.1115
 70
192
 0
VERTEX
 8
EXTRUDE
 10
0.3068
 20
-0.2211
 30
-0.1182
 70
192
 0
VERTEX
 8
EXTRUDE
 10
0.3085
 20
-0.223
 30
-0.1257
 70
192
 0
VERTEX
 8
EXTRUDE
 10
0.3097
 20
-0.2243
 30
-0.1342
 70
192
 0
VERTEX
 8
EXTRUDE
 10
0.3104
 20
-0.225
 30
-0.1436
 70
192
 0
VERTEX
 8
EXTRUDE
 10
0.3102
 20
-0.2248
 30
-0.1433
 70
192
 0
VERTEX
 8
EXTRUDE
 10
0.3098
 20
-0.2243
 30
-0.1431
 70
192
 0
VERTEX
 8
EXTRUDE
 10
0.3092
 20
-0.2237
 30
-0.1428
 70
192
 0
VERTEX
 8
EXTRUDE
 10
0.3076
 20
-0.222
 30
-0.1424
 70
192
 0
VERTEX
 8
EXTRUDE
 10
0.2653
 20
-0.1766
 30
-0.1413
 70
192
 0
VERTEX
 8
EXTRUDE
 10
0.2312
 20
-0.1399
 30
-0.1424
 70
192
 0
VERTEX
 8
EXTRUDE
 10
0.2311
 20
-0.1399
 30
-0.142
 70
192
 0
VERTEX
 8
EXTRUDE
 10
0.231
 20
-0.1397
 30
-0.1409
 70
192
 0
VERTEX
 8
EXTRUDE
 10
0.2307
 20
-0.1394
 30
-0.1397
 70
192
 0
VERTEX
 8
EXTRUDE
 10
0.2302
 20
-0.1388
 30
-0.1382
 70
192
 0
VERTEX
 8
EXTRUDE
 10
0.2297
 20
-0.1383
 30
-0.137
 70
192
 0
VERTEX
 8
EXTRUDE
 10
0.229
 20
-0.1376
 30
-0.1357
 70
192
 0
VERTEX
 8
EXTRUDE
 10
0.2282
 20
-0.1367
 30
-0.1344
 70
192
 0
VERTEX
 8
EXTRUDE
 10
0.2271
 20
-0.1356
 30
-0.1332
 70
192
 0
VERTEX
 8
EXTRUDE
 10
0.2259
 20
-0.1342
 30
-0.132
 70
192
 0
VERTEX
 8
EXTRUDE
 10
0.2244
 20
-0.1327
 30
-0.1309
 70
192
 0
VERTEX
 8
EXTRUDE
 10
0.2227
 20
-0.1308
 30
-0.1299
 70
192
 0
VERTEX
 8
EXTRUDE
 10
0.2208
 20
-0.1287
 30
-0.1291
 70
192
 0
VERTEX
 8
EXTRUDE
 10
0.2185
 20
-0.1263
 30
-0.1285
 70
192
 0
VERTEX
 8
EXTRUDE
 10
0.2168
 20
-0.1245
 30
-0.1283
 70
192
 0
VERTEX
 8
EXTRUDE
 10
0.214
 20
-0.1215
 30
-0.1281
 70
192
 0
VERTEX
 8
EXTRUDE
 10
0.1014
 20
-0.0004
 30
-0.1245
 70
192
 0
VERTEX
 8
EXTRUDE
 10
0.1014
 20
-0.0004
 30
-0.0277
 70
192
 0
VERTEX
 8
EXTRUDE
 10
0
 20
0
 30
0
 70
128
 71
1
 72
69
 73
70
 74
2
 0
VERTEX
 8
EXTRUDE
 10
0
 20
0
 30
0
 70
128
 71
2
 72
70
 73
71
 74
3
 0
VERTEX
 8
EXTRUDE
 10
0
 20
0
 30
0
 70
128
 71
3
 72
71
 73
72
 74
4
 0
VERTEX
 8
EXTRUDE
 10
0
 20
0
 30
0
 70
128
 71
4
 72
72
 73
73
 74
5
 0
VERTEX
 8
EXTRUDE
 10
0
 20
0
 30
0
 70
128
 71
5
 72
73
 73
74
 74
6
 0
VERTEX
 8
EXTRUDE
 10
0
 20
0
 30
0
 70
128
 71
6
 72
74
 73
75
 74
7
 0
VERTEX
 8
EXTRUDE
 10
0
 20
0
 30
0
 70
128
 71
7
 72
75
 73
76
 74
8
 0
VERTEX
 8
EXTRUDE
 10
0
 20
0
 30
0
 70
128
 71
8
 72
76
 73
77
 74
9
 0
VERTEX
 8
EXTRUDE
 10
0
 20
0
 30
0
 70
128
 71
9
 72
77
 73
78
 74
10
 0
VERTEX
 8
EXTRUDE
 10
0
 20
0
 30
0
 70
128
 71
10
 72
78
 73
79
 74
11
 0
VERTEX
 8
EXTRUDE
 10
0
 20
0
 30
0
 70
128
 71
11
 72
79
 73
80
 74
12
 0
VERTEX
 8
EXTRUDE
 10
0
 20
0
 30
0
 70
128
 71
12
 72
80
 73
81
 74
13
 0
VERTEX
 8
EXTRUDE
 10
0
 20
0
 30
0
 70
128
 71
13
 72
81
 73
82
 74
14
 0
VERTEX
 8
EXTRUDE
 10
0
 20
0
 30
0
 70
128
 71
14
 72
82
 73
83
 74
15
 0
VERTEX
 8
EXTRUDE
 10
0
 20
0
 30
0
 70
128
 71
15
 72
83
 73
84
 74
16
 0
VERTEX
 8
EXTRUDE
 10
0
 20
0
 30
0
 70
128
 71
16
 72
84
 73
85
 74
17
 0
VERTEX
 8
EXTRUDE
 10
0
 20
0
 30
0
 70
128
 71
17
 72
85
 73
86
 74
18
 0
VERTEX
 8
EXTRUDE
 10
0
 20
0
 30
0
 70
128
 71
18
 72
86
 73
87
 74
19
 0
VERTEX
 8
EXTRUDE
 10
0
 20
0
 30
0
 70
128
 71
19
 72
87
 73
88
 74
20
 0
VERTEX
 8
EXTRUDE
 10
0
 20
0
 30
0
 70
128
 71
20
 72
88
 73
89
 74
21
 0
VERTEX
 8
EXTRUDE
 10
0
 20
0
 30
0
 70
128
 71
21
 72
89
 73
90
 74
22
 0
VERTEX
 8
EXTRUDE
 10
0
 20
0
 30
0
 70
128
 71
22
 72
90
 73
91
 74
23
 0
VERTEX
 8
EXTRUDE
 10
0
 20
0
 30
0
 70
128
 71
23
 72
91
 73
92
 74
24
 0
VERTEX
 8
EXTRUDE
 10
0
 20
0
 30
0
 70
128
 71
24
 72
92
 73
93
 74
25
 0
VERTEX
 8
EXTRUDE
 10
0
 20
0
 30
0
 70
128
 71
25
 72
93
 73
94
 74
26
 0
VERTEX
 8
EXTRUDE
 10
0
 20
0
 30
0
 70
128
 71
26
 72
94
 73
95
 74
27
 0
VERTEX
 8
EXTRUDE
 10
0
 20
0
 30
0
 70
128
 71
27
 72
95
 73
96
 74
28
 0
VERTEX
 8
EXTRUDE
 10
0
 20
0
 30
0
 70
128
 71
28
 72
96
 73
97
 74
29
 0
VERTEX
 8
EXTRUDE
 10
0
 20
0
 30
0
 70
128
 71
29
 72
97
 73
98
 74
30
 0
VERTEX
 8
EXTRUDE
 10
0
 20
0
 30
0
 70
128
 71
30
 72
98
 73
99
 74
31
 0
VERTEX
 8
EXTRUDE
 10
0
 20
0
 30
0
 70
128
 71
31
 72
99
 73
100
 74
32
 0
VERTEX
 8
EXTRUDE
 10
0
 20
0
 30
0
 70
128
 71
32
 72
100
 73
101
 74
33
 0
VERTEX
 8
EXTRUDE
 10
0
 20
0
 30
0
 70
128
 71
33
 72
101
 73
102
 74
34
 0
VERTEX
 8
EXTRUDE
 10
0
 20
0
 30
0
 70
128
 71
34
 72
102
 73
103
 74
35
 0
VERTEX
 8
EXTRUDE
 10
0
 20
0
 30
0
 70
128
 71
35
 72
103
 73
104
 74
36
 0
VERTEX
 8
EXTRUDE
 10
0
 20
0
 30
0
 70
128
 71
36
 72
104
 73
105
 74
37
 0
VERTEX
 8
EXTRUDE
 10
0
 20
0
 30
0
 70
128
 71
37
 72
105
 73
106
 74
38
 0
VERTEX
 8
EXTRUDE
 10
0
 20
0
 30
0
 70
128
 71
38
 72
106
 73
107
 74
39
 0
VERTEX
 8
EXTRUDE
 10
0
 20
0
 30
0
 70
128
 71
39
 72
107
 73
108
 74
40
 0
VERTEX
 8
EXTRUDE
 10
0
 20
0
 30
0
 70
128
 71
40
 72
108
 73
109
 74
41
 0
VERTEX
 8
EXTRUDE
 10
0
 20
0
 30
0
 70
128
 71
41
 72
109
 73
110
 74
42
 0
VERTEX
 8
EXTRUDE
 10
0
 20
0
 30
0
 70
128
 71
42
 72
110
 73
111
 74
43
 0
VERTEX
 8
EXTRUDE
 10
0
 20
0
 30
0
 70
128
 71
43
 72
111
 73
112
 74
44
 0
VERTEX
 8
EXTRUDE
 10
0
 20
0
 30
0
 70
128
 71
44
 72
112
 73
113
 74
45
 0
VERTEX
 8
EXTRUDE
 10
0
 20
0
 30
0
 70
128
 71
45
 72
113
 73
114
 74
46
 0
VERTEX
 8
EXTRUDE
 10
0
 20
0
 30
0
 70
128
 71
46
 72
114
 73
115
 74
47
 0
VERTEX
 8
EXTRUDE
 10
0
 20
0
 30
0
 70
128
 71
47
 72
115
 73
116
 74
48
 0
VERTEX
 8
EXTRUDE
 10
0
 20
0
 30
0
 70
128
 71
48
 72
116
 73
117
 74
49
 0
VERTEX
 8
EXTRUDE
 10
0
 20
0
 30
0
 70
128
 71
49
 72
117
 73
118
 74
50
 0
VERTEX
 8
EXTRUDE
 10
0
 20
0
 30
0
 70
128
 71
50
 72
118
 73
119
 74
51
 0
VERTEX
 8
EXTRUDE
 10
0
 20
0
 30
0
 70
128
 71
51
 72
119
 73
120
 74
52
 0
VERTEX
 8
EXTRUDE
 10
0
 20
0
 30
0
 70
128
 71
52
 72
120
 73
121
 74
53
 0
VERTEX
 8
EXTRUDE
 10
0
 20
0
 30
0
 70
128
 71
53
 72
121
 73
122
 74
54
 0
VERTEX
 8
EXTRUDE
 10
0
 20
0
 30
0
 70
128
 71
54
 72
122
 73
123
 74
55
 0
VERTEX
 8
EXTRUDE
 10
0
 20
0
 30
0
 70
128
 71
55
 72
123
 73
124
 74
56
 0
VERTEX
 8
EXTRUDE
 10
0
 20
0
 30
0
 70
128
 71
56
 72
124
 73
125
 74
57
 0
VERTEX
 8
EXTRUDE
 10
0
 20
0
 30
0
 70
128
 71
57
 72
125
 73
126
 74
58
 0
VERTEX
 8
EXTRUDE
 10
0
 20
0
 30
0
 70
128
 71
58
 72
126
 73
127
 74
59
 0
VERTEX
 8
EXTRUDE
 10
0
 20
0
 30
0
 70
128
 71
59
 72
127
 73
128
 74
60
 0
VERTEX
 8
EXTRUDE
 10
0
 20
0
 30
0
 70
128
 71
60
 72
128
 73
129
 74
61
 0
VERTEX
 8
EXTRUDE
 10
0
 20
0
 30
0
 70
128
 71
61
 72
129
 73
130
 74
62
 0
VERTEX
 8
EXTRUDE
 10
0
 20
0
 30
0
 70
128
 71
62
 72
130
 73
131
 74
63
 0
VERTEX
 8
EXTRUDE
 10
0
 20
0
 30
0
 70
128
 71
63
 72
131
 73
132
 74
64
 0
VERTEX
 8
EXTRUDE
 10
0
 20
0
 30
0
 70
128
 71
64
 72
132
 73
133
 74
65
 0
VERTEX
 8
EXTRUDE
 10
0
 20
0
 30
0
 70
128
 71
65
 72
133
 73
134
 74
66
 0
VERTEX
 8
EXTRUDE
 10
0
 20
0
 30
0
 70
128
 71
66
 72
134
 73
135
 74
67
 0
VERTEX
 8
EXTRUDE
 10
0
 20
0
 30
0
 70
128
 71
67
 72
135
 73
136
 74
68
 0
VERTEX
 8
EXTRUDE
 10
0
 20
0
 30
0
 70
128
 71
68
 72
136
 73
69
 74
1
 0
SEQEND
 0
POLYLINE
 8
TAPA_1_3
 66
1
 10
0.0
 20
0.0
 30
0.0
 70
64
 71
68
 72
56
 0
VERTEX
 8
TAPA_1_3
 10
-0.0011
 20
-0.0958
 30
-0.0253
 70
192
 0
VERTEX
 8
TAPA_1_3
 10
0.002
 20
-0.0991
 30
-0.0239
 70
192
 0
VERTEX
 8
TAPA_1_3
 10
0.009
 20
-0.1066
 30
-0.0216
 70
192
 0
VERTEX
 8
TAPA_1_3
 10
0.016
 20
-0.1142
 30
-0.0204
 70
192
 0
VERTEX
 8
TAPA_1_3
 10
0.0243
 20
-0.1231
 30
-0.0202
 70
192
 0
VERTEX
 8
TAPA_1_3
 10
0.0316
 20
-0.131
 30
-0.0211
 70
192
 0
VERTEX
 8
TAPA_1_3
 10
0.0394
 20
-0.1394
 30
-0.0233
 70
192
 0
VERTEX
 8
TAPA_1_3
 10
0.0455
 20
-0.1459
 30
-0.026
 70
192
 0
VERTEX
 8
TAPA_1_3
 10
0.0517
 20
-0.1525
 30
-0.0298
 70
192
 0
VERTEX
 8
TAPA_1_3
 10
0.0579
 20
-0.1592
 30
-0.0347
 70
192
 0
VERTEX
 8
TAPA_1_3
 10
0.0641
 20
-0.1658
 30
-0.041
 70
192
 0
VERTEX
 8
TAPA_1_3
 10
0.0681
 20
-0.1702
 30
-0.0459
 70
192
 0
VERTEX
 8
TAPA_1_3
 10
0.0741
 20
-0.1766
 30
-0.0546
 70
192
 0
VERTEX
 8
TAPA_1_3
 10
0.0742
 20
-0.1767
 30
-0.0546
 70
192
 0
VERTEX
 8
TAPA_1_3
 10
0.0746
 20
-0.1772
 30
-0.0543
 70
192
 0
VERTEX
 8
TAPA_1_3
 10
0.081
 20
-0.1845
 30
-0.05
 70
192
 0
VERTEX
 8
TAPA_1_3
 10
0.0851
 20
-0.1893
 30
-0.0481
 70
192
 0
VERTEX
 8
TAPA_1_3
 10
0.0901
 20
-0.195
 30
-0.0465
 70
192
 0
VERTEX
 8
TAPA_1_3
 10
0.0943
 20
-0.1997
 30
-0.0459
 70
192
 0
VERTEX
 8
TAPA_1_3
 10
0.0989
 20
-0.2047
 30
-0.0459
 70
192
 0
VERTEX
 8
TAPA_1_3
 10
0.1037
 20
-0.21
 30
-0.0468
 70
192
 0
VERTEX
 8
TAPA_1_3
 10
0.1088
 20
-0.2155
 30
-0.0486
 70
192
 0
VERTEX
 8
TAPA_1_3
 10
0.1124
 20
-0.2193
 30
-0.0505
 70
192
 0
VERTEX
 8
TAPA_1_3
 10
0.116
 20
-0.2231
 30
-0.0529
 70
192
 0
VERTEX
 8
TAPA_1_3
 10
0.1215
 20
-0.2289
 30
-0.0578
 70
192
 0
VERTEX
 8
TAPA_1_3
 10
0.1271
 20
-0.2347
 30
-0.0642
 70
192
 0
VERTEX
 8
TAPA_1_3
 10
0.1328
 20
-0.2404
 30
-0.0724
 70
192
 0
VERTEX
 8
TAPA_1_3
 10
0.1366
 20
-0.2442
 30
-0.0789
 70
192
 0
VERTEX
 8
TAPA_1_3
 10
0.1404
 20
-0.2478
 30
-0.0864
 70
192
 0
VERTEX
 8
TAPA_1_3
 10
0.1459
 20
-0.2538
 30
-0.0846
 70
192
 0
VERTEX
 8
TAPA_1_3
 10
0.1543
 20
-0.2628
 30
-0.083
 70
192
 0
VERTEX
 8
TAPA_1_3
 10
0.1632
 20
-0.2724
 30
-0.0826
 70
192
 0
VERTEX
 8
TAPA_1_3
 10
0.1709
 20
-0.2807
 30
-0.0834
 70
192
 0
VERTEX
 8
TAPA_1_3
 10
0.1769
 20
-0.287
 30
-0.085
 70
192
 0
VERTEX
 8
TAPA_1_3
 10
0.1827
 20
-0.2933
 30
-0.0876
 70
192
 0
VERTEX
 8
TAPA_1_3
 10
0.1865
 20
-0.2974
 30
-0.0899
 70
192
 0
VERTEX
 8
TAPA_1_3
 10
0.1901
 20
-0.3013
 30
-0.0929
 70
192
 0
VERTEX
 8
TAPA_1_3
 10
0.1936
 20
-0.305
 30
-0.0965
 70
192
 0
VERTEX
 8
TAPA_1_3
 10
0.1967
 20
-0.3084
 30
-0.1007
 70
192
 0
VERTEX
 8
TAPA_1_3
 10
0.1996
 20
-0.3115
 30
-0.1058
 70
192
 0
VERTEX
 8
TAPA_1_3
 10
0.2022
 20
-0.3142
 30
-0.1115
 70
192
 0
VERTEX
 8
TAPA_1_3
 10
0.2043
 20
-0.3165
 30
-0.1182
 70
192
 0
VERTEX
 8
TAPA_1_3
 10
0.206
 20
-0.3183
 30
-0.1257
 70
192
 0
VERTEX
 8
TAPA_1_3
 10
0.2072
 20
-0.3196
 30
-0.1342
 70
192
 0
VERTEX
 8
TAPA_1_3
 10
0.2079
 20
-0.3204
 30
-0.1436
 70
192
 0
VERTEX
 8
TAPA_1_3
 10
0.2077
 20
-0.3201
 30
-0.1433
 70
192
 0
VERTEX
 8
TAPA_1_3
 10
0.2073
 20
-0.3197
 30
-0.1431
 70
192
 0
VERTEX
 8
TAPA_1_3
 10
0.2067
 20
-0.3191
 30
-0.1428
 70
192
 0
VERTEX
 8
TAPA_1_3
 10
0.2051
 20
-0.3174
 30
-0.1424
 70
192
 0
VERTEX
 8
TAPA_1_3
 10
0.1628
 20
-0.2719
 30
-0.1413
 70
192
 0
VERTEX
 8
TAPA_1_3
 10
0.1287
 20
-0.2353
 30
-0.1424
 70
192
 0
VERTEX
 8
TAPA_1_3
 10
0.1287
 20
-0.2352
 30
-0.142
 70
192
 0
VERTEX
 8
TAPA_1_3
 10
0.1285
 20
-0.2351
 30
-0.1409
 70
192
 0
VERTEX
 8
TAPA_1_3
 10
0.1282
 20
-0.2347
 30
-0.1397
 70
192
 0
VERTEX
 8
TAPA_1_3
 10
0.1277
 20
-0.2342
 30
-0.1382
 70
192
 0
VERTEX
 8
TAPA_1_3
 10
0.1272
 20
-0.2337
 30
-0.137
 70
192
 0
VERTEX
 8
TAPA_1_3
 10
0.1265
 20
-0.2329
 30
-0.1357
 70
192
 0
VERTEX
 8
TAPA_1_3
 10
0.1257
 20
-0.232
 30
-0.1344
 70
192
 0
VERTEX
 8
TAPA_1_3
 10
0.1246
 20
-0.2309
 30
-0.1332
 70
192
 0
VERTEX
 8
TAPA_1_3
 10
0.1234
 20
-0.2296
 30
-0.132
 70
192
 0
VERTEX
 8
TAPA_1_3
 10
0.1219
 20
-0.228
 30
-0.1309
 70
192
 0
VERTEX
 8
TAPA_1_3
 10
0.1202
 20
-0.2262
 30
-0.1299
 70
192
 0
VERTEX
 8
TAPA_1_3
 10
0.1183
 20
-0.2241
 30
-0.1291
 70
192
 0
VERTEX
 8
TAPA_1_3
 10
0.116
 20
-0.2216
 30
-0.1285
 70
192
 0
VERTEX
 8
TAPA_1_3
 10
0.1143
 20
-0.2199
 30
-0.1283
 70
192
 0
VERTEX
 8
TAPA_1_3
 10
0.1116
 20
-0.2169
 30
-0.1281
 70
192
 0
VERTEX
 8
TAPA_1_3
 10
-0.0011
 20
-0.0958
 30
-0.1245
 70
192
 0
VERTEX
 8
TAPA_1_3
 10
-0.0011
 20
-0.0958
 30
-0.0277
 70
192
 0
VERTEX
 8
TAPA_1_3
 10
0
 20
0
 30
0
 70
128
 71
1
 72
2
 73
68
 74
68
 0
VERTEX
 8
TAPA_1_3
 10
0
 20
0
 30
0
 70
128
 71
68
 72
2
 73
3
 74
4
 0
VERTEX
 8
TAPA_1_3
 10
0
 20
0
 30
0
 70
128
 71
4
 72
5
 73
67
 74
68
 0
VERTEX
 8
TAPA_1_3
 10
0
 20
0
 30
0
 70
128
 71
5
 72
6
 73
67
 74
67
 0
VERTEX
 8
TAPA_1_3
 10
0
 20
0
 30
0
 70
128
 71
6
 72
7
 73
67
 74
67
 0
VERTEX
 8
TAPA_1_3
 10
0
 20
0
 30
0
 70
128
 71
7
 72
8
 73
67
 74
67
 0
VERTEX
 8
TAPA_1_3
 10
0
 20
0
 30
0
 70
128
 71
8
 72
9
 73
67
 74
67
 0
VERTEX
 8
TAPA_1_3
 10
0
 20
0
 30
0
 70
128
 71
9
 72
10
 73
67
 74
67
 0
VERTEX
 8
TAPA_1_3
 10
0
 20
0
 30
0
 70
128
 71
10
 72
11
 73
67
 74
67
 0
VERTEX
 8
TAPA_1_3
 10
0
 20
0
 30
0
 70
128
 71
11
 72
12
 73
67
 74
67
 0
VERTEX
 8
TAPA_1_3
 10
0
 20
0
 30
0
 70
128
 71
67
 72
12
 73
13
 74
66
 0
VERTEX
 8
TAPA_1_3
 10
0
 20
0
 30
0
 70
128
 71
13
 72
14
 73
66
 74
66
 0
VERTEX
 8
TAPA_1_3
 10
0
 20
0
 30
0
 70
128
 71
14
 72
15
 73
66
 74
66
 0
VERTEX
 8
TAPA_1_3
 10
0
 20
0
 30
0
 70
128
 71
15
 72
16
 73
66
 74
66
 0
VERTEX
 8
TAPA_1_3
 10
0
 20
0
 30
0
 70
128
 71
16
 72
17
 73
66
 74
66
 0
VERTEX
 8
TAPA_1_3
 10
0
 20
0
 30
0
 70
128
 71
17
 72
18
 73
66
 74
66
 0
VERTEX
 8
TAPA_1_3
 10
0
 20
0
 30
0
 70
128
 71
18
 72
19
 73
66
 74
66
 0
VERTEX
 8
TAPA_1_3
 10
0
 20
0
 30
0
 70
128
 71
19
 72
20
 73
66
 74
66
 0
VERTEX
 8
TAPA_1_3
 10
0
 20
0
 30
0
 70
128
 71
20
 72
21
 73
66
 74
66
 0
VERTEX
 8
TAPA_1_3
 10
0
 20
0
 30
0
 70
128
 71
21
 72
22
 73
66
 74
66
 0
VERTEX
 8
TAPA_1_3
 10
0
 20
0
 30
0
 70
128
 71
22
 72
23
 73
66
 74
66
 0
VERTEX
 8
TAPA_1_3
 10
0
 20
0
 30
0
 70
128
 71
23
 72
24
 73
66
 74
66
 0
VERTEX
 8
TAPA_1_3
 10
0
 20
0
 30
0
 70
128
 71
24
 72
25
 73
66
 74
66
 0
VERTEX
 8
TAPA_1_3
 10
0
 20
0
 30
0
 70
128
 71
66
 72
25
 73
26
 74
27
 0
VERTEX
 8
TAPA_1_3
 10
0
 20
0
 30
0
 70
128
 71
27
 72
28
 73
64
 74
65
 0
VERTEX
 8
TAPA_1_3
 10
0
 20
0
 30
0
 70
128
 71
27
 72
65
 73
66
 74
66
 0
VERTEX
 8
TAPA_1_3
 10
0
 20
0
 30
0
 70
128
 71
28
 72
29
 73
63
 74
64
 0
VERTEX
 8
TAPA_1_3
 10
0
 20
0
 30
0
 70
128
 71
29
 72
30
 73
50
 74
56
 0
VERTEX
 8
TAPA_1_3
 10
0
 20
0
 30
0
 70
128
 71
29
 72
56
 73
57
 74
57
 0
VERTEX
 8
TAPA_1_3
 10
0
 20
0
 30
0
 70
128
 71
29
 72
57
 73
58
 74
58
 0
VERTEX
 8
TAPA_1_3
 10
0
 20
0
 30
0
 70
128
 71
29
 72
58
 73
59
 74
59
 0
VERTEX
 8
TAPA_1_3
 10
0
 20
0
 30
0
 70
128
 71
29
 72
59
 73
60
 74
60
 0
VERTEX
 8
TAPA_1_3
 10
0
 20
0
 30
0
 70
128
 71
29
 72
60
 73
61
 74
61
 0
VERTEX
 8
TAPA_1_3
 10
0
 20
0
 30
0
 70
128
 71
29
 72
61
 73
62
 74
62
 0
VERTEX
 8
TAPA_1_3
 10
0
 20
0
 30
0
 70
128
 71
29
 72
62
 73
63
 74
63
 0
VERTEX
 8
TAPA_1_3
 10
0
 20
0
 30
0
 70
128
 71
50
 72
30
 73
31
 74
32
 0
VERTEX
 8
TAPA_1_3
 10
0
 20
0
 30
0
 70
128
 71
32
 72
33
 73
50
 74
50
 0
VERTEX
 8
TAPA_1_3
 10
0
 20
0
 30
0
 70
128
 71
33
 72
34
 73
50
 74
50
 0
VERTEX
 8
TAPA_1_3
 10
0
 20
0
 30
0
 70
128
 71
34
 72
35
 73
50
 74
50
 0
VERTEX
 8
TAPA_1_3
 10
0
 20
0
 30
0
 70
128
 71
35
 72
36
 73
50
 74
50
 0
VERTEX
 8
TAPA_1_3
 10
0
 20
0
 30
0
 70
128
 71
36
 72
37
 73
50
 74
50
 0
VERTEX
 8
TAPA_1_3
 10
0
 20
0
 30
0
 70
128
 71
37
 72
38
 73
50
 74
50
 0
VERTEX
 8
TAPA_1_3
 10
0
 20
0
 30
0
 70
128
 71
38
 72
39
 73
50
 74
50
 0
VERTEX
 8
TAPA_1_3
 10
0
 20
0
 30
0
 70
128
 71
39
 72
40
 73
50
 74
50
 0
VERTEX
 8
TAPA_1_3
 10
0
 20
0
 30
0
 70
128
 71
40
 72
41
 73
50
 74
50
 0
VERTEX
 8
TAPA_1_3
 10
0
 20
0
 30
0
 70
128
 71
50
 72
41
 73
42
 74
49
 0
VERTEX
 8
TAPA_1_3
 10
0
 20
0
 30
0
 70
128
 71
49
 72
42
 73
43
 74
44
 0
VERTEX
 8
TAPA_1_3
 10
0
 20
0
 30
0
 70
128
 71
44
 72
45
 73
46
 74
46
 0
VERTEX
 8
TAPA_1_3
 10
0
 20
0
 30
0
 70
128
 71
44
 72
46
 73
47
 74
47
 0
VERTEX
 8
TAPA_1_3
 10
0
 20
0
 30
0
 70
128
 71
44
 72
47
 73
48
 74
48
 0
VERTEX
 8
TAPA_1_3
 10
0
 20
0
 30
0
 70
128
 71
44
 72
48
 73
49
 74
49
 0
VERTEX
 8
TAPA_1_3
 10
0
 20
0
 30
0
 70
128
 71
50
 72
51
 73
52
 74
52
 0
VERTEX
 8
TAPA_1_3
 10
0
 20
0
 30
0
 70
128
 71
50
 72
52
 73
53
 74
53
 0
VERTEX
 8
TAPA_1_3
 10
0
 20
0
 30
0
 70
128
 71
50
 72
53
 73
54
 74
54
 0
VERTEX
 8
TAPA_1_3
 10
0
 20
0
 30
0
 70
128
 71
50
 72
54
 73
55
 74
55
 0
VERTEX
 8
TAPA_1_3
 10
0
 20
0
 30
0
 70
128
 71
50
 72
55
 73
56
 74
56
 0
SEQEND
 0
POLYLINE
 8
TAPA_2_3
 66
1
 10
0.0
 20
0.0
 30
0.0
 70
64
 71
68
 72
56
 0
VERTEX
 8
TAPA_2_3
 10
0.1014
 20
-0.0004
 30
-0.0253
 70
192
 0
VERTEX
 8
TAPA_2_3
 10
0.1044
 20
-0.0037
 30
-0.0239
 70
192
 0
VERTEX
 8
TAPA_2_3
 10
0.1115
 20
-0.0113
 30
-0.0216
 70
192
 0
VERTEX
 8
TAPA_2_3
 10
0.1185
 20
-0.0188
 30
-0.0204
 70
192
 0
VERTEX
 8
TAPA_2_3
 10
0.1267
 20
-0.0277
 30
-0.0202
 70
192
 0
VERTEX
 8
TAPA_2_3
 10
0.1341
 20
-0.0356
 30
-0.0211
 70
192
 0
VERTEX
 8
TAPA_2_3
 10
0.1419
 20
-0.044
 30
-0.0233
 70
192
 0
VERTEX
 8
TAPA_2_3
 10
0.148
 20
-0.0505
 30
-0.026
 70
192
 0
VERTEX
 8
TAPA_2_3
 10
0.1542
 20
-0.0571
 30
-0.0298
 70
192
 0
VERTEX
 8
TAPA_2_3
 10
0.1604
 20
-0.0638
 30
-0.0347
 70
192
 0
VERTEX
 8
TAPA_2_3
 10
0.1666
 20
-0.0705
 30
-0.041
 70
192
 0
VERTEX
 8
TAPA_2_3
 10
0.1706
 20
-0.0748
 30
-0.0459
 70
192
 0
VERTEX
 8
TAPA_2_3
 10
0.1766
 20
-0.0812
 30
-0.0546
 70
192
 0
VERTEX
 8
TAPA_2_3
 10
0.1767
 20
-0.0814
 30
-0.0546
 70
192
 0
VERTEX
 8
TAPA_2_3
 10
0.1771
 20
-0.0819
 30
-0.0543
 70
192
 0
VERTEX
 8
TAPA_2_3
 10
0.1834
 20
-0.0891
 30
-0.05
 70
192
 0
VERTEX
 8
TAPA_2_3
 10
0.1876
 20
-0.0939
 30
-0.0481
 70
192
 0
VERTEX
 8
TAPA_2_3
 10
0.1926
 20
-0.0996
 30
-0.0465
 70
192
 0
VERTEX
 8
TAPA_2_3
 10
0.1968
 20
-0.1043
 30
-0.0459
 70
192
 0
VERTEX
 8
TAPA_2_3
 10
0.2014
 20
-0.1093
 30
-0.0459
 70
192
 0
VERTEX
 8
TAPA_2_3
 10
0.2062
 20
-0.1146
 30
-0.0468
 70
192
 0
VERTEX
 8
TAPA_2_3
 10
0.2113
 20
-0.1202
 30
-0.0486
 70
192
 0
VERTEX
 8
TAPA_2_3
 10
0.2148
 20
-0.1239
 30
-0.0505
 70
192
 0
VERTEX
 8
TAPA_2_3
 10
0.2184
 20
-0.1278
 30
-0.0529
 70
192
 0
VERTEX
 8
TAPA_2_3
 10
0.224
 20
-0.1335
 30
-0.0578
 70
192
 0
VERTEX
 8
TAPA_2_3
 10
0.2296
 20
-0.1393
 30
-0.0642
 70
192
 0
VERTEX
 8
TAPA_2_3
 10
0.2353
 20
-0.145
 30
-0.0724
 70
192
 0
VERTEX
 8
TAPA_2_3
 10
0.2391
 20
-0.1488
 30
-0.0789
 70
192
 0
VERTEX
 8
TAPA_2_3
 10
0.2429
 20
-0.1525
 30
-0.0864
 70
192
 0
VERTEX
 8
TAPA_2_3
 10
0.2484
 20
-0.1584
 30
-0.0846
 70
192
 0
VERTEX
 8
TAPA_2_3
 10
0.2568
 20
-0.1675
 30
-0.083
 70
192
 0
VERTEX
 8
TAPA_2_3
 10
0.2657
 20
-0.177
 30
-0.0826
 70
192
 0
VERTEX
 8
TAPA_2_3
 10
0.2734
 20
-0.1853
 30
-0.0834
 70
192
 0
VERTEX
 8
TAPA_2_3
 10
0.2793
 20
-0.1917
 30
-0.085
 70
192
 0
VERTEX
 8
TAPA_2_3
 10
0.2852
 20
-0.1979
 30
-0.0876
 70
192
 0
VERTEX
 8
TAPA_2_3
 10
0.289
 20
-0.202
 30
-0.0899
 70
192
 0
VERTEX
 8
TAPA_2_3
 10
0.2926
 20
-0.2059
 30
-0.0929
 70
192
 0
VERTEX
 8
TAPA_2_3
 10
0.296
 20
-0.2096
 30
-0.0965
 70
192
 0
VERTEX
 8
TAPA_2_3
 10
0.2992
 20
-0.213
 30
-0.1007
 70
192
 0
VERTEX
 8
TAPA_2_3
 10
0.3021
 20
-0.2161
 30
-0.1058
 70
192
 0
VERTEX
 8
TAPA_2_3
 10
0.3046
 20
-0.2188
 30
-0.1115
 70
192
 0
VERTEX
 8
TAPA_2_3
 10
0.3068
 20
-0.2211
 30
-0.1182
 70
192
 0
VERTEX
 8
TAPA_2_3
 10
0.3085
 20
-0.223
 30
-0.1257
 70
192
 0
VERTEX
 8
TAPA_2_3
 10
0.3097
 20
-0.2243
 30
-0.1342
 70
192
 0
VERTEX
 8
TAPA_2_3
 10
0.3104
 20
-0.225
 30
-0.1436
 70
192
 0
VERTEX
 8
TAPA_2_3
 10
0.3102
 20
-0.2248
 30
-0.1433
 70
192
 0
VERTEX
 8
TAPA_2_3
 10
0.3098
 20
-0.2243
 30
-0.1431
 70
192
 0
VERTEX
 8
TAPA_2_3
 10
0.3092
 20
-0.2237
 30
-0.1428
 70
192
 0
VERTEX
 8
TAPA_2_3
 10
0.3076
 20
-0.222
 30
-0.1424
 70
192
 0
VERTEX
 8
TAPA_2_3
 10
0.2653
 20
-0.1766
 30
-0.1413
 70
192
 0
VERTEX
 8
TAPA_2_3
 10
0.2312
 20
-0.1399
 30
-0.1424
 70
192
 0
VERTEX
 8
TAPA_2_3
 10
0.2311
 20
-0.1399
 30
-0.142
 70
192
 0
VERTEX
 8
TAPA_2_3
 10
0.231
 20
-0.1397
 30
-0.1409
 70
192
 0
VERTEX
 8
TAPA_2_3
 10
0.2307
 20
-0.1394
 30
-0.1397
 70
192
 0
VERTEX
 8
TAPA_2_3
 10
0.2302
 20
-0.1388
 30
-0.1382
 70
192
 0
VERTEX
 8
TAPA_2_3
 10
0.2297
 20
-0.1383
 30
-0.137
 70
192
 0
VERTEX
 8
TAPA_2_3
 10
0.229
 20
-0.1376
 30
-0.1357
 70
192
 0
VERTEX
 8
TAPA_2_3
 10
0.2282
 20
-0.1367
 30
-0.1344
 70
192
 0
VERTEX
 8
TAPA_2_3
 10
0.2271
 20
-0.1356
 30
-0.1332
 70
192
 0
VERTEX
 8
TAPA_2_3
 10
0.2259
 20
-0.1342
 30
-0.132
 70
192
 0
VERTEX
 8
TAPA_2_3
 10
0.2244
 20
-0.1327
 30
-0.1309
 70
192
 0
VERTEX
 8
TAPA_2_3
 10
0.2227
 20
-0.1308
 30
-0.1299
 70
192
 0
VERTEX
 8
TAPA_2_3
 10
0.2208
 20
-0.1287
 30
-0.1291
 70
192
 0
VERTEX
 8
TAPA_2_3
 10
0.2185
 20
-0.1263
 30
-0.1285
 70
192
 0
VERTEX
 8
TAPA_2_3
 10
0.2168
 20
-0.1245
 30
-0.1283
 70
192
 0
VERTEX
 8
TAPA_2_3
 10
0.214
 20
-0.1215
 30
-0.1281
 70
192
 0
VERTEX
 8
TAPA_2_3
 10
0.1014
 20
-0.0004
 30
-0.1245
 70
192
 0
VERTEX
 8
TAPA_2_3
 10
0.1014
 20
-0.0004
 30
-0.0277
 70
192
 0
VERTEX
 8
TAPA_2_3
 10
0
 20
0
 30
0
 70
128
 71
4
 72
68
 73
67
 74
5
 0
VERTEX
 8
TAPA_2_3
 10
0
 20
0
 30
0
 70
128
 71
68
 72
4
 73
3
 74
2
 0
VERTEX
 8
TAPA_2_3
 10
0
 20
0
 30
0
 70
128
 71
68
 72
2
 73
1
 74
1
 0
VERTEX
 8
TAPA_2_3
 10
0
 20
0
 30
0
 70
128
 71
67
 72
66
 73
13
 74
12
 0
VERTEX
 8
TAPA_2_3
 10
0
 20
0
 30
0
 70
128
 71
67
 72
12
 73
11
 74
11
 0
VERTEX
 8
TAPA_2_3
 10
0
 20
0
 30
0
 70
128
 71
67
 72
11
 73
10
 74
10
 0
VERTEX
 8
TAPA_2_3
 10
0
 20
0
 30
0
 70
128
 71
67
 72
10
 73
9
 74
9
 0
VERTEX
 8
TAPA_2_3
 10
0
 20
0
 30
0
 70
128
 71
67
 72
9
 73
8
 74
8
 0
VERTEX
 8
TAPA_2_3
 10
0
 20
0
 30
0
 70
128
 71
67
 72
8
 73
7
 74
7
 0
VERTEX
 8
TAPA_2_3
 10
0
 20
0
 30
0
 70
128
 71
67
 72
7
 73
6
 74
6
 0
VERTEX
 8
TAPA_2_3
 10
0
 20
0
 30
0
 70
128
 71
67
 72
6
 73
5
 74
5
 0
VERTEX
 8
TAPA_2_3
 10
0
 20
0
 30
0
 70
128
 71
66
 72
65
 73
27
 74
27
 0
VERTEX
 8
TAPA_2_3
 10
0
 20
0
 30
0
 70
128
 71
66
 72
27
 73
26
 74
25
 0
VERTEX
 8
TAPA_2_3
 10
0
 20
0
 30
0
 70
128
 71
66
 72
25
 73
24
 74
24
 0
VERTEX
 8
TAPA_2_3
 10
0
 20
0
 30
0
 70
128
 71
66
 72
24
 73
23
 74
23
 0
VERTEX
 8
TAPA_2_3
 10
0
 20
0
 30
0
 70
128
 71
66
 72
23
 73
22
 74
22
 0
VERTEX
 8
TAPA_2_3
 10
0
 20
0
 30
0
 70
128
 71
66
 72
22
 73
21
 74
21
 0
VERTEX
 8
TAPA_2_3
 10
0
 20
0
 30
0
 70
128
 71
66
 72
21
 73
20
 74
20
 0
VERTEX
 8
TAPA_2_3
 10
0
 20
0
 30
0
 70
128
 71
66
 72
20
 73
19
 74
19
 0
VERTEX
 8
TAPA_2_3
 10
0
 20
0
 30
0
 70
128
 71
66
 72
19
 73
18
 74
18
 0
VERTEX
 8
TAPA_2_3
 10
0
 20
0
 30
0
 70
128
 71
66
 72
18
 73
17
 74
17
 0
VERTEX
 8
TAPA_2_3
 10
0
 20
0
 30
0
 70
128
 71
66
 72
17
 73
16
 74
16
 0
VERTEX
 8
TAPA_2_3
 10
0
 20
0
 30
0
 70
128
 71
66
 72
16
 73
15
 74
15
 0
VERTEX
 8
TAPA_2_3
 10
0
 20
0
 30
0
 70
128
 71
66
 72
15
 73
14
 74
14
 0
VERTEX
 8
TAPA_2_3
 10
0
 20
0
 30
0
 70
128
 71
66
 72
14
 73
13
 74
13
 0
VERTEX
 8
TAPA_2_3
 10
0
 20
0
 30
0
 70
128
 71
27
 72
65
 73
64
 74
28
 0
VERTEX
 8
TAPA_2_3
 10
0
 20
0
 30
0
 70
128
 71
28
 72
64
 73
63
 74
29
 0
VERTEX
 8
TAPA_2_3
 10
0
 20
0
 30
0
 70
128
 71
63
 72
62
 73
29
 74
29
 0
VERTEX
 8
TAPA_2_3
 10
0
 20
0
 30
0
 70
128
 71
62
 72
61
 73
29
 74
29
 0
VERTEX
 8
TAPA_2_3
 10
0
 20
0
 30
0
 70
128
 71
61
 72
60
 73
29
 74
29
 0
VERTEX
 8
TAPA_2_3
 10
0
 20
0
 30
0
 70
128
 71
60
 72
59
 73
29
 74
29
 0
VERTEX
 8
TAPA_2_3
 10
0
 20
0
 30
0
 70
128
 71
59
 72
58
 73
29
 74
29
 0
VERTEX
 8
TAPA_2_3
 10
0
 20
0
 30
0
 70
128
 71
58
 72
57
 73
29
 74
29
 0
VERTEX
 8
TAPA_2_3
 10
0
 20
0
 30
0
 70
128
 71
57
 72
56
 73
29
 74
29
 0
VERTEX
 8
TAPA_2_3
 10
0
 20
0
 30
0
 70
128
 71
56
 72
55
 73
50
 74
50
 0
VERTEX
 8
TAPA_2_3
 10
0
 20
0
 30
0
 70
128
 71
29
 72
56
 73
50
 74
30
 0
VERTEX
 8
TAPA_2_3
 10
0
 20
0
 30
0
 70
128
 71
55
 72
54
 73
50
 74
50
 0
VERTEX
 8
TAPA_2_3
 10
0
 20
0
 30
0
 70
128
 71
54
 72
53
 73
50
 74
50
 0
VERTEX
 8
TAPA_2_3
 10
0
 20
0
 30
0
 70
128
 71
53
 72
52
 73
50
 74
50
 0
VERTEX
 8
TAPA_2_3
 10
0
 20
0
 30
0
 70
128
 71
52
 72
51
 73
50
 74
50
 0
VERTEX
 8
TAPA_2_3
 10
0
 20
0
 30
0
 70
128
 71
50
 72
49
 73
42
 74
41
 0
VERTEX
 8
TAPA_2_3
 10
0
 20
0
 30
0
 70
128
 71
50
 72
41
 73
40
 74
40
 0
VERTEX
 8
TAPA_2_3
 10
0
 20
0
 30
0
 70
128
 71
50
 72
40
 73
39
 74
39
 0
VERTEX
 8
TAPA_2_3
 10
0
 20
0
 30
0
 70
128
 71
50
 72
39
 73
38
 74
38
 0
VERTEX
 8
TAPA_2_3
 10
0
 20
0
 30
0
 70
128
 71
50
 72
38
 73
37
 74
37
 0
VERTEX
 8
TAPA_2_3
 10
0
 20
0
 30
0
 70
128
 71
50
 72
37
 73
36
 74
36
 0
VERTEX
 8
TAPA_2_3
 10
0
 20
0
 30
0
 70
128
 71
50
 72
36
 73
35
 74
35
 0
VERTEX
 8
TAPA_2_3
 10
0
 20
0
 30
0
 70
128
 71
50
 72
35
 73
34
 74
34
 0
VERTEX
 8
TAPA_2_3
 10
0
 20
0
 30
0
 70
128
 71
50
 72
34
 73
33
 74
33
 0
VERTEX
 8
TAPA_2_3
 10
0
 20
0
 30
0
 70
128
 71
50
 72
33
 73
32
 74
32
 0
VERTEX
 8
TAPA_2_3
 10
0
 20
0
 30
0
 70
128
 71
50
 72
32
 73
31
 74
30
 0
VERTEX
 8
TAPA_2_3
 10
0
 20
0
 30
0
 70
128
 71
49
 72
48
 73
44
 74
44
 0
VERTEX
 8
TAPA_2_3
 10
0
 20
0
 30
0
 70
128
 71
49
 72
44
 73
43
 74
42
 0
VERTEX
 8
TAPA_2_3
 10
0
 20
0
 30
0
 70
128
 71
48
 72
47
 73
44
 74
44
 0
VERTEX
 8
TAPA_2_3
 10
0
 20
0
 30
0
 70
128
 71
47
 72
46
 73
44
 74
44
 0
VERTEX
 8
TAPA_2_3
 10
0
 20
0
 30
0
 70
128
 71
46
 72
45
 73
44
 74
44
 0
SEQEND
 0
POLYLINE
 8
CUBE
 66
1
 10
0.0
 20
0.0
 30
0.0
 70
64
 71
8
 72
6
 0
VERTEX
 8
CUBE
 10
-0.099
 20
-0.0003
 30
-0.0329
 70
192
 0
VERTEX
 8
CUBE
 10
-0.099
 20
-0.0003
 30
0.5598
 70
192
 0
VERTEX
 8
CUBE
 10
0.0003
 20
-0.099
 30
-0.0329
 70
192
 0
VERTEX
 8
CUBE
 10
0.0003
 20
-0.099
 30
0.5598
 70
192
 0
VERTEX
 8
CUBE
 10
0.099
 20
0.0003
 30
-0.0329
 70
192
 0
VERTEX
 8
CUBE
 10
0.099
 20
0.0003
 30
0.5598
 70
192
 0
VERTEX
 8
CUBE
 10
-0.0003
 20
0.099
 30
-0.0329
 70
192
 0
VERTEX
 8
CUBE
 10
-0.0003
 20
0.099
 30
0.5598
 70
192
 0
VERTEX
 8
CUBE
 10
0
 20
0
 30
0
 70
128
 71
1
 72
2
 73
4
 74
3
 0
VERTEX
 8
CUBE
 10
0
 20
0
 30
0
 70
128
 71
3
 72
4
 73
6
 74
5
 0
VERTEX
 8
CUBE
 10
0
 20
0
 30
0
 70
128
 71
5
 72
6
 73
8
 74
7
 0
VERTEX
 8
CUBE
 10
0
 20
0
 30
0
 70
128
 71
7
 72
8
 73
2
 74
1
 0
VERTEX
 8
CUBE
 10
0
 20
0
 30
0
 70
128
 71
2
 72
8
 73
6
 74
4
 0
VERTEX
 8
CUBE
 10
0
 20
0
 30
0
 70
128
 71
7
 72
1
 73
3
 74
5
 0
SEQEND
 0
POLYLINE
 8
CYLINDER_2
 66
1
 10
0.0
 20
0.0
 30
0.0
 70
64
 71
146
 72
108
 0
VERTEX
 8
CYLINDER_2
 10
0
 20
0
 30
0.5574
 70
192
 0
VERTEX
 8
CYLINDER_2
 10
0
 20
0
 30
0.5795
 70
192
 0
VERTEX
 8
CYLINDER_2
 10
0.5668
 20
0
 30
0.5574
 70
192
 0
VERTEX
 8
CYLINDER_2
 10
0.5668
 20
0
 30
0.5574
 70
192
 0
VERTEX
 8
CYLINDER_2
 10
0.5668
 20
0
 30
0.5795
 70
192
 0
VERTEX
 8
CYLINDER_2
 10
0.5668
 20
0
 30
0.5795
 70
192
 0
VERTEX
 8
CYLINDER_2
 10
0.5582
 20
0.0984
 30
0.5574
 70
192
 0
VERTEX
 8
CYLINDER_2
 10
0.5582
 20
0.0984
 30
0.5574
 70
192
 0
VERTEX
 8
CYLINDER_2
 10
0.5582
 20
0.0984
 30
0.5795
 70
192
 0
VERTEX
 8
CYLINDER_2
 10
0.5582
 20
0.0984
 30
0.5795
 70
192
 0
VERTEX
 8
CYLINDER_2
 10
0.5326
 20
0.1939
 30
0.5574
 70
192
 0
VERTEX
 8
CYLINDER_2
 10
0.5326
 20
0.1939
 30
0.5574
 70
192
 0
VERTEX
 8
CYLINDER_2
 10
0.5326
 20
0.1939
 30
0.5795
 70
192
 0
VERTEX
 8
CYLINDER_2
 10
0.5326
 20
0.1939
 30
0.5795
 70
192
 0
VERTEX
 8
CYLINDER_2
 10
0.4909
 20
0.2834
 30
0.5574
 70
192
 0
VERTEX
 8
CYLINDER_2
 10
0.4909
 20
0.2834
 30
0.5574
 70
192
 0
VERTEX
 8
CYLINDER_2
 10
0.4909
 20
0.2834
 30
0.5795
 70
192
 0
VERTEX
 8
CYLINDER_2
 10
0.4909
 20
0.2834
 30
0.5795
 70
192
 0
VERTEX
 8
CYLINDER_2
 10
0.4342
 20
0.3643
 30
0.5574
 70
192
 0
VERTEX
 8
CYLINDER_2
 10
0.4342
 20
0.3643
 30
0.5574
 70
192
 0
VERTEX
 8
CYLINDER_2
 10
0.4342
 20
0.3643
 30
0.5795
 70
192
 0
VERTEX
 8
CYLINDER_2
 10
0.4342
 20
0.3643
 30
0.5795
 70
192
 0
VERTEX
 8
CYLINDER_2
 10
0.3643
 20
0.4342
 30
0.5574
 70
192
 0
VERTEX
 8
CYLINDER_2
 10
0.3643
 20
0.4342
 30
0.5574
 70
192
 0
VERTEX
 8
CYLINDER_2
 10
0.3643
 20
0.4342
 30
0.5795
 70
192
 0
VERTEX
 8
CYLINDER_2
 10
0.3643
 20
0.4342
 30
0.5795
 70
192
 0
VERTEX
 8
CYLINDER_2
 10
0.2834
 20
0.4909
 30
0.5574
 70
192
 0
VERTEX
 8
CYLINDER_2
 10
0.2834
 20
0.4909
 30
0.5574
 70
192
 0
VERTEX
 8
CYLINDER_2
 10
0.2834
 20
0.4909
 30
0.5795
 70
192
 0
VERTEX
 8
CYLINDER_2
 10
0.2834
 20
0.4909
 30
0.5795
 70
192
 0
VERTEX
 8
CYLINDER_2
 10
0.1939
 20
0.5326
 30
0.5574
 70
192
 0
VERTEX
 8
CYLINDER_2
 10
0.1939
 20
0.5326
 30
0.5574
 70
192
 0
VERTEX
 8
CYLINDER_2
 10
0.1939
 20
0.5326
 30
0.5795
 70
192
 0
VERTEX
 8
CYLINDER_2
 10
0.1939
 20
0.5326
 30
0.5795
 70
192
 0
VERTEX
 8
CYLINDER_2
 10
0.0984
 20
0.5582
 30
0.5574
 70
192
 0
VERTEX
 8
CYLINDER_2
 10
0.0984
 20
0.5582
 30
0.5574
 70
192
 0
VERTEX
 8
CYLINDER_2
 10
0.0984
 20
0.5582
 30
0.5795
 70
192
 0
VERTEX
 8
CYLINDER_2
 10
0.0984
 20
0.5582
 30
0.5795
 70
192
 0
VERTEX
 8
CYLINDER_2
 10
0
 20
0.5668
 30
0.5574
 70
192
 0
VERTEX
 8
CYLINDER_2
 10
0
 20
0.5668
 30
0.5574
 70
192
 0
VERTEX
 8
CYLINDER_2
 10
0
 20
0.5668
 30
0.5795
 70
192
 0
VERTEX
 8
CYLINDER_2
 10
0
 20
0.5668
 30
0.5795
 70
192
 0
VERTEX
 8
CYLINDER_2
 10
-0.0984
 20
0.5582
 30
0.5574
 70
192
 0
VERTEX
 8
CYLINDER_2
 10
-0.0984
 20
0.5582
 30
0.5574
 70
192
 0
VERTEX
 8
CYLINDER_2
 10
-0.0984
 20
0.5582
 30
0.5795
 70
192
 0
VERTEX
 8
CYLINDER_2
 10
-0.0984
 20
0.5582
 30
0.5795
 70
192
 0
VERTEX
 8
CYLINDER_2
 10
-0.1939
 20
0.5326
 30
0.5574
 70
192
 0
VERTEX
 8
CYLINDER_2
 10
-0.1939
 20
0.5326
 30
0.5574
 70
192
 0
VERTEX
 8
CYLINDER_2
 10
-0.1939
 20
0.5326
 30
0.5795
 70
192
 0
VERTEX
 8
CYLINDER_2
 10
-0.1939
 20
0.5326
 30
0.5795
 70
192
 0
VERTEX
 8
CYLINDER_2
 10
-0.2834
 20
0.4909
 30
0.5574
 70
192
 0
VERTEX
 8
CYLINDER_2
 10
-0.2834
 20
0.4909
 30
0.5574
 70
192
 0
VERTEX
 8
CYLINDER_2
 10
-0.2834
 20
0.4909
 30
0.5795
 70
192
 0
VERTEX
 8
CYLINDER_2
 10
-0.2834
 20
0.4909
 30
0.5795
 70
192
 0
VERTEX
 8
CYLINDER_2
 10
-0.3643
 20
0.4342
 30
0.5574
 70
192
 0
VERTEX
 8
CYLINDER_2
 10
-0.3643
 20
0.4342
 30
0.5574
 70
192
 0
VERTEX
 8
CYLINDER_2
 10
-0.3643
 20
0.4342
 30
0.5795
 70
192
 0
VERTEX
 8
CYLINDER_2
 10
-0.3643
 20
0.4342
 30
0.5795
 70
192
 0
VERTEX
 8
CYLINDER_2
 10
-0.4342
 20
0.3643
 30
0.5574
 70
192
 0
VERTEX
 8
CYLINDER_2
 10
-0.4342
 20
0.3643
 30
0.5574
 70
192
 0
VERTEX
 8
CYLINDER_2
 10
-0.4342
 20
0.3643
 30
0.5795
 70
192
 0
VERTEX
 8
CYLINDER_2
 10
-0.4342
 20
0.3643
 30
0.5795
 70
192
 0
VERTEX
 8
CYLINDER_2
 10
-0.4909
 20
0.2834
 30
0.5574
 70
192
 0
VERTEX
 8
CYLINDER_2
 10
-0.4909
 20
0.2834
 30
0.5574
 70
192
 0
VERTEX
 8
CYLINDER_2
 10
-0.4909
 20
0.2834
 30
0.5795
 70
192
 0
VERTEX
 8
CYLINDER_2
 10
-0.4909
 20
0.2834
 30
0.5795
 70
192
 0
VERTEX
 8
CYLINDER_2
 10
-0.5326
 20
0.1939
 30
0.5574
 70
192
 0
VERTEX
 8
CYLINDER_2
 10
-0.5326
 20
0.1939
 30
0.5574
 70
192
 0
VERTEX
 8
CYLINDER_2
 10
-0.5326
 20
0.1939
 30
0.5795
 70
192
 0
VERTEX
 8
CYLINDER_2
 10
-0.5326
 20
0.1939
 30
0.5795
 70
192
 0
VERTEX
 8
CYLINDER_2
 10
-0.5582
 20
0.0984
 30
0.5574
 70
192
 0
VERTEX
 8
CYLINDER_2
 10
-0.5582
 20
0.0984
 30
0.5574
 70
192
 0
VERTEX
 8
CYLINDER_2
 10
-0.5582
 20
0.0984
 30
0.5795
 70
192
 0
VERTEX
 8
CYLINDER_2
 10
-0.5582
 20
0.0984
 30
0.5795
 70
192
 0
VERTEX
 8
CYLINDER_2
 10
-0.5668
 20
0
 30
0.5574
 70
192
 0
VERTEX
 8
CYLINDER_2
 10
-0.5668
 20
0
 30
0.5574
 70
192
 0
VERTEX
 8
CYLINDER_2
 10
-0.5668
 20
0
 30
0.5795
 70
192
 0
VERTEX
 8
CYLINDER_2
 10
-0.5668
 20
0
 30
0.5795
 70
192
 0
VERTEX
 8
CYLINDER_2
 10
-0.5582
 20
-0.0984
 30
0.5574
 70
192
 0
VERTEX
 8
CYLINDER_2
 10
-0.5582
 20
-0.0984
 30
0.5574
 70
192
 0
VERTEX
 8
CYLINDER_2
 10
-0.5582
 20
-0.0984
 30
0.5795
 70
192
 0
VERTEX
 8
CYLINDER_2
 10
-0.5582
 20
-0.0984
 30
0.5795
 70
192
 0
VERTEX
 8
CYLINDER_2
 10
-0.5326
 20
-0.1939
 30
0.5574
 70
192
 0
VERTEX
 8
CYLINDER_2
 10
-0.5326
 20
-0.1939
 30
0.5574
 70
192
 0
VERTEX
 8
CYLINDER_2
 10
-0.5326
 20
-0.1939
 30
0.5795
 70
192
 0
VERTEX
 8
CYLINDER_2
 10
-0.5326
 20
-0.1939
 30
0.5795
 70
192
 0
VERTEX
 8
CYLINDER_2
 10
-0.4909
 20
-0.2834
 30
0.5574
 70
192
 0
VERTEX
 8
CYLINDER_2
 10
-0.4909
 20
-0.2834
 30
0.5574
 70
192
 0
VERTEX
 8
CYLINDER_2
 10
-0.4909
 20
-0.2834
 30
0.5795
 70
192
 0
VERTEX
 8
CYLINDER_2
 10
-0.4909
 20
-0.2834
 30
0.5795
 70
192
 0
VERTEX
 8
CYLINDER_2
 10
-0.4342
 20
-0.3643
 30
0.5574
 70
192
 0
VERTEX
 8
CYLINDER_2
 10
-0.4342
 20
-0.3643
 30
0.5574
 70
192
 0
VERTEX
 8
CYLINDER_2
 10
-0.4342
 20
-0.3643
 30
0.5795
 70
192
 0
VERTEX
 8
CYLINDER_2
 10
-0.4342
 20
-0.3643
 30
0.5795
 70
192
 0
VERTEX
 8
CYLINDER_2
 10
-0.3643
 20
-0.4342
 30
0.5574
 70
192
 0
VERTEX
 8
CYLINDER_2
 10
-0.3643
 20
-0.4342
 30
0.5574
 70
192
 0
VERTEX
 8
CYLINDER_2
 10
-0.3643
 20
-0.4342
 30
0.5795
 70
192
 0
VERTEX
 8
CYLINDER_2
 10
-0.3643
 20
-0.4342
 30
0.5795
 70
192
 0
VERTEX
 8
CYLINDER_2
 10
-0.2834
 20
-0.4909
 30
0.5574
 70
192
 0
VERTEX
 8
CYLINDER_2
 10
-0.2834
 20
-0.4909
 30
0.5574
 70
192
 0
VERTEX
 8
CYLINDER_2
 10
-0.2834
 20
-0.4909
 30
0.5795
 70
192
 0
VERTEX
 8
CYLINDER_2
 10
-0.2834
 20
-0.4909
 30
0.5795
 70
192
 0
VERTEX
 8
CYLINDER_2
 10
-0.1939
 20
-0.5326
 30
0.5574
 70
192
 0
VERTEX
 8
CYLINDER_2
 10
-0.1939
 20
-0.5326
 30
0.5574
 70
192
 0
VERTEX
 8
CYLINDER_2
 10
-0.1939
 20
-0.5326
 30
0.5795
 70
192
 0
VERTEX
 8
CYLINDER_2
 10
-0.1939
 20
-0.5326
 30
0.5795
 70
192
 0
VERTEX
 8
CYLINDER_2
 10
-0.0984
 20
-0.5582
 30
0.5574
 70
192
 0
VERTEX
 8
CYLINDER_2
 10
-0.0984
 20
-0.5582
 30
0.5574
 70
192
 0
VERTEX
 8
CYLINDER_2
 10
-0.0984
 20
-0.5582
 30
0.5795
 70
192
 0
VERTEX
 8
CYLINDER_2
 10
-0.0984
 20
-0.5582
 30
0.5795
 70
192
 0
VERTEX
 8
CYLINDER_2
 10
0
 20
-0.5668
 30
0.5574
 70
192
 0
VERTEX
 8
CYLINDER_2
 10
0
 20
-0.5668
 30
0.5574
 70
192
 0
VERTEX
 8
CYLINDER_2
 10
0
 20
-0.5668
 30
0.5795
 70
192
 0
VERTEX
 8
CYLINDER_2
 10
0
 20
-0.5668
 30
0.5795
 70
192
 0
VERTEX
 8
CYLINDER_2
 10
0.0984
 20
-0.5582
 30
0.5574
 70
192
 0
VERTEX
 8
CYLINDER_2
 10
0.0984
 20
-0.5582
 30
0.5574
 70
192
 0
VERTEX
 8
CYLINDER_2
 10
0.0984
 20
-0.5582
 30
0.5795
 70
192
 0
VERTEX
 8
CYLINDER_2
 10
0.0984
 20
-0.5582
 30
0.5795
 70
192
 0
VERTEX
 8
CYLINDER_2
 10
0.1939
 20
-0.5326
 30
0.5574
 70
192
 0
VERTEX
 8
CYLINDER_2
 10
0.1939
 20
-0.5326
 30
0.5574
 70
192
 0
VERTEX
 8
CYLINDER_2
 10
0.1939
 20
-0.5326
 30
0.5795
 70
192
 0
VERTEX
 8
CYLINDER_2
 10
0.1939
 20
-0.5326
 30
0.5795
 70
192
 0
VERTEX
 8
CYLINDER_2
 10
0.2834
 20
-0.4909
 30
0.5574
 70
192
 0
VERTEX
 8
CYLINDER_2
 10
0.2834
 20
-0.4909
 30
0.5574
 70
192
 0
VERTEX
 8
CYLINDER_2
 10
0.2834
 20
-0.4909
 30
0.5795
 70
192
 0
VERTEX
 8
CYLINDER_2
 10
0.2834
 20
-0.4909
 30
0.5795
 70
192
 0
VERTEX
 8
CYLINDER_2
 10
0.3643
 20
-0.4342
 30
0.5574
 70
192
 0
VERTEX
 8
CYLINDER_2
 10
0.3643
 20
-0.4342
 30
0.5574
 70
192
 0
VERTEX
 8
CYLINDER_2
 10
0.3643
 20
-0.4342
 30
0.5795
 70
192
 0
VERTEX
 8
CYLINDER_2
 10
0.3643
 20
-0.4342
 30
0.5795
 70
192
 0
VERTEX
 8
CYLINDER_2
 10
0.4342
 20
-0.3643
 30
0.5574
 70
192
 0
VERTEX
 8
CYLINDER_2
 10
0.4342
 20
-0.3643
 30
0.5574
 70
192
 0
VERTEX
 8
CYLINDER_2
 10
0.4342
 20
-0.3643
 30
0.5795
 70
192
 0
VERTEX
 8
CYLINDER_2
 10
0.4342
 20
-0.3643
 30
0.5795
 70
192
 0
VERTEX
 8
CYLINDER_2
 10
0.4909
 20
-0.2834
 30
0.5574
 70
192
 0
VERTEX
 8
CYLINDER_2
 10
0.4909
 20
-0.2834
 30
0.5574
 70
192
 0
VERTEX
 8
CYLINDER_2
 10
0.4909
 20
-0.2834
 30
0.5795
 70
192
 0
VERTEX
 8
CYLINDER_2
 10
0.4909
 20
-0.2834
 30
0.5795
 70
192
 0
VERTEX
 8
CYLINDER_2
 10
0.5326
 20
-0.1939
 30
0.5574
 70
192
 0
VERTEX
 8
CYLINDER_2
 10
0.5326
 20
-0.1939
 30
0.5574
 70
192
 0
VERTEX
 8
CYLINDER_2
 10
0.5326
 20
-0.1939
 30
0.5795
 70
192
 0
VERTEX
 8
CYLINDER_2
 10
0.5326
 20
-0.1939
 30
0.5795
 70
192
 0
VERTEX
 8
CYLINDER_2
 10
0.5582
 20
-0.0984
 30
0.5574
 70
192
 0
VERTEX
 8
CYLINDER_2
 10
0.5582
 20
-0.0984
 30
0.5574
 70
192
 0
VERTEX
 8
CYLINDER_2
 10
0.5582
 20
-0.0984
 30
0.5795
 70
192
 0
VERTEX
 8
CYLINDER_2
 10
0.5582
 20
-0.0984
 30
0.5795
 70
192
 0
VERTEX
 8
CYLINDER_2
 10
0
 20
0
 30
0
 70
128
 71
1
 72
3
 73
7
 74
7
 0
VERTEX
 8
CYLINDER_2
 10
0
 20
0
 30
0
 70
128
 71
4
 72
5
 73
9
 74
8
 0
VERTEX
 8
CYLINDER_2
 10
0
 20
0
 30
0
 70
128
 71
6
 72
2
 73
10
 74
10
 0
VERTEX
 8
CYLINDER_2
 10
0
 20
0
 30
0
 70
128
 71
1
 72
7
 73
11
 74
11
 0
VERTEX
 8
CYLINDER_2
 10
0
 20
0
 30
0
 70
128
 71
8
 72
9
 73
13
 74
12
 0
VERTEX
 8
CYLINDER_2
 10
0
 20
0
 30
0
 70
128
 71
10
 72
2
 73
14
 74
14
 0
VERTEX
 8
CYLINDER_2
 10
0
 20
0
 30
0
 70
128
 71
1
 72
11
 73
15
 74
15
 0
VERTEX
 8
CYLINDER_2
 10
0
 20
0
 30
0
 70
128
 71
12
 72
13
 73
17
 74
16
 0
VERTEX
 8
CYLINDER_2
 10
0
 20
0
 30
0
 70
128
 71
14
 72
2
 73
18
 74
18
 0
VERTEX
 8
CYLINDER_2
 10
0
 20
0
 30
0
 70
128
 71
1
 72
15
 73
19
 74
19
 0
VERTEX
 8
CYLINDER_2
 10
0
 20
0
 30
0
 70
128
 71
16
 72
17
 73
21
 74
20
 0
VERTEX
 8
CYLINDER_2
 10
0
 20
0
 30
0
 70
128
 71
18
 72
2
 73
22
 74
22
 0
VERTEX
 8
CYLINDER_2
 10
0
 20
0
 30
0
 70
128
 71
1
 72
19
 73
23
 74
23
 0
VERTEX
 8
CYLINDER_2
 10
0
 20
0
 30
0
 70
128
 71
20
 72
21
 73
25
 74
24
 0
VERTEX
 8
CYLINDER_2
 10
0
 20
0
 30
0
 70
128
 71
22
 72
2
 73
26
 74
26
 0
VERTEX
 8
CYLINDER_2
 10
0
 20
0
 30
0
 70
128
 71
1
 72
23
 73
27
 74
27
 0
VERTEX
 8
CYLINDER_2
 10
0
 20
0
 30
0
 70
128
 71
24
 72
25
 73
29
 74
28
 0
VERTEX
 8
CYLINDER_2
 10
0
 20
0
 30
0
 70
128
 71
26
 72
2
 73
30
 74
30
 0
VERTEX
 8
CYLINDER_2
 10
0
 20
0
 30
0
 70
128
 71
1
 72
27
 73
31
 74
31
 0
VERTEX
 8
CYLINDER_2
 10
0
 20
0
 30
0
 70
128
 71
28
 72
29
 73
33
 74
32
 0
VERTEX
 8
CYLINDER_2
 10
0
 20
0
 30
0
 70
128
 71
30
 72
2
 73
34
 74
34
 0
VERTEX
 8
CYLINDER_2
 10
0
 20
0
 30
0
 70
128
 71
1
 72
31
 73
35
 74
35
 0
VERTEX
 8
CYLINDER_2
 10
0
 20
0
 30
0
 70
128
 71
32
 72
33
 73
37
 74
36
 0
VERTEX
 8
CYLINDER_2
 10
0
 20
0
 30
0
 70
128
 71
34
 72
2
 73
38
 74
38
 0
VERTEX
 8
CYLINDER_2
 10
0
 20
0
 30
0
 70
128
 71
1
 72
35
 73
39
 74
39
 0
VERTEX
 8
CYLINDER_2
 10
0
 20
0
 30
0
 70
128
 71
36
 72
37
 73
41
 74
40
 0
VERTEX
 8
CYLINDER_2
 10
0
 20
0
 30
0
 70
128
 71
38
 72
2
 73
42
 74
42
 0
VERTEX
 8
CYLINDER_2
 10
0
 20
0
 30
0
 70
128
 71
1
 72
39
 73
43
 74
43
 0
VERTEX
 8
CYLINDER_2
 10
0
 20
0
 30
0
 70
128
 71
40
 72
41
 73
45
 74
44
 0
VERTEX
 8
CYLINDER_2
 10
0
 20
0
 30
0
 70
128
 71
42
 72
2
 73
46
 74
46
 0
VERTEX
 8
CYLINDER_2
 10
0
 20
0
 30
0
 70
128
 71
1
 72
43
 73
47
 74
47
 0
VERTEX
 8
CYLINDER_2
 10
0
 20
0
 30
0
 70
128
 71
44
 72
45
 73
49
 74
48
 0
VERTEX
 8
CYLINDER_2
 10
0
 20
0
 30
0
 70
128
 71
46
 72
2
 73
50
 74
50
 0
VERTEX
 8
CYLINDER_2
 10
0
 20
0
 30
0
 70
128
 71
1
 72
47
 73
51
 74
51
 0
VERTEX
 8
CYLINDER_2
 10
0
 20
0
 30
0
 70
128
 71
48
 72
49
 73
53
 74
52
 0
VERTEX
 8
CYLINDER_2
 10
0
 20
0
 30
0
 70
128
 71
50
 72
2
 73
54
 74
54
 0
VERTEX
 8
CYLINDER_2
 10
0
 20
0
 30
0
 70
128
 71
1
 72
51
 73
55
 74
55
 0
VERTEX
 8
CYLINDER_2
 10
0
 20
0
 30
0
 70
128
 71
52
 72
53
 73
57
 74
56
 0
VERTEX
 8
CYLINDER_2
 10
0
 20
0
 30
0
 70
128
 71
54
 72
2
 73
58
 74
58
 0
VERTEX
 8
CYLINDER_2
 10
0
 20
0
 30
0
 70
128
 71
1
 72
55
 73
59
 74
59
 0
VERTEX
 8
CYLINDER_2
 10
0
 20
0
 30
0
 70
128
 71
56
 72
57
 73
61
 74
60
 0
VERTEX
 8
CYLINDER_2
 10
0
 20
0
 30
0
 70
128
 71
58
 72
2
 73
62
 74
62
 0
VERTEX
 8
CYLINDER_2
 10
0
 20
0
 30
0
 70
128
 71
1
 72
59
 73
63
 74
63
 0
VERTEX
 8
CYLINDER_2
 10
0
 20
0
 30
0
 70
128
 71
60
 72
61
 73
65
 74
64
 0
VERTEX
 8
CYLINDER_2
 10
0
 20
0
 30
0
 70
128
 71
62
 72
2
 73
66
 74
66
 0
VERTEX
 8
CYLINDER_2
 10
0
 20
0
 30
0
 70
128
 71
1
 72
63
 73
67
 74
67
 0
VERTEX
 8
CYLINDER_2
 10
0
 20
0
 30
0
 70
128
 71
64
 72
65
 73
69
 74
68
 0
VERTEX
 8
CYLINDER_2
 10
0
 20
0
 30
0
 70
128
 71
66
 72
2
 73
70
 74
70
 0
VERTEX
 8
CYLINDER_2
 10
0
 20
0
 30
0
 70
128
 71
1
 72
67
 73
71
 74
71
 0
VERTEX
 8
CYLINDER_2
 10
0
 20
0
 30
0
 70
128
 71
68
 72
69
 73
73
 74
72
 0
VERTEX
 8
CYLINDER_2
 10
0
 20
0
 30
0
 70
128
 71
70
 72
2
 73
74
 74
74
 0
VERTEX
 8
CYLINDER_2
 10
0
 20
0
 30
0
 70
128
 71
1
 72
71
 73
75
 74
75
 0
VERTEX
 8
CYLINDER_2
 10
0
 20
0
 30
0
 70
128
 71
72
 72
73
 73
77
 74
76
 0
VERTEX
 8
CYLINDER_2
 10
0
 20
0
 30
0
 70
128
 71
74
 72
2
 73
78
 74
78
 0
VERTEX
 8
CYLINDER_2
 10
0
 20
0
 30
0
 70
128
 71
1
 72
75
 73
79
 74
79
 0
VERTEX
 8
CYLINDER_2
 10
0
 20
0
 30
0
 70
128
 71
76
 72
77
 73
81
 74
80
 0
VERTEX
 8
CYLINDER_2
 10
0
 20
0
 30
0
 70
128
 71
78
 72
2
 73
82
 74
82
 0
VERTEX
 8
CYLINDER_2
 10
0
 20
0
 30
0
 70
128
 71
1
 72
79
 73
83
 74
83
 0
VERTEX
 8
CYLINDER_2
 10
0
 20
0
 30
0
 70
128
 71
80
 72
81
 73
85
 74
84
 0
VERTEX
 8
CYLINDER_2
 10
0
 20
0
 30
0
 70
128
 71
82
 72
2
 73
86
 74
86
 0
VERTEX
 8
CYLINDER_2
 10
0
 20
0
 30
0
 70
128
 71
1
 72
83
 73
87
 74
87
 0
VERTEX
 8
CYLINDER_2
 10
0
 20
0
 30
0
 70
128
 71
84
 72
85
 73
89
 74
88
 0
VERTEX
 8
CYLINDER_2
 10
0
 20
0
 30
0
 70
128
 71
86
 72
2
 73
90
 74
90
 0
VERTEX
 8
CYLINDER_2
 10
0
 20
0
 30
0
 70
128
 71
1
 72
87
 73
91
 74
91
 0
VERTEX
 8
CYLINDER_2
 10
0
 20
0
 30
0
 70
128
 71
88
 72
89
 73
93
 74
92
 0
VERTEX
 8
CYLINDER_2
 10
0
 20
0
 30
0
 70
128
 71
90
 72
2
 73
94
 74
94
 0
VERTEX
 8
CYLINDER_2
 10
0
 20
0
 30
0
 70
128
 71
1
 72
91
 73
95
 74
95
 0
VERTEX
 8
CYLINDER_2
 10
0
 20
0
 30
0
 70
128
 71
92
 72
93
 73
97
 74
96
 0
VERTEX
 8
CYLINDER_2
 10
0
 20
0
 30
0
 70
128
 71
94
 72
2
 73
98
 74
98
 0
VERTEX
 8
CYLINDER_2
 10
0
 20
0
 30
0
 70
128
 71
1
 72
95
 73
99
 74
99
 0
VERTEX
 8
CYLINDER_2
 10
0
 20
0
 30
0
 70
128
 71
96
 72
97
 73
101
 74
100
 0
VERTEX
 8
CYLINDER_2
 10
0
 20
0
 30
0
 70
128
 71
98
 72
2
 73
102
 74
102
 0
VERTEX
 8
CYLINDER_2
 10
0
 20
0
 30
0
 70
128
 71
1
 72
99
 73
103
 74
103
 0
VERTEX
 8
CYLINDER_2
 10
0
 20
0
 30
0
 70
128
 71
100
 72
101
 73
105
 74
104
 0
VERTEX
 8
CYLINDER_2
 10
0
 20
0
 30
0
 70
128
 71
102
 72
2
 73
106
 74
106
 0
VERTEX
 8
CYLINDER_2
 10
0
 20
0
 30
0
 70
128
 71
1
 72
103
 73
107
 74
107
 0
VERTEX
 8
CYLINDER_2
 10
0
 20
0
 30
0
 70
128
 71
104
 72
105
 73
109
 74
108
 0
VERTEX
 8
CYLINDER_2
 10
0
 20
0
 30
0
 70
128
 71
106
 72
2
 73
110
 74
110
 0
VERTEX
 8
CYLINDER_2
 10
0
 20
0
 30
0
 70
128
 71
1
 72
107
 73
111
 74
111
 0
VERTEX
 8
CYLINDER_2
 10
0
 20
0
 30
0
 70
128
 71
108
 72
109
 73
113
 74
112
 0
VERTEX
 8
CYLINDER_2
 10
0
 20
0
 30
0
 70
128
 71
110
 72
2
 73
114
 74
114
 0
VERTEX
 8
CYLINDER_2
 10
0
 20
0
 30
0
 70
128
 71
1
 72
111
 73
115
 74
115
 0
VERTEX
 8
CYLINDER_2
 10
0
 20
0
 30
0
 70
128
 71
112
 72
113
 73
117
 74
116
 0
VERTEX
 8
CYLINDER_2
 10
0
 20
0
 30
0
 70
128
 71
114
 72
2
 73
118
 74
118
 0
VERTEX
 8
CYLINDER_2
 10
0
 20
0
 30
0
 70
128
 71
1
 72
115
 73
119
 74
119
 0
VERTEX
 8
CYLINDER_2
 10
0
 20
0
 30
0
 70
128
 71
116
 72
117
 73
121
 74
120
 0
VERTEX
 8
CYLINDER_2
 10
0
 20
0
 30
0
 70
128
 71
118
 72
2
 73
122
 74
122
 0
VERTEX
 8
CYLINDER_2
 10
0
 20
0
 30
0
 70
128
 71
1
 72
119
 73
123
 74
123
 0
VERTEX
 8
CYLINDER_2
 10
0
 20
0
 30
0
 70
128
 71
120
 72
121
 73
125
 74
124
 0
VERTEX
 8
CYLINDER_2
 10
0
 20
0
 30
0
 70
128
 71
122
 72
2
 73
126
 74
126
 0
VERTEX
 8
CYLINDER_2
 10
0
 20
0
 30
0
 70
128
 71
1
 72
123
 73
127
 74
127
 0
VERTEX
 8
CYLINDER_2
 10
0
 20
0
 30
0
 70
128
 71
124
 72
125
 73
129
 74
128
 0
VERTEX
 8
CYLINDER_2
 10
0
 20
0
 30
0
 70
128
 71
126
 72
2
 73
130
 74
130
 0
VERTEX
 8
CYLINDER_2
 10
0
 20
0
 30
0
 70
128
 71
1
 72
127
 73
131
 74
131
 0
VERTEX
 8
CYLINDER_2
 10
0
 20
0
 30
0
 70
128
 71
128
 72
129
 73
133
 74
132
 0
VERTEX
 8
CYLINDER_2
 10
0
 20
0
 30
0
 70
128
 71
130
 72
2
 73
134
 74
134
 0
VERTEX
 8
CYLINDER_2
 10
0
 20
0
 30
0
 70
128
 71
1
 72
131
 73
135
 74
135
 0
VERTEX
 8
CYLINDER_2
 10
0
 20
0
 30
0
 70
128
 71
132
 72
133
 73
137
 74
136
 0
VERTEX
 8
CYLINDER_2
 10
0
 20
0
 30
0
 70
128
 71
134
 72
2
 73
138
 74
138
 0
VERTEX
 8
CYLINDER_2
 10
0
 20
0
 30
0
 70
128
 71
1
 72
135
 73
139
 74
139
 0
VERTEX
 8
CYLINDER_2
 10
0
 20
0
 30
0
 70
128
 71
136
 72
137
 73
141
 74
140
 0
VERTEX
 8
CYLINDER_2
 10
0
 20
0
 30
0
 70
128
 71
138
 72
2
 73
142
 74
142
 0
VERTEX
 8
CYLINDER_2
 10
0
 20
0
 30
0
 70
128
 71
1
 72
139
 73
143
 74
143
 0
VERTEX
 8
CYLINDER_2
 10
0
 20
0
 30
0
 70
128
 71
140
 72
141
 73
145
 74
144
 0
VERTEX
 8
CYLINDER_2
 10
0
 20
0
 30
0
 70
128
 71
142
 72
2
 73
146
 74
146
 0
VERTEX
 8
CYLINDER_2
 10
0
 20
0
 30
0
 70
128
 71
1
 72
143
 73
3
 74
3
 0
VERTEX
 8
CYLINDER_2
 10
0
 20
0
 30
0
 70
128
 71
144
 72
145
 73
5
 74
4
 0
VERTEX
 8
CYLINDER_2
 10
0
 20
0
 30
0
 70
128
 71
146
 72
2
 73
6
 74
6
 0
SEQEND
 0
POLYLINE
 8
CYLINDER_1
 66
1
 10
0.0
 20
0.0
 30
0.0
 70
64
 71
146
 72
108
 0
VERTEX
 8
CYLINDER_1
 10
0
 20
0
 30
0.5779
 70
192
 0
VERTEX
 8
CYLINDER_1
 10
0
 20
0
 30
0.6279
 70
192
 0
VERTEX
 8
CYLINDER_1
 10
0.5563
 20
0
 30
0.5779
 70
192
 0
VERTEX
 8
CYLINDER_1
 10
0.5563
 20
0
 30
0.5779
 70
192
 0
VERTEX
 8
CYLINDER_1
 10
0.5563
 20
0
 30
0.6279
 70
192
 0
VERTEX
 8
CYLINDER_1
 10
0.5563
 20
0
 30
0.6279
 70
192
 0
VERTEX
 8
CYLINDER_1
 10
0.5478
 20
0.0966
 30
0.5779
 70
192
 0
VERTEX
 8
CYLINDER_1
 10
0.5478
 20
0.0966
 30
0.5779
 70
192
 0
VERTEX
 8
CYLINDER_1
 10
0.5478
 20
0.0966
 30
0.6279
 70
192
 0
VERTEX
 8
CYLINDER_1
 10
0.5478
 20
0.0966
 30
0.6279
 70
192
 0
VERTEX
 8
CYLINDER_1
 10
0.5227
 20
0.1903
 30
0.5779
 70
192
 0
VERTEX
 8
CYLINDER_1
 10
0.5227
 20
0.1903
 30
0.5779
 70
192
 0
VERTEX
 8
CYLINDER_1
 10
0.5227
 20
0.1903
 30
0.6279
 70
192
 0
VERTEX
 8
CYLINDER_1
 10
0.5227
 20
0.1903
 30
0.6279
 70
192
 0
VERTEX
 8
CYLINDER_1
 10
0.4817
 20
0.2781
 30
0.5779
 70
192
 0
VERTEX
 8
CYLINDER_1
 10
0.4817
 20
0.2781
 30
0.5779
 70
192
 0
VERTEX
 8
CYLINDER_1
 10
0.4817
 20
0.2781
 30
0.6279
 70
192
 0
VERTEX
 8
CYLINDER_1
 10
0.4817
 20
0.2781
 30
0.6279
 70
192
 0
VERTEX
 8
CYLINDER_1
 10
0.4261
 20
0.3576
 30
0.5779
 70
192
 0
VERTEX
 8
CYLINDER_1
 10
0.4261
 20
0.3576
 30
0.5779
 70
192
 0
VERTEX
 8
CYLINDER_1
 10
0.4261
 20
0.3576
 30
0.6279
 70
192
 0
VERTEX
 8
CYLINDER_1
 10
0.4261
 20
0.3576
 30
0.6279
 70
192
 0
VERTEX
 8
CYLINDER_1
 10
0.3576
 20
0.4261
 30
0.5779
 70
192
 0
VERTEX
 8
CYLINDER_1
 10
0.3576
 20
0.4261
 30
0.5779
 70
192
 0
VERTEX
 8
CYLINDER_1
 10
0.3576
 20
0.4261
 30
0.6279
 70
192
 0
VERTEX
 8
CYLINDER_1
 10
0.3576
 20
0.4261
 30
0.6279
 70
192
 0
VERTEX
 8
CYLINDER_1
 10
0.2781
 20
0.4817
 30
0.5779
 70
192
 0
VERTEX
 8
CYLINDER_1
 10
0.2781
 20
0.4817
 30
0.5779
 70
192
 0
VERTEX
 8
CYLINDER_1
 10
0.2781
 20
0.4817
 30
0.6279
 70
192
 0
VERTEX
 8
CYLINDER_1
 10
0.2781
 20
0.4817
 30
0.6279
 70
192
 0
VERTEX
 8
CYLINDER_1
 10
0.1903
 20
0.5227
 30
0.5779
 70
192
 0
VERTEX
 8
CYLINDER_1
 10
0.1903
 20
0.5227
 30
0.5779
 70
192
 0
VERTEX
 8
CYLINDER_1
 10
0.1903
 20
0.5227
 30
0.6279
 70
192
 0
VERTEX
 8
CYLINDER_1
 10
0.1903
 20
0.5227
 30
0.6279
 70
192
 0
VERTEX
 8
CYLINDER_1
 10
0.0966
 20
0.5478
 30
0.5779
 70
192
 0
VERTEX
 8
CYLINDER_1
 10
0.0966
 20
0.5478
 30
0.5779
 70
192
 0
VERTEX
 8
CYLINDER_1
 10
0.0966
 20
0.5478
 30
0.6279
 70
192
 0
VERTEX
 8
CYLINDER_1
 10
0.0966
 20
0.5478
 30
0.6279
 70
192
 0
VERTEX
 8
CYLINDER_1
 10
0
 20
0.5563
 30
0.5779
 70
192
 0
VERTEX
 8
CYLINDER_1
 10
0
 20
0.5563
 30
0.5779
 70
192
 0
VERTEX
 8
CYLINDER_1
 10
0
 20
0.5563
 30
0.6279
 70
192
 0
VERTEX
 8
CYLINDER_1
 10
0
 20
0.5563
 30
0.6279
 70
192
 0
VERTEX
 8
CYLINDER_1
 10
-0.0966
 20
0.5478
 30
0.5779
 70
192
 0
VERTEX
 8
CYLINDER_1
 10
-0.0966
 20
0.5478
 30
0.5779
 70
192
 0
VERTEX
 8
CYLINDER_1
 10
-0.0966
 20
0.5478
 30
0.6279
 70
192
 0
VERTEX
 8
CYLINDER_1
 10
-0.0966
 20
0.5478
 30
0.6279
 70
192
 0
VERTEX
 8
CYLINDER_1
 10
-0.1903
 20
0.5227
 30
0.5779
 70
192
 0
VERTEX
 8
CYLINDER_1
 10
-0.1903
 20
0.5227
 30
0.5779
 70
192
 0
VERTEX
 8
CYLINDER_1
 10
-0.1903
 20
0.5227
 30
0.6279
 70
192
 0
VERTEX
 8
CYLINDER_1
 10
-0.1903
 20
0.5227
 30
0.6279
 70
192
 0
VERTEX
 8
CYLINDER_1
 10
-0.2781
 20
0.4817
 30
0.5779
 70
192
 0
VERTEX
 8
CYLINDER_1
 10
-0.2781
 20
0.4817
 30
0.5779
 70
192
 0
VERTEX
 8
CYLINDER_1
 10
-0.2781
 20
0.4817
 30
0.6279
 70
192
 0
VERTEX
 8
CYLINDER_1
 10
-0.2781
 20
0.4817
 30
0.6279
 70
192
 0
VERTEX
 8
CYLINDER_1
 10
-0.3576
 20
0.4261
 30
0.5779
 70
192
 0
VERTEX
 8
CYLINDER_1
 10
-0.3576
 20
0.4261
 30
0.5779
 70
192
 0
VERTEX
 8
CYLINDER_1
 10
-0.3576
 20
0.4261
 30
0.6279
 70
192
 0
VERTEX
 8
CYLINDER_1
 10
-0.3576
 20
0.4261
 30
0.6279
 70
192
 0
VERTEX
 8
CYLINDER_1
 10
-0.4261
 20
0.3576
 30
0.5779
 70
192
 0
VERTEX
 8
CYLINDER_1
 10
-0.4261
 20
0.3576
 30
0.5779
 70
192
 0
VERTEX
 8
CYLINDER_1
 10
-0.4261
 20
0.3576
 30
0.6279
 70
192
 0
VERTEX
 8
CYLINDER_1
 10
-0.4261
 20
0.3576
 30
0.6279
 70
192
 0
VERTEX
 8
CYLINDER_1
 10
-0.4817
 20
0.2781
 30
0.5779
 70
192
 0
VERTEX
 8
CYLINDER_1
 10
-0.4817
 20
0.2781
 30
0.5779
 70
192
 0
VERTEX
 8
CYLINDER_1
 10
-0.4817
 20
0.2781
 30
0.6279
 70
192
 0
VERTEX
 8
CYLINDER_1
 10
-0.4817
 20
0.2781
 30
0.6279
 70
192
 0
VERTEX
 8
CYLINDER_1
 10
-0.5227
 20
0.1903
 30
0.5779
 70
192
 0
VERTEX
 8
CYLINDER_1
 10
-0.5227
 20
0.1903
 30
0.5779
 70
192
 0
VERTEX
 8
CYLINDER_1
 10
-0.5227
 20
0.1903
 30
0.6279
 70
192
 0
VERTEX
 8
CYLINDER_1
 10
-0.5227
 20
0.1903
 30
0.6279
 70
192
 0
VERTEX
 8
CYLINDER_1
 10
-0.5478
 20
0.0966
 30
0.5779
 70
192
 0
VERTEX
 8
CYLINDER_1
 10
-0.5478
 20
0.0966
 30
0.5779
 70
192
 0
VERTEX
 8
CYLINDER_1
 10
-0.5478
 20
0.0966
 30
0.6279
 70
192
 0
VERTEX
 8
CYLINDER_1
 10
-0.5478
 20
0.0966
 30
0.6279
 70
192
 0
VERTEX
 8
CYLINDER_1
 10
-0.5563
 20
0
 30
0.5779
 70
192
 0
VERTEX
 8
CYLINDER_1
 10
-0.5563
 20
0
 30
0.5779
 70
192
 0
VERTEX
 8
CYLINDER_1
 10
-0.5563
 20
0
 30
0.6279
 70
192
 0
VERTEX
 8
CYLINDER_1
 10
-0.5563
 20
0
 30
0.6279
 70
192
 0
VERTEX
 8
CYLINDER_1
 10
-0.5478
 20
-0.0966
 30
0.5779
 70
192
 0
VERTEX
 8
CYLINDER_1
 10
-0.5478
 20
-0.0966
 30
0.5779
 70
192
 0
VERTEX
 8
CYLINDER_1
 10
-0.5478
 20
-0.0966
 30
0.6279
 70
192
 0
VERTEX
 8
CYLINDER_1
 10
-0.5478
 20
-0.0966
 30
0.6279
 70
192
 0
VERTEX
 8
CYLINDER_1
 10
-0.5227
 20
-0.1903
 30
0.5779
 70
192
 0
VERTEX
 8
CYLINDER_1
 10
-0.5227
 20
-0.1903
 30
0.5779
 70
192
 0
VERTEX
 8
CYLINDER_1
 10
-0.5227
 20
-0.1903
 30
0.6279
 70
192
 0
VERTEX
 8
CYLINDER_1
 10
-0.5227
 20
-0.1903
 30
0.6279
 70
192
 0
VERTEX
 8
CYLINDER_1
 10
-0.4817
 20
-0.2781
 30
0.5779
 70
192
 0
VERTEX
 8
CYLINDER_1
 10
-0.4817
 20
-0.2781
 30
0.5779
 70
192
 0
VERTEX
 8
CYLINDER_1
 10
-0.4817
 20
-0.2781
 30
0.6279
 70
192
 0
VERTEX
 8
CYLINDER_1
 10
-0.4817
 20
-0.2781
 30
0.6279
 70
192
 0
VERTEX
 8
CYLINDER_1
 10
-0.4261
 20
-0.3576
 30
0.5779
 70
192
 0
VERTEX
 8
CYLINDER_1
 10
-0.4261
 20
-0.3576
 30
0.5779
 70
192
 0
VERTEX
 8
CYLINDER_1
 10
-0.4261
 20
-0.3576
 30
0.6279
 70
192
 0
VERTEX
 8
CYLINDER_1
 10
-0.4261
 20
-0.3576
 30
0.6279
 70
192
 0
VERTEX
 8
CYLINDER_1
 10
-0.3576
 20
-0.4261
 30
0.5779
 70
192
 0
VERTEX
 8
CYLINDER_1
 10
-0.3576
 20
-0.4261
 30
0.5779
 70
192
 0
VERTEX
 8
CYLINDER_1
 10
-0.3576
 20
-0.4261
 30
0.6279
 70
192
 0
VERTEX
 8
CYLINDER_1
 10
-0.3576
 20
-0.4261
 30
0.6279
 70
192
 0
VERTEX
 8
CYLINDER_1
 10
-0.2781
 20
-0.4817
 30
0.5779
 70
192
 0
VERTEX
 8
CYLINDER_1
 10
-0.2781
 20
-0.4817
 30
0.5779
 70
192
 0
VERTEX
 8
CYLINDER_1
 10
-0.2781
 20
-0.4817
 30
0.6279
 70
192
 0
VERTEX
 8
CYLINDER_1
 10
-0.2781
 20
-0.4817
 30
0.6279
 70
192
 0
VERTEX
 8
CYLINDER_1
 10
-0.1903
 20
-0.5227
 30
0.5779
 70
192
 0
VERTEX
 8
CYLINDER_1
 10
-0.1903
 20
-0.5227
 30
0.5779
 70
192
 0
VERTEX
 8
CYLINDER_1
 10
-0.1903
 20
-0.5227
 30
0.6279
 70
192
 0
VERTEX
 8
CYLINDER_1
 10
-0.1903
 20
-0.5227
 30
0.6279
 70
192
 0
VERTEX
 8
CYLINDER_1
 10
-0.0966
 20
-0.5478
 30
0.5779
 70
192
 0
VERTEX
 8
CYLINDER_1
 10
-0.0966
 20
-0.5478
 30
0.5779
 70
192
 0
VERTEX
 8
CYLINDER_1
 10
-0.0966
 20
-0.5478
 30
0.6279
 70
192
 0
VERTEX
 8
CYLINDER_1
 10
-0.0966
 20
-0.5478
 30
0.6279
 70
192
 0
VERTEX
 8
CYLINDER_1
 10
0
 20
-0.5563
 30
0.5779
 70
192
 0
VERTEX
 8
CYLINDER_1
 10
0
 20
-0.5563
 30
0.5779
 70
192
 0
VERTEX
 8
CYLINDER_1
 10
0
 20
-0.5563
 30
0.6279
 70
192
 0
VERTEX
 8
CYLINDER_1
 10
0
 20
-0.5563
 30
0.6279
 70
192
 0
VERTEX
 8
CYLINDER_1
 10
0.0966
 20
-0.5478
 30
0.5779
 70
192
 0
VERTEX
 8
CYLINDER_1
 10
0.0966
 20
-0.5478
 30
0.5779
 70
192
 0
VERTEX
 8
CYLINDER_1
 10
0.0966
 20
-0.5478
 30
0.6279
 70
192
 0
VERTEX
 8
CYLINDER_1
 10
0.0966
 20
-0.5478
 30
0.6279
 70
192
 0
VERTEX
 8
CYLINDER_1
 10
0.1903
 20
-0.5227
 30
0.5779
 70
192
 0
VERTEX
 8
CYLINDER_1
 10
0.1903
 20
-0.5227
 30
0.5779
 70
192
 0
VERTEX
 8
CYLINDER_1
 10
0.1903
 20
-0.5227
 30
0.6279
 70
192
 0
VERTEX
 8
CYLINDER_1
 10
0.1903
 20
-0.5227
 30
0.6279
 70
192
 0
VERTEX
 8
CYLINDER_1
 10
0.2781
 20
-0.4817
 30
0.5779
 70
192
 0
VERTEX
 8
CYLINDER_1
 10
0.2781
 20
-0.4817
 30
0.5779
 70
192
 0
VERTEX
 8
CYLINDER_1
 10
0.2781
 20
-0.4817
 30
0.6279
 70
192
 0
VERTEX
 8
CYLINDER_1
 10
0.2781
 20
-0.4817
 30
0.6279
 70
192
 0
VERTEX
 8
CYLINDER_1
 10
0.3576
 20
-0.4261
 30
0.5779
 70
192
 0
VERTEX
 8
CYLINDER_1
 10
0.3576
 20
-0.4261
 30
0.5779
 70
192
 0
VERTEX
 8
CYLINDER_1
 10
0.3576
 20
-0.4261
 30
0.6279
 70
192
 0
VERTEX
 8
CYLINDER_1
 10
0.3576
 20
-0.4261
 30
0.6279
 70
192
 0
VERTEX
 8
CYLINDER_1
 10
0.4261
 20
-0.3576
 30
0.5779
 70
192
 0
VERTEX
 8
CYLINDER_1
 10
0.4261
 20
-0.3576
 30
0.5779
 70
192
 0
VERTEX
 8
CYLINDER_1
 10
0.4261
 20
-0.3576
 30
0.6279
 70
192
 0
VERTEX
 8
CYLINDER_1
 10
0.4261
 20
-0.3576
 30
0.6279
 70
192
 0
VERTEX
 8
CYLINDER_1
 10
0.4817
 20
-0.2781
 30
0.5779
 70
192
 0
VERTEX
 8
CYLINDER_1
 10
0.4817
 20
-0.2781
 30
0.5779
 70
192
 0
VERTEX
 8
CYLINDER_1
 10
0.4817
 20
-0.2781
 30
0.6279
 70
192
 0
VERTEX
 8
CYLINDER_1
 10
0.4817
 20
-0.2781
 30
0.6279
 70
192
 0
VERTEX
 8
CYLINDER_1
 10
0.5227
 20
-0.1903
 30
0.5779
 70
192
 0
VERTEX
 8
CYLINDER_1
 10
0.5227
 20
-0.1903
 30
0.5779
 70
192
 0
VERTEX
 8
CYLINDER_1
 10
0.5227
 20
-0.1903
 30
0.6279
 70
192
 0
VERTEX
 8
CYLINDER_1
 10
0.5227
 20
-0.1903
 30
0.6279
 70
192
 0
VERTEX
 8
CYLINDER_1
 10
0.5478
 20
-0.0966
 30
0.5779
 70
192
 0
VERTEX
 8
CYLINDER_1
 10
0.5478
 20
-0.0966
 30
0.5779
 70
192
 0
VERTEX
 8
CYLINDER_1
 10
0.5478
 20
-0.0966
 30
0.6279
 70
192
 0
VERTEX
 8
CYLINDER_1
 10
0.5478
 20
-0.0966
 30
0.6279
 70
192
 0
VERTEX
 8
CYLINDER_1
 10
0
 20
0
 30
0
 70
128
 71
1
 72
3
 73
7
 74
7
 0
VERTEX
 8
CYLINDER_1
 10
0
 20
0
 30
0
 70
128
 71
4
 72
5
 73
9
 74
8
 0
VERTEX
 8
CYLINDER_1
 10
0
 20
0
 30
0
 70
128
 71
6
 72
2
 73
10
 74
10
 0
VERTEX
 8
CYLINDER_1
 10
0
 20
0
 30
0
 70
128
 71
1
 72
7
 73
11
 74
11
 0
VERTEX
 8
CYLINDER_1
 10
0
 20
0
 30
0
 70
128
 71
8
 72
9
 73
13
 74
12
 0
VERTEX
 8
CYLINDER_1
 10
0
 20
0
 30
0
 70
128
 71
10
 72
2
 73
14
 74
14
 0
VERTEX
 8
CYLINDER_1
 10
0
 20
0
 30
0
 70
128
 71
1
 72
11
 73
15
 74
15
 0
VERTEX
 8
CYLINDER_1
 10
0
 20
0
 30
0
 70
128
 71
12
 72
13
 73
17
 74
16
 0
VERTEX
 8
CYLINDER_1
 10
0
 20
0
 30
0
 70
128
 71
14
 72
2
 73
18
 74
18
 0
VERTEX
 8
CYLINDER_1
 10
0
 20
0
 30
0
 70
128
 71
1
 72
15
 73
19
 74
19
 0
VERTEX
 8
CYLINDER_1
 10
0
 20
0
 30
0
 70
128
 71
16
 72
17
 73
21
 74
20
 0
VERTEX
 8
CYLINDER_1
 10
0
 20
0
 30
0
 70
128
 71
18
 72
2
 73
22
 74
22
 0
VERTEX
 8
CYLINDER_1
 10
0
 20
0
 30
0
 70
128
 71
1
 72
19
 73
23
 74
23
 0
VERTEX
 8
CYLINDER_1
 10
0
 20
0
 30
0
 70
128
 71
20
 72
21
 73
25
 74
24
 0
VERTEX
 8
CYLINDER_1
 10
0
 20
0
 30
0
 70
128
 71
22
 72
2
 73
26
 74
26
 0
VERTEX
 8
CYLINDER_1
 10
0
 20
0
 30
0
 70
128
 71
1
 72
23
 73
27
 74
27
 0
VERTEX
 8
CYLINDER_1
 10
0
 20
0
 30
0
 70
128
 71
24
 72
25
 73
29
 74
28
 0
VERTEX
 8
CYLINDER_1
 10
0
 20
0
 30
0
 70
128
 71
26
 72
2
 73
30
 74
30
 0
VERTEX
 8
CYLINDER_1
 10
0
 20
0
 30
0
 70
128
 71
1
 72
27
 73
31
 74
31
 0
VERTEX
 8
CYLINDER_1
 10
0
 20
0
 30
0
 70
128
 71
28
 72
29
 73
33
 74
32
 0
VERTEX
 8
CYLINDER_1
 10
0
 20
0
 30
0
 70
128
 71
30
 72
2
 73
34
 74
34
 0
VERTEX
 8
CYLINDER_1
 10
0
 20
0
 30
0
 70
128
 71
1
 72
31
 73
35
 74
35
 0
VERTEX
 8
CYLINDER_1
 10
0
 20
0
 30
0
 70
128
 71
32
 72
33
 73
37
 74
36
 0
VERTEX
 8
CYLINDER_1
 10
0
 20
0
 30
0
 70
128
 71
34
 72
2
 73
38
 74
38
 0
VERTEX
 8
CYLINDER_1
 10
0
 20
0
 30
0
 70
128
 71
1
 72
35
 73
39
 74
39
 0
VERTEX
 8
CYLINDER_1
 10
0
 20
0
 30
0
 70
128
 71
36
 72
37
 73
41
 74
40
 0
VERTEX
 8
CYLINDER_1
 10
0
 20
0
 30
0
 70
128
 71
38
 72
2
 73
42
 74
42
 0
VERTEX
 8
CYLINDER_1
 10
0
 20
0
 30
0
 70
128
 71
1
 72
39
 73
43
 74
43
 0
VERTEX
 8
CYLINDER_1
 10
0
 20
0
 30
0
 70
128
 71
40
 72
41
 73
45
 74
44
 0
VERTEX
 8
CYLINDER_1
 10
0
 20
0
 30
0
 70
128
 71
42
 72
2
 73
46
 74
46
 0
VERTEX
 8
CYLINDER_1
 10
0
 20
0
 30
0
 70
128
 71
1
 72
43
 73
47
 74
47
 0
VERTEX
 8
CYLINDER_1
 10
0
 20
0
 30
0
 70
128
 71
44
 72
45
 73
49
 74
48
 0
VERTEX
 8
CYLINDER_1
 10
0
 20
0
 30
0
 70
128
 71
46
 72
2
 73
50
 74
50
 0
VERTEX
 8
CYLINDER_1
 10
0
 20
0
 30
0
 70
128
 71
1
 72
47
 73
51
 74
51
 0
VERTEX
 8
CYLINDER_1
 10
0
 20
0
 30
0
 70
128
 71
48
 72
49
 73
53
 74
52
 0
VERTEX
 8
CYLINDER_1
 10
0
 20
0
 30
0
 70
128
 71
50
 72
2
 73
54
 74
54
 0
VERTEX
 8
CYLINDER_1
 10
0
 20
0
 30
0
 70
128
 71
1
 72
51
 73
55
 74
55
 0
VERTEX
 8
CYLINDER_1
 10
0
 20
0
 30
0
 70
128
 71
52
 72
53
 73
57
 74
56
 0
VERTEX
 8
CYLINDER_1
 10
0
 20
0
 30
0
 70
128
 71
54
 72
2
 73
58
 74
58
 0
VERTEX
 8
CYLINDER_1
 10
0
 20
0
 30
0
 70
128
 71
1
 72
55
 73
59
 74
59
 0
VERTEX
 8
CYLINDER_1
 10
0
 20
0
 30
0
 70
128
 71
56
 72
57
 73
61
 74
60
 0
VERTEX
 8
CYLINDER_1
 10
0
 20
0
 30
0
 70
128
 71
58
 72
2
 73
62
 74
62
 0
VERTEX
 8
CYLINDER_1
 10
0
 20
0
 30
0
 70
128
 71
1
 72
59
 73
63
 74
63
 0
VERTEX
 8
CYLINDER_1
 10
0
 20
0
 30
0
 70
128
 71
60
 72
61
 73
65
 74
64
 0
VERTEX
 8
CYLINDER_1
 10
0
 20
0
 30
0
 70
128
 71
62
 72
2
 73
66
 74
66
 0
VERTEX
 8
CYLINDER_1
 10
0
 20
0
 30
0
 70
128
 71
1
 72
63
 73
67
 74
67
 0
VERTEX
 8
CYLINDER_1
 10
0
 20
0
 30
0
 70
128
 71
64
 72
65
 73
69
 74
68
 0
VERTEX
 8
CYLINDER_1
 10
0
 20
0
 30
0
 70
128
 71
66
 72
2
 73
70
 74
70
 0
VERTEX
 8
CYLINDER_1
 10
0
 20
0
 30
0
 70
128
 71
1
 72
67
 73
71
 74
71
 0
VERTEX
 8
CYLINDER_1
 10
0
 20
0
 30
0
 70
128
 71
68
 72
69
 73
73
 74
72
 0
VERTEX
 8
CYLINDER_1
 10
0
 20
0
 30
0
 70
128
 71
70
 72
2
 73
74
 74
74
 0
VERTEX
 8
CYLINDER_1
 10
0
 20
0
 30
0
 70
128
 71
1
 72
71
 73
75
 74
75
 0
VERTEX
 8
CYLINDER_1
 10
0
 20
0
 30
0
 70
128
 71
72
 72
73
 73
77
 74
76
 0
VERTEX
 8
CYLINDER_1
 10
0
 20
0
 30
0
 70
128
 71
74
 72
2
 73
78
 74
78
 0
VERTEX
 8
CYLINDER_1
 10
0
 20
0
 30
0
 70
128
 71
1
 72
75
 73
79
 74
79
 0
VERTEX
 8
CYLINDER_1
 10
0
 20
0
 30
0
 70
128
 71
76
 72
77
 73
81
 74
80
 0
VERTEX
 8
CYLINDER_1
 10
0
 20
0
 30
0
 70
128
 71
78
 72
2
 73
82
 74
82
 0
VERTEX
 8
CYLINDER_1
 10
0
 20
0
 30
0
 70
128
 71
1
 72
79
 73
83
 74
83
 0
VERTEX
 8
CYLINDER_1
 10
0
 20
0
 30
0
 70
128
 71
80
 72
81
 73
85
 74
84
 0
VERTEX
 8
CYLINDER_1
 10
0
 20
0
 30
0
 70
128
 71
82
 72
2
 73
86
 74
86
 0
VERTEX
 8
CYLINDER_1
 10
0
 20
0
 30
0
 70
128
 71
1
 72
83
 73
87
 74
87
 0
VERTEX
 8
CYLINDER_1
 10
0
 20
0
 30
0
 70
128
 71
84
 72
85
 73
89
 74
88
 0
VERTEX
 8
CYLINDER_1
 10
0
 20
0
 30
0
 70
128
 71
86
 72
2
 73
90
 74
90
 0
VERTEX
 8
CYLINDER_1
 10
0
 20
0
 30
0
 70
128
 71
1
 72
87
 73
91
 74
91
 0
VERTEX
 8
CYLINDER_1
 10
0
 20
0
 30
0
 70
128
 71
88
 72
89
 73
93
 74
92
 0
VERTEX
 8
CYLINDER_1
 10
0
 20
0
 30
0
 70
128
 71
90
 72
2
 73
94
 74
94
 0
VERTEX
 8
CYLINDER_1
 10
0
 20
0
 30
0
 70
128
 71
1
 72
91
 73
95
 74
95
 0
VERTEX
 8
CYLINDER_1
 10
0
 20
0
 30
0
 70
128
 71
92
 72
93
 73
97
 74
96
 0
VERTEX
 8
CYLINDER_1
 10
0
 20
0
 30
0
 70
128
 71
94
 72
2
 73
98
 74
98
 0
VERTEX
 8
CYLINDER_1
 10
0
 20
0
 30
0
 70
128
 71
1
 72
95
 73
99
 74
99
 0
VERTEX
 8
CYLINDER_1
 10
0
 20
0
 30
0
 70
128
 71
96
 72
97
 73
101
 74
100
 0
VERTEX
 8
CYLINDER_1
 10
0
 20
0
 30
0
 70
128
 71
98
 72
2
 73
102
 74
102
 0
VERTEX
 8
CYLINDER_1
 10
0
 20
0
 30
0
 70
128
 71
1
 72
99
 73
103
 74
103
 0
VERTEX
 8
CYLINDER_1
 10
0
 20
0
 30
0
 70
128
 71
100
 72
101
 73
105
 74
104
 0
VERTEX
 8
CYLINDER_1
 10
0
 20
0
 30
0
 70
128
 71
102
 72
2
 73
106
 74
106
 0
VERTEX
 8
CYLINDER_1
 10
0
 20
0
 30
0
 70
128
 71
1
 72
103
 73
107
 74
107
 0
VERTEX
 8
CYLINDER_1
 10
0
 20
0
 30
0
 70
128
 71
104
 72
105
 73
109
 74
108
 0
VERTEX
 8
CYLINDER_1
 10
0
 20
0
 30
0
 70
128
 71
106
 72
2
 73
110
 74
110
 0
VERTEX
 8
CYLINDER_1
 10
0
 20
0
 30
0
 70
128
 71
1
 72
107
 73
111
 74
111
 0
VERTEX
 8
CYLINDER_1
 10
0
 20
0
 30
0
 70
128
 71
108
 72
109
 73
113
 74
112
 0
VERTEX
 8
CYLINDER_1
 10
0
 20
0
 30
0
 70
128
 71
110
 72
2
 73
114
 74
114
 0
VERTEX
 8
CYLINDER_1
 10
0
 20
0
 30
0
 70
128
 71
1
 72
111
 73
115
 74
115
 0
VERTEX
 8
CYLINDER_1
 10
0
 20
0
 30
0
 70
128
 71
112
 72
113
 73
117
 74
116
 0
VERTEX
 8
CYLINDER_1
 10
0
 20
0
 30
0
 70
128
 71
114
 72
2
 73
118
 74
118
 0
VERTEX
 8
CYLINDER_1
 10
0
 20
0
 30
0
 70
128
 71
1
 72
115
 73
119
 74
119
 0
VERTEX
 8
CYLINDER_1
 10
0
 20
0
 30
0
 70
128
 71
116
 72
117
 73
121
 74
120
 0
VERTEX
 8
CYLINDER_1
 10
0
 20
0
 30
0
 70
128
 71
118
 72
2
 73
122
 74
122
 0
VERTEX
 8
CYLINDER_1
 10
0
 20
0
 30
0
 70
128
 71
1
 72
119
 73
123
 74
123
 0
VERTEX
 8
CYLINDER_1
 10
0
 20
0
 30
0
 70
128
 71
120
 72
121
 73
125
 74
124
 0
VERTEX
 8
CYLINDER_1
 10
0
 20
0
 30
0
 70
128
 71
122
 72
2
 73
126
 74
126
 0
VERTEX
 8
CYLINDER_1
 10
0
 20
0
 30
0
 70
128
 71
1
 72
123
 73
127
 74
127
 0
VERTEX
 8
CYLINDER_1
 10
0
 20
0
 30
0
 70
128
 71
124
 72
125
 73
129
 74
128
 0
VERTEX
 8
CYLINDER_1
 10
0
 20
0
 30
0
 70
128
 71
126
 72
2
 73
130
 74
130
 0
VERTEX
 8
CYLINDER_1
 10
0
 20
0
 30
0
 70
128
 71
1
 72
127
 73
131
 74
131
 0
VERTEX
 8
CYLINDER_1
 10
0
 20
0
 30
0
 70
128
 71
128
 72
129
 73
133
 74
132
 0
VERTEX
 8
CYLINDER_1
 10
0
 20
0
 30
0
 70
128
 71
130
 72
2
 73
134
 74
134
 0
VERTEX
 8
CYLINDER_1
 10
0
 20
0
 30
0
 70
128
 71
1
 72
131
 73
135
 74
135
 0
VERTEX
 8
CYLINDER_1
 10
0
 20
0
 30
0
 70
128
 71
132
 72
133
 73
137
 74
136
 0
VERTEX
 8
CYLINDER_1
 10
0
 20
0
 30
0
 70
128
 71
134
 72
2
 73
138
 74
138
 0
VERTEX
 8
CYLINDER_1
 10
0
 20
0
 30
0
 70
128
 71
1
 72
135
 73
139
 74
139
 0
VERTEX
 8
CYLINDER_1
 10
0
 20
0
 30
0
 70
128
 71
136
 72
137
 73
141
 74
140
 0
VERTEX
 8
CYLINDER_1
 10
0
 20
0
 30
0
 70
128
 71
138
 72
2
 73
142
 74
142
 0
VERTEX
 8
CYLINDER_1
 10
0
 20
0
 30
0
 70
128
 71
1
 72
139
 73
143
 74
143
 0
VERTEX
 8
CYLINDER_1
 10
0
 20
0
 30
0
 70
128
 71
140
 72
141
 73
145
 74
144
 0
VERTEX
 8
CYLINDER_1
 10
0
 20
0
 30
0
 70
128
 71
142
 72
2
 73
146
 74
146
 0
VERTEX
 8
CYLINDER_1
 10
0
 20
0
 30
0
 70
128
 71
1
 72
143
 73
3
 74
3
 0
VERTEX
 8
CYLINDER_1
 10
0
 20
0
 30
0
 70
128
 71
144
 72
145
 73
5
 74
4
 0
VERTEX
 8
CYLINDER_1
 10
0
 20
0
 30
0
 70
128
 71
146
 72
2
 73
6
 74
6
 0
SEQEND
 0
POLYLINE
 8
CYLINDER
 66
1
 10
0.0
 20
0.0
 30
0.0
 70
64
 71
146
 72
108
 0
VERTEX
 8
CYLINDER
 10
0
 20
0
 30
0.6284
 70
192
 0
VERTEX
 8
CYLINDER
 10
0
 20
0
 30
0.6644
 70
192
 0
VERTEX
 8
CYLINDER
 10
0.6053
 20
0
 30
0.6284
 70
192
 0
VERTEX
 8
CYLINDER
 10
0.6053
 20
0
 30
0.6284
 70
192
 0
VERTEX
 8
CYLINDER
 10
0.6053
 20
0
 30
0.6644
 70
192
 0
VERTEX
 8
CYLINDER
 10
0.6053
 20
0
 30
0.6644
 70
192
 0
VERTEX
 8
CYLINDER
 10
0.5961
 20
0.1051
 30
0.6284
 70
192
 0
VERTEX
 8
CYLINDER
 10
0.5961
 20
0.1051
 30
0.6284
 70
192
 0
VERTEX
 8
CYLINDER
 10
0.5961
 20
0.1051
 30
0.6644
 70
192
 0
VERTEX
 8
CYLINDER
 10
0.5961
 20
0.1051
 30
0.6644
 70
192
 0
VERTEX
 8
CYLINDER
 10
0.5688
 20
0.207
 30
0.6284
 70
192
 0
VERTEX
 8
CYLINDER
 10
0.5688
 20
0.207
 30
0.6284
 70
192
 0
VERTEX
 8
CYLINDER
 10
0.5688
 20
0.207
 30
0.6644
 70
192
 0
VERTEX
 8
CYLINDER
 10
0.5688
 20
0.207
 30
0.6644
 70
192
 0
VERTEX
 8
CYLINDER
 10
0.5242
 20
0.3027
 30
0.6284
 70
192
 0
VERTEX
 8
CYLINDER
 10
0.5242
 20
0.3027
 30
0.6284
 70
192
 0
VERTEX
 8
CYLINDER
 10
0.5242
 20
0.3027
 30
0.6644
 70
192
 0
VERTEX
 8
CYLINDER
 10
0.5242
 20
0.3027
 30
0.6644
 70
192
 0
VERTEX
 8
CYLINDER
 10
0.4637
 20
0.3891
 30
0.6284
 70
192
 0
VERTEX
 8
CYLINDER
 10
0.4637
 20
0.3891
 30
0.6284
 70
192
 0
VERTEX
 8
CYLINDER
 10
0.4637
 20
0.3891
 30
0.6644
 70
192
 0
VERTEX
 8
CYLINDER
 10
0.4637
 20
0.3891
 30
0.6644
 70
192
 0
VERTEX
 8
CYLINDER
 10
0.3891
 20
0.4637
 30
0.6284
 70
192
 0
VERTEX
 8
CYLINDER
 10
0.3891
 20
0.4637
 30
0.6284
 70
192
 0
VERTEX
 8
CYLINDER
 10
0.3891
 20
0.4637
 30
0.6644
 70
192
 0
VERTEX
 8
CYLINDER
 10
0.3891
 20
0.4637
 30
0.6644
 70
192
 0
VERTEX
 8
CYLINDER
 10
0.3027
 20
0.5242
 30
0.6284
 70
192
 0
VERTEX
 8
CYLINDER
 10
0.3027
 20
0.5242
 30
0.6284
 70
192
 0
VERTEX
 8
CYLINDER
 10
0.3027
 20
0.5242
 30
0.6644
 70
192
 0
VERTEX
 8
CYLINDER
 10
0.3027
 20
0.5242
 30
0.6644
 70
192
 0
VERTEX
 8
CYLINDER
 10
0.207
 20
0.5688
 30
0.6284
 70
192
 0
VERTEX
 8
CYLINDER
 10
0.207
 20
0.5688
 30
0.6284
 70
192
 0
VERTEX
 8
CYLINDER
 10
0.207
 20
0.5688
 30
0.6644
 70
192
 0
VERTEX
 8
CYLINDER
 10
0.207
 20
0.5688
 30
0.6644
 70
192
 0
VERTEX
 8
CYLINDER
 10
0.1051
 20
0.5961
 30
0.6284
 70
192
 0
VERTEX
 8
CYLINDER
 10
0.1051
 20
0.5961
 30
0.6284
 70
192
 0
VERTEX
 8
CYLINDER
 10
0.1051
 20
0.5961
 30
0.6644
 70
192
 0
VERTEX
 8
CYLINDER
 10
0.1051
 20
0.5961
 30
0.6644
 70
192
 0
VERTEX
 8
CYLINDER
 10
0
 20
0.6053
 30
0.6284
 70
192
 0
VERTEX
 8
CYLINDER
 10
0
 20
0.6053
 30
0.6284
 70
192
 0
VERTEX
 8
CYLINDER
 10
0
 20
0.6053
 30
0.6644
 70
192
 0
VERTEX
 8
CYLINDER
 10
0
 20
0.6053
 30
0.6644
 70
192
 0
VERTEX
 8
CYLINDER
 10
-0.1051
 20
0.5961
 30
0.6284
 70
192
 0
VERTEX
 8
CYLINDER
 10
-0.1051
 20
0.5961
 30
0.6284
 70
192
 0
VERTEX
 8
CYLINDER
 10
-0.1051
 20
0.5961
 30
0.6644
 70
192
 0
VERTEX
 8
CYLINDER
 10
-0.1051
 20
0.5961
 30
0.6644
 70
192
 0
VERTEX
 8
CYLINDER
 10
-0.207
 20
0.5688
 30
0.6284
 70
192
 0
VERTEX
 8
CYLINDER
 10
-0.207
 20
0.5688
 30
0.6284
 70
192
 0
VERTEX
 8
CYLINDER
 10
-0.207
 20
0.5688
 30
0.6644
 70
192
 0
VERTEX
 8
CYLINDER
 10
-0.207
 20
0.5688
 30
0.6644
 70
192
 0
VERTEX
 8
CYLINDER
 10
-0.3027
 20
0.5242
 30
0.6284
 70
192
 0
VERTEX
 8
CYLINDER
 10
-0.3027
 20
0.5242
 30
0.6284
 70
192
 0
VERTEX
 8
CYLINDER
 10
-0.3027
 20
0.5242
 30
0.6644
 70
192
 0
VERTEX
 8
CYLINDER
 10
-0.3027
 20
0.5242
 30
0.6644
 70
192
 0
VERTEX
 8
CYLINDER
 10
-0.3891
 20
0.4637
 30
0.6284
 70
192
 0
VERTEX
 8
CYLINDER
 10
-0.3891
 20
0.4637
 30
0.6284
 70
192
 0
VERTEX
 8
CYLINDER
 10
-0.3891
 20
0.4637
 30
0.6644
 70
192
 0
VERTEX
 8
CYLINDER
 10
-0.3891
 20
0.4637
 30
0.6644
 70
192
 0
VERTEX
 8
CYLINDER
 10
-0.4637
 20
0.3891
 30
0.6284
 70
192
 0
VERTEX
 8
CYLINDER
 10
-0.4637
 20
0.3891
 30
0.6284
 70
192
 0
VERTEX
 8
CYLINDER
 10
-0.4637
 20
0.3891
 30
0.6644
 70
192
 0
VERTEX
 8
CYLINDER
 10
-0.4637
 20
0.3891
 30
0.6644
 70
192
 0
VERTEX
 8
CYLINDER
 10
-0.5242
 20
0.3027
 30
0.6284
 70
192
 0
VERTEX
 8
CYLINDER
 10
-0.5242
 20
0.3027
 30
0.6284
 70
192
 0
VERTEX
 8
CYLINDER
 10
-0.5242
 20
0.3027
 30
0.6644
 70
192
 0
VERTEX
 8
CYLINDER
 10
-0.5242
 20
0.3027
 30
0.6644
 70
192
 0
VERTEX
 8
CYLINDER
 10
-0.5688
 20
0.207
 30
0.6284
 70
192
 0
VERTEX
 8
CYLINDER
 10
-0.5688
 20
0.207
 30
0.6284
 70
192
 0
VERTEX
 8
CYLINDER
 10
-0.5688
 20
0.207
 30
0.6644
 70
192
 0
VERTEX
 8
CYLINDER
 10
-0.5688
 20
0.207
 30
0.6644
 70
192
 0
VERTEX
 8
CYLINDER
 10
-0.5961
 20
0.1051
 30
0.6284
 70
192
 0
VERTEX
 8
CYLINDER
 10
-0.5961
 20
0.1051
 30
0.6284
 70
192
 0
VERTEX
 8
CYLINDER
 10
-0.5961
 20
0.1051
 30
0.6644
 70
192
 0
VERTEX
 8
CYLINDER
 10
-0.5961
 20
0.1051
 30
0.6644
 70
192
 0
VERTEX
 8
CYLINDER
 10
-0.6053
 20
0
 30
0.6284
 70
192
 0
VERTEX
 8
CYLINDER
 10
-0.6053
 20
0
 30
0.6284
 70
192
 0
VERTEX
 8
CYLINDER
 10
-0.6053
 20
0
 30
0.6644
 70
192
 0
VERTEX
 8
CYLINDER
 10
-0.6053
 20
0
 30
0.6644
 70
192
 0
VERTEX
 8
CYLINDER
 10
-0.5961
 20
-0.1051
 30
0.6284
 70
192
 0
VERTEX
 8
CYLINDER
 10
-0.5961
 20
-0.1051
 30
0.6284
 70
192
 0
VERTEX
 8
CYLINDER
 10
-0.5961
 20
-0.1051
 30
0.6644
 70
192
 0
VERTEX
 8
CYLINDER
 10
-0.5961
 20
-0.1051
 30
0.6644
 70
192
 0
VERTEX
 8
CYLINDER
 10
-0.5688
 20
-0.207
 30
0.6284
 70
192
 0
VERTEX
 8
CYLINDER
 10
-0.5688
 20
-0.207
 30
0.6284
 70
192
 0
VERTEX
 8
CYLINDER
 10
-0.5688
 20
-0.207
 30
0.6644
 70
192
 0
VERTEX
 8
CYLINDER
 10
-0.5688
 20
-0.207
 30
0.6644
 70
192
 0
VERTEX
 8
CYLINDER
 10
-0.5242
 20
-0.3027
 30
0.6284
 70
192
 0
VERTEX
 8
CYLINDER
 10
-0.5242
 20
-0.3027
 30
0.6284
 70
192
 0
VERTEX
 8
CYLINDER
 10
-0.5242
 20
-0.3027
 30
0.6644
 70
192
 0
VERTEX
 8
CYLINDER
 10
-0.5242
 20
-0.3027
 30
0.6644
 70
192
 0
VERTEX
 8
CYLINDER
 10
-0.4637
 20
-0.3891
 30
0.6284
 70
192
 0
VERTEX
 8
CYLINDER
 10
-0.4637
 20
-0.3891
 30
0.6284
 70
192
 0
VERTEX
 8
CYLINDER
 10
-0.4637
 20
-0.3891
 30
0.6644
 70
192
 0
VERTEX
 8
CYLINDER
 10
-0.4637
 20
-0.3891
 30
0.6644
 70
192
 0
VERTEX
 8
CYLINDER
 10
-0.3891
 20
-0.4637
 30
0.6284
 70
192
 0
VERTEX
 8
CYLINDER
 10
-0.3891
 20
-0.4637
 30
0.6284
 70
192
 0
VERTEX
 8
CYLINDER
 10
-0.3891
 20
-0.4637
 30
0.6644
 70
192
 0
VERTEX
 8
CYLINDER
 10
-0.3891
 20
-0.4637
 30
0.6644
 70
192
 0
VERTEX
 8
CYLINDER
 10
-0.3027
 20
-0.5242
 30
0.6284
 70
192
 0
VERTEX
 8
CYLINDER
 10
-0.3027
 20
-0.5242
 30
0.6284
 70
192
 0
VERTEX
 8
CYLINDER
 10
-0.3027
 20
-0.5242
 30
0.6644
 70
192
 0
VERTEX
 8
CYLINDER
 10
-0.3027
 20
-0.5242
 30
0.6644
 70
192
 0
VERTEX
 8
CYLINDER
 10
-0.207
 20
-0.5688
 30
0.6284
 70
192
 0
VERTEX
 8
CYLINDER
 10
-0.207
 20
-0.5688
 30
0.6284
 70
192
 0
VERTEX
 8
CYLINDER
 10
-0.207
 20
-0.5688
 30
0.6644
 70
192
 0
VERTEX
 8
CYLINDER
 10
-0.207
 20
-0.5688
 30
0.6644
 70
192
 0
VERTEX
 8
CYLINDER
 10
-0.1051
 20
-0.5961
 30
0.6284
 70
192
 0
VERTEX
 8
CYLINDER
 10
-0.1051
 20
-0.5961
 30
0.6284
 70
192
 0
VERTEX
 8
CYLINDER
 10
-0.1051
 20
-0.5961
 30
0.6644
 70
192
 0
VERTEX
 8
CYLINDER
 10
-0.1051
 20
-0.5961
 30
0.6644
 70
192
 0
VERTEX
 8
CYLINDER
 10
0
 20
-0.6053
 30
0.6284
 70
192
 0
VERTEX
 8
CYLINDER
 10
0
 20
-0.6053
 30
0.6284
 70
192
 0
VERTEX
 8
CYLINDER
 10
0
 20
-0.6053
 30
0.6644
 70
192
 0
VERTEX
 8
CYLINDER
 10
0
 20
-0.6053
 30
0.6644
 70
192
 0
VERTEX
 8
CYLINDER
 10
0.1051
 20
-0.5961
 30
0.6284
 70
192
 0
VERTEX
 8
CYLINDER
 10
0.1051
 20
-0.5961
 30
0.6284
 70
192
 0
VERTEX
 8
CYLINDER
 10
0.1051
 20
-0.5961
 30
0.6644
 70
192
 0
VERTEX
 8
CYLINDER
 10
0.1051
 20
-0.5961
 30
0.6644
 70
192
 0
VERTEX
 8
CYLINDER
 10
0.207
 20
-0.5688
 30
0.6284
 70
192
 0
VERTEX
 8
CYLINDER
 10
0.207
 20
-0.5688
 30
0.6284
 70
192
 0
VERTEX
 8
CYLINDER
 10
0.207
 20
-0.5688
 30
0.6644
 70
192
 0
VERTEX
 8
CYLINDER
 10
0.207
 20
-0.5688
 30
0.6644
 70
192
 0
VERTEX
 8
CYLINDER
 10
0.3027
 20
-0.5242
 30
0.6284
 70
192
 0
VERTEX
 8
CYLINDER
 10
0.3027
 20
-0.5242
 30
0.6284
 70
192
 0
VERTEX
 8
CYLINDER
 10
0.3027
 20
-0.5242
 30
0.6644
 70
192
 0
VERTEX
 8
CYLINDER
 10
0.3027
 20
-0.5242
 30
0.6644
 70
192
 0
VERTEX
 8
CYLINDER
 10
0.3891
 20
-0.4637
 30
0.6284
 70
192
 0
VERTEX
 8
CYLINDER
 10
0.3891
 20
-0.4637
 30
0.6284
 70
192
 0
VERTEX
 8
CYLINDER
 10
0.3891
 20
-0.4637
 30
0.6644
 70
192
 0
VERTEX
 8
CYLINDER
 10
0.3891
 20
-0.4637
 30
0.6644
 70
192
 0
VERTEX
 8
CYLINDER
 10
0.4637
 20
-0.3891
 30
0.6284
 70
192
 0
VERTEX
 8
CYLINDER
 10
0.4637
 20
-0.3891
 30
0.6284
 70
192
 0
VERTEX
 8
CYLINDER
 10
0.4637
 20
-0.3891
 30
0.6644
 70
192
 0
VERTEX
 8
CYLINDER
 10
0.4637
 20
-0.3891
 30
0.6644
 70
192
 0
VERTEX
 8
CYLINDER
 10
0.5242
 20
-0.3027
 30
0.6284
 70
192
 0
VERTEX
 8
CYLINDER
 10
0.5242
 20
-0.3027
 30
0.6284
 70
192
 0
VERTEX
 8
CYLINDER
 10
0.5242
 20
-0.3027
 30
0.6644
 70
192
 0
VERTEX
 8
CYLINDER
 10
0.5242
 20
-0.3027
 30
0.6644
 70
192
 0
VERTEX
 8
CYLINDER
 10
0.5688
 20
-0.207
 30
0.6284
 70
192
 0
VERTEX
 8
CYLINDER
 10
0.5688
 20
-0.207
 30
0.6284
 70
192
 0
VERTEX
 8
CYLINDER
 10
0.5688
 20
-0.207
 30
0.6644
 70
192
 0
VERTEX
 8
CYLINDER
 10
0.5688
 20
-0.207
 30
0.6644
 70
192
 0
VERTEX
 8
CYLINDER
 10
0.5961
 20
-0.1051
 30
0.6284
 70
192
 0
VERTEX
 8
CYLINDER
 10
0.5961
 20
-0.1051
 30
0.6284
 70
192
 0
VERTEX
 8
CYLINDER
 10
0.5961
 20
-0.1051
 30
0.6644
 70
192
 0
VERTEX
 8
CYLINDER
 10
0.5961
 20
-0.1051
 30
0.6644
 70
192
 0
VERTEX
 8
CYLINDER
 10
0
 20
0
 30
0
 70
128
 71
1
 72
3
 73
7
 74
7
 0
VERTEX
 8
CYLINDER
 10
0
 20
0
 30
0
 70
128
 71
4
 72
5
 73
9
 74
8
 0
VERTEX
 8
CYLINDER
 10
0
 20
0
 30
0
 70
128
 71
6
 72
2
 73
10
 74
10
 0
VERTEX
 8
CYLINDER
 10
0
 20
0
 30
0
 70
128
 71
1
 72
7
 73
11
 74
11
 0
VERTEX
 8
CYLINDER
 10
0
 20
0
 30
0
 70
128
 71
8
 72
9
 73
13
 74
12
 0
VERTEX
 8
CYLINDER
 10
0
 20
0
 30
0
 70
128
 71
10
 72
2
 73
14
 74
14
 0
VERTEX
 8
CYLINDER
 10
0
 20
0
 30
0
 70
128
 71
1
 72
11
 73
15
 74
15
 0
VERTEX
 8
CYLINDER
 10
0
 20
0
 30
0
 70
128
 71
12
 72
13
 73
17
 74
16
 0
VERTEX
 8
CYLINDER
 10
0
 20
0
 30
0
 70
128
 71
14
 72
2
 73
18
 74
18
 0
VERTEX
 8
CYLINDER
 10
0
 20
0
 30
0
 70
128
 71
1
 72
15
 73
19
 74
19
 0
VERTEX
 8
CYLINDER
 10
0
 20
0
 30
0
 70
128
 71
16
 72
17
 73
21
 74
20
 0
VERTEX
 8
CYLINDER
 10
0
 20
0
 30
0
 70
128
 71
18
 72
2
 73
22
 74
22
 0
VERTEX
 8
CYLINDER
 10
0
 20
0
 30
0
 70
128
 71
1
 72
19
 73
23
 74
23
 0
VERTEX
 8
CYLINDER
 10
0
 20
0
 30
0
 70
128
 71
20
 72
21
 73
25
 74
24
 0
VERTEX
 8
CYLINDER
 10
0
 20
0
 30
0
 70
128
 71
22
 72
2
 73
26
 74
26
 0
VERTEX
 8
CYLINDER
 10
0
 20
0
 30
0
 70
128
 71
1
 72
23
 73
27
 74
27
 0
VERTEX
 8
CYLINDER
 10
0
 20
0
 30
0
 70
128
 71
24
 72
25
 73
29
 74
28
 0
VERTEX
 8
CYLINDER
 10
0
 20
0
 30
0
 70
128
 71
26
 72
2
 73
30
 74
30
 0
VERTEX
 8
CYLINDER
 10
0
 20
0
 30
0
 70
128
 71
1
 72
27
 73
31
 74
31
 0
VERTEX
 8
CYLINDER
 10
0
 20
0
 30
0
 70
128
 71
28
 72
29
 73
33
 74
32
 0
VERTEX
 8
CYLINDER
 10
0
 20
0
 30
0
 70
128
 71
30
 72
2
 73
34
 74
34
 0
VERTEX
 8
CYLINDER
 10
0
 20
0
 30
0
 70
128
 71
1
 72
31
 73
35
 74
35
 0
VERTEX
 8
CYLINDER
 10
0
 20
0
 30
0
 70
128
 71
32
 72
33
 73
37
 74
36
 0
VERTEX
 8
CYLINDER
 10
0
 20
0
 30
0
 70
128
 71
34
 72
2
 73
38
 74
38
 0
VERTEX
 8
CYLINDER
 10
0
 20
0
 30
0
 70
128
 71
1
 72
35
 73
39
 74
39
 0
VERTEX
 8
CYLINDER
 10
0
 20
0
 30
0
 70
128
 71
36
 72
37
 73
41
 74
40
 0
VERTEX
 8
CYLINDER
 10
0
 20
0
 30
0
 70
128
 71
38
 72
2
 73
42
 74
42
 0
VERTEX
 8
CYLINDER
 10
0
 20
0
 30
0
 70
128
 71
1
 72
39
 73
43
 74
43
 0
VERTEX
 8
CYLINDER
 10
0
 20
0
 30
0
 70
128
 71
40
 72
41
 73
45
 74
44
 0
VERTEX
 8
CYLINDER
 10
0
 20
0
 30
0
 70
128
 71
42
 72
2
 73
46
 74
46
 0
VERTEX
 8
CYLINDER
 10
0
 20
0
 30
0
 70
128
 71
1
 72
43
 73
47
 74
47
 0
VERTEX
 8
CYLINDER
 10
0
 20
0
 30
0
 70
128
 71
44
 72
45
 73
49
 74
48
 0
VERTEX
 8
CYLINDER
 10
0
 20
0
 30
0
 70
128
 71
46
 72
2
 73
50
 74
50
 0
VERTEX
 8
CYLINDER
 10
0
 20
0
 30
0
 70
128
 71
1
 72
47
 73
51
 74
51
 0
VERTEX
 8
CYLINDER
 10
0
 20
0
 30
0
 70
128
 71
48
 72
49
 73
53
 74
52
 0
VERTEX
 8
CYLINDER
 10
0
 20
0
 30
0
 70
128
 71
50
 72
2
 73
54
 74
54
 0
VERTEX
 8
CYLINDER
 10
0
 20
0
 30
0
 70
128
 71
1
 72
51
 73
55
 74
55
 0
VERTEX
 8
CYLINDER
 10
0
 20
0
 30
0
 70
128
 71
52
 72
53
 73
57
 74
56
 0
VERTEX
 8
CYLINDER
 10
0
 20
0
 30
0
 70
128
 71
54
 72
2
 73
58
 74
58
 0
VERTEX
 8
CYLINDER
 10
0
 20
0
 30
0
 70
128
 71
1
 72
55
 73
59
 74
59
 0
VERTEX
 8
CYLINDER
 10
0
 20
0
 30
0
 70
128
 71
56
 72
57
 73
61
 74
60
 0
VERTEX
 8
CYLINDER
 10
0
 20
0
 30
0
 70
128
 71
58
 72
2
 73
62
 74
62
 0
VERTEX
 8
CYLINDER
 10
0
 20
0
 30
0
 70
128
 71
1
 72
59
 73
63
 74
63
 0
VERTEX
 8
CYLINDER
 10
0
 20
0
 30
0
 70
128
 71
60
 72
61
 73
65
 74
64
 0
VERTEX
 8
CYLINDER
 10
0
 20
0
 30
0
 70
128
 71
62
 72
2
 73
66
 74
66
 0
VERTEX
 8
CYLINDER
 10
0
 20
0
 30
0
 70
128
 71
1
 72
63
 73
67
 74
67
 0
VERTEX
 8
CYLINDER
 10
0
 20
0
 30
0
 70
128
 71
64
 72
65
 73
69
 74
68
 0
VERTEX
 8
CYLINDER
 10
0
 20
0
 30
0
 70
128
 71
66
 72
2
 73
70
 74
70
 0
VERTEX
 8
CYLINDER
 10
0
 20
0
 30
0
 70
128
 71
1
 72
67
 73
71
 74
71
 0
VERTEX
 8
CYLINDER
 10
0
 20
0
 30
0
 70
128
 71
68
 72
69
 73
73
 74
72
 0
VERTEX
 8
CYLINDER
 10
0
 20
0
 30
0
 70
128
 71
70
 72
2
 73
74
 74
74
 0
VERTEX
 8
CYLINDER
 10
0
 20
0
 30
0
 70
128
 71
1
 72
71
 73
75
 74
75
 0
VERTEX
 8
CYLINDER
 10
0
 20
0
 30
0
 70
128
 71
72
 72
73
 73
77
 74
76
 0
VERTEX
 8
CYLINDER
 10
0
 20
0
 30
0
 70
128
 71
74
 72
2
 73
78
 74
78
 0
VERTEX
 8
CYLINDER
 10
0
 20
0
 30
0
 70
128
 71
1
 72
75
 73
79
 74
79
 0
VERTEX
 8
CYLINDER
 10
0
 20
0
 30
0
 70
128
 71
76
 72
77
 73
81
 74
80
 0
VERTEX
 8
CYLINDER
 10
0
 20
0
 30
0
 70
128
 71
78
 72
2
 73
82
 74
82
 0
VERTEX
 8
CYLINDER
 10
0
 20
0
 30
0
 70
128
 71
1
 72
79
 73
83
 74
83
 0
VERTEX
 8
CYLINDER
 10
0
 20
0
 30
0
 70
128
 71
80
 72
81
 73
85
 74
84
 0
VERTEX
 8
CYLINDER
 10
0
 20
0
 30
0
 70
128
 71
82
 72
2
 73
86
 74
86
 0
VERTEX
 8
CYLINDER
 10
0
 20
0
 30
0
 70
128
 71
1
 72
83
 73
87
 74
87
 0
VERTEX
 8
CYLINDER
 10
0
 20
0
 30
0
 70
128
 71
84
 72
85
 73
89
 74
88
 0
VERTEX
 8
CYLINDER
 10
0
 20
0
 30
0
 70
128
 71
86
 72
2
 73
90
 74
90
 0
VERTEX
 8
CYLINDER
 10
0
 20
0
 30
0
 70
128
 71
1
 72
87
 73
91
 74
91
 0
VERTEX
 8
CYLINDER
 10
0
 20
0
 30
0
 70
128
 71
88
 72
89
 73
93
 74
92
 0
VERTEX
 8
CYLINDER
 10
0
 20
0
 30
0
 70
128
 71
90
 72
2
 73
94
 74
94
 0
VERTEX
 8
CYLINDER
 10
0
 20
0
 30
0
 70
128
 71
1
 72
91
 73
95
 74
95
 0
VERTEX
 8
CYLINDER
 10
0
 20
0
 30
0
 70
128
 71
92
 72
93
 73
97
 74
96
 0
VERTEX
 8
CYLINDER
 10
0
 20
0
 30
0
 70
128
 71
94
 72
2
 73
98
 74
98
 0
VERTEX
 8
CYLINDER
 10
0
 20
0
 30
0
 70
128
 71
1
 72
95
 73
99
 74
99
 0
VERTEX
 8
CYLINDER
 10
0
 20
0
 30
0
 70
128
 71
96
 72
97
 73
101
 74
100
 0
VERTEX
 8
CYLINDER
 10
0
 20
0
 30
0
 70
128
 71
98
 72
2
 73
102
 74
102
 0
VERTEX
 8
CYLINDER
 10
0
 20
0
 30
0
 70
128
 71
1
 72
99
 73
103
 74
103
 0
VERTEX
 8
CYLINDER
 10
0
 20
0
 30
0
 70
128
 71
100
 72
101
 73
105
 74
104
 0
VERTEX
 8
CYLINDER
 10
0
 20
0
 30
0
 70
128
 71
102
 72
2
 73
106
 74
106
 0
VERTEX
 8
CYLINDER
 10
0
 20
0
 30
0
 70
128
 71
1
 72
103
 73
107
 74
107
 0
VERTEX
 8
CYLINDER
 10
0
 20
0
 30
0
 70
128
 71
104
 72
105
 73
109
 74
108
 0
VERTEX
 8
CYLINDER
 10
0
 20
0
 30
0
 70
128
 71
106
 72
2
 73
110
 74
110
 0
VERTEX
 8
CYLINDER
 10
0
 20
0
 30
0
 70
128
 71
1
 72
107
 73
111
 74
111
 0
VERTEX
 8
CYLINDER
 10
0
 20
0
 30
0
 70
128
 71
108
 72
109
 73
113
 74
112
 0
VERTEX
 8
CYLINDER
 10
0
 20
0
 30
0
 70
128
 71
110
 72
2
 73
114
 74
114
 0
VERTEX
 8
CYLINDER
 10
0
 20
0
 30
0
 70
128
 71
1
 72
111
 73
115
 74
115
 0
VERTEX
 8
CYLINDER
 10
0
 20
0
 30
0
 70
128
 71
112
 72
113
 73
117
 74
116
 0
VERTEX
 8
CYLINDER
 10
0
 20
0
 30
0
 70
128
 71
114
 72
2
 73
118
 74
118
 0
VERTEX
 8
CYLINDER
 10
0
 20
0
 30
0
 70
128
 71
1
 72
115
 73
119
 74
119
 0
VERTEX
 8
CYLINDER
 10
0
 20
0
 30
0
 70
128
 71
116
 72
117
 73
121
 74
120
 0
VERTEX
 8
CYLINDER
 10
0
 20
0
 30
0
 70
128
 71
118
 72
2
 73
122
 74
122
 0
VERTEX
 8
CYLINDER
 10
0
 20
0
 30
0
 70
128
 71
1
 72
119
 73
123
 74
123
 0
VERTEX
 8
CYLINDER
 10
0
 20
0
 30
0
 70
128
 71
120
 72
121
 73
125
 74
124
 0
VERTEX
 8
CYLINDER
 10
0
 20
0
 30
0
 70
128
 71
122
 72
2
 73
126
 74
126
 0
VERTEX
 8
CYLINDER
 10
0
 20
0
 30
0
 70
128
 71
1
 72
123
 73
127
 74
127
 0
VERTEX
 8
CYLINDER
 10
0
 20
0
 30
0
 70
128
 71
124
 72
125
 73
129
 74
128
 0
VERTEX
 8
CYLINDER
 10
0
 20
0
 30
0
 70
128
 71
126
 72
2
 73
130
 74
130
 0
VERTEX
 8
CYLINDER
 10
0
 20
0
 30
0
 70
128
 71
1
 72
127
 73
131
 74
131
 0
VERTEX
 8
CYLINDER
 10
0
 20
0
 30
0
 70
128
 71
128
 72
129
 73
133
 74
132
 0
VERTEX
 8
CYLINDER
 10
0
 20
0
 30
0
 70
128
 71
130
 72
2
 73
134
 74
134
 0
VERTEX
 8
CYLINDER
 10
0
 20
0
 30
0
 70
128
 71
1
 72
131
 73
135
 74
135
 0
VERTEX
 8
CYLINDER
 10
0
 20
0
 30
0
 70
128
 71
132
 72
133
 73
137
 74
136
 0
VERTEX
 8
CYLINDER
 10
0
 20
0
 30
0
 70
128
 71
134
 72
2
 73
138
 74
138
 0
VERTEX
 8
CYLINDER
 10
0
 20
0
 30
0
 70
128
 71
1
 72
135
 73
139
 74
139
 0
VERTEX
 8
CYLINDER
 10
0
 20
0
 30
0
 70
128
 71
136
 72
137
 73
141
 74
140
 0
VERTEX
 8
CYLINDER
 10
0
 20
0
 30
0
 70
128
 71
138
 72
2
 73
142
 74
142
 0
VERTEX
 8
CYLINDER
 10
0
 20
0
 30
0
 70
128
 71
1
 72
139
 73
143
 74
143
 0
VERTEX
 8
CYLINDER
 10
0
 20
0
 30
0
 70
128
 71
140
 72
141
 73
145
 74
144
 0
VERTEX
 8
CYLINDER
 10
0
 20
0
 30
0
 70
128
 71
142
 72
2
 73
146
 74
146
 0
VERTEX
 8
CYLINDER
 10
0
 20
0
 30
0
 70
128
 71
1
 72
143
 73
3
 74
3
 0
VERTEX
 8
CYLINDER
 10
0
 20
0
 30
0
 70
128
 71
144
 72
145
 73
5
 74
4
 0
VERTEX
 8
CYLINDER
 10
0
 20
0
 30
0
 70
128
 71
146
 72
2
 73
6
 74
6
 0
SEQEND
 0
POLYLINE
 8
LATHE
 66
1
 10
0.0
 20
0.0
 30
0.0
 70
64
 71
124
 72
124
 0
VERTEX
 8
LATHE
 10
-0.077
 20
0
 30
0.3221
 70
192
 0
VERTEX
 8
LATHE
 10
-0.0802
 20
0
 30
0.3151
 70
192
 0
VERTEX
 8
LATHE
 10
-0.089
 20
0
 30
0.2997
 70
192
 0
VERTEX
 8
LATHE
 10
-0.1014
 20
0
 30
0.2818
 70
192
 0
VERTEX
 8
LATHE
 10
-0.1087
 20
0
 30
0.2727
 70
192
 0
VERTEX
 8
LATHE
 10
-0.1189
 20
0
 30
0.2611
 70
192
 0
VERTEX
 8
LATHE
 10
-0.14
 20
0
 30
0.2365
 70
192
 0
VERTEX
 8
LATHE
 10
-0.1548
 20
0
 30
0.2157
 70
192
 0
VERTEX
 8
LATHE
 10
-0.1629
 20
0
 30
0.2017
 70
192
 0
VERTEX
 8
LATHE
 10
-0.1673
 20
0
 30
0.1923
 70
192
 0
VERTEX
 8
LATHE
 10
-0.1699
 20
0
 30
0.1853
 70
192
 0
VERTEX
 8
LATHE
 10
-0.1711
 20
0
 30
0.1803
 70
192
 0
VERTEX
 8
LATHE
 10
-0.1718
 20
0
 30
0.1757
 70
192
 0
VERTEX
 8
LATHE
 10
-0.1719
 20
0
 30
0.1729
 70
192
 0
VERTEX
 8
LATHE
 10
-0.1717
 20
0
 30
0.1702
 70
192
 0
VERTEX
 8
LATHE
 10
-0.1712
 20
0
 30
0.1677
 70
192
 0
VERTEX
 8
LATHE
 10
-0.1672
 20
0
 30
0.1544
 70
192
 0
VERTEX
 8
LATHE
 10
-0.1647
 20
0
 30
0.1485
 70
192
 0
VERTEX
 8
LATHE
 10
-0.1612
 20
0
 30
0.1425
 70
192
 0
VERTEX
 8
LATHE
 10
-0.1579
 20
0
 30
0.1378
 70
192
 0
VERTEX
 8
LATHE
 10
-0.1539
 20
0
 30
0.1331
 70
192
 0
VERTEX
 8
LATHE
 10
-0.149
 20
0
 30
0.1284
 70
192
 0
VERTEX
 8
LATHE
 10
-0.1411
 20
0
 30
0.1221
 70
192
 0
VERTEX
 8
LATHE
 10
-0.1312
 20
0
 30
0.116
 70
192
 0
VERTEX
 8
LATHE
 10
-0.1193
 20
0
 30
0.11
 70
192
 0
VERTEX
 8
LATHE
 10
-0.1011
 20
0
 30
0.1028
 70
192
 0
VERTEX
 8
LATHE
 10
-0.0738
 20
0
 30
0.095
 70
192
 0
VERTEX
 8
LATHE
 10
-0.0737
 20
0
 30
0.0949
 70
192
 0
VERTEX
 8
LATHE
 10
-0.0369
 20
0
 30
0.0912
 70
192
 0
VERTEX
 8
LATHE
 10
-0.0005
 20
0
 30
0.088
 70
192
 0
VERTEX
 8
LATHE
 10
-0.001
 20
0
 30
0.3201
 70
192
 0
VERTEX
 8
LATHE
 10
0
 20
-0.077
 30
0.3221
 70
192
 0
VERTEX
 8
LATHE
 10
0
 20
-0.0802
 30
0.3151
 70
192
 0
VERTEX
 8
LATHE
 10
0
 20
-0.089
 30
0.2997
 70
192
 0
VERTEX
 8
LATHE
 10
0
 20
-0.1014
 30
0.2818
 70
192
 0
VERTEX
 8
LATHE
 10
0
 20
-0.1087
 30
0.2727
 70
192
 0
VERTEX
 8
LATHE
 10
0
 20
-0.1189
 30
0.2611
 70
192
 0
VERTEX
 8
LATHE
 10
0
 20
-0.14
 30
0.2365
 70
192
 0
VERTEX
 8
LATHE
 10
0
 20
-0.1548
 30
0.2157
 70
192
 0
VERTEX
 8
LATHE
 10
0
 20
-0.1629
 30
0.2017
 70
192
 0
VERTEX
 8
LATHE
 10
0
 20
-0.1673
 30
0.1923
 70
192
 0
VERTEX
 8
LATHE
 10
0
 20
-0.1699
 30
0.1853
 70
192
 0
VERTEX
 8
LATHE
 10
0
 20
-0.1711
 30
0.1803
 70
192
 0
VERTEX
 8
LATHE
 10
0
 20
-0.1718
 30
0.1757
 70
192
 0
VERTEX
 8
LATHE
 10
0
 20
-0.1719
 30
0.1729
 70
192
 0
VERTEX
 8
LATHE
 10
0
 20
-0.1717
 30
0.1702
 70
192
 0
VERTEX
 8
LATHE
 10
0
 20
-0.1712
 30
0.1677
 70
192
 0
VERTEX
 8
LATHE
 10
0
 20
-0.1672
 30
0.1544
 70
192
 0
VERTEX
 8
LATHE
 10
0
 20
-0.1647
 30
0.1485
 70
192
 0
VERTEX
 8
LATHE
 10
0
 20
-0.1612
 30
0.1425
 70
192
 0
VERTEX
 8
LATHE
 10
0
 20
-0.1579
 30
0.1378
 70
192
 0
VERTEX
 8
LATHE
 10
0
 20
-0.1539
 30
0.1331
 70
192
 0
VERTEX
 8
LATHE
 10
0
 20
-0.149
 30
0.1284
 70
192
 0
VERTEX
 8
LATHE
 10
0
 20
-0.1411
 30
0.1221
 70
192
 0
VERTEX
 8
LATHE
 10
0
 20
-0.1312
 30
0.116
 70
192
 0
VERTEX
 8
LATHE
 10
0
 20
-0.1193
 30
0.11
 70
192
 0
VERTEX
 8
LATHE
 10
0
 20
-0.1011
 30
0.1028
 70
192
 0
VERTEX
 8
LATHE
 10
0
 20
-0.0738
 30
0.095
 70
192
 0
VERTEX
 8
LATHE
 10
0
 20
-0.0737
 30
0.0949
 70
192
 0
VERTEX
 8
LATHE
 10
0
 20
-0.0369
 30
0.0912
 70
192
 0
VERTEX
 8
LATHE
 10
0
 20
-0.0005
 30
0.088
 70
192
 0
VERTEX
 8
LATHE
 10
0
 20
-0.001
 30
0.3201
 70
192
 0
VERTEX
 8
LATHE
 10
0.077
 20
0
 30
0.3221
 70
192
 0
VERTEX
 8
LATHE
 10
0.0802
 20
0
 30
0.3151
 70
192
 0
VERTEX
 8
LATHE
 10
0.089
 20
0
 30
0.2997
 70
192
 0
VERTEX
 8
LATHE
 10
0.1014
 20
0
 30
0.2818
 70
192
 0
VERTEX
 8
LATHE
 10
0.1087
 20
0
 30
0.2727
 70
192
 0
VERTEX
 8
LATHE
 10
0.1189
 20
0
 30
0.2611
 70
192
 0
VERTEX
 8
LATHE
 10
0.14
 20
0
 30
0.2365
 70
192
 0
VERTEX
 8
LATHE
 10
0.1548
 20
0
 30
0.2157
 70
192
 0
VERTEX
 8
LATHE
 10
0.1629
 20
0
 30
0.2017
 70
192
 0
VERTEX
 8
LATHE
 10
0.1673
 20
0
 30
0.1923
 70
192
 0
VERTEX
 8
LATHE
 10
0.1699
 20
0
 30
0.1853
 70
192
 0
VERTEX
 8
LATHE
 10
0.1711
 20
0
 30
0.1803
 70
192
 0
VERTEX
 8
LATHE
 10
0.1718
 20
0
 30
0.1757
 70
192
 0
VERTEX
 8
LATHE
 10
0.1719
 20
0
 30
0.1729
 70
192
 0
VERTEX
 8
LATHE
 10
0.1717
 20
0
 30
0.1702
 70
192
 0
VERTEX
 8
LATHE
 10
0.1712
 20
0
 30
0.1677
 70
192
 0
VERTEX
 8
LATHE
 10
0.1672
 20
0
 30
0.1544
 70
192
 0
VERTEX
 8
LATHE
 10
0.1647
 20
0
 30
0.1485
 70
192
 0
VERTEX
 8
LATHE
 10
0.1612
 20
0
 30
0.1425
 70
192
 0
VERTEX
 8
LATHE
 10
0.1579
 20
0
 30
0.1378
 70
192
 0
VERTEX
 8
LATHE
 10
0.1539
 20
0
 30
0.1331
 70
192
 0
VERTEX
 8
LATHE
 10
0.149
 20
0
 30
0.1284
 70
192
 0
VERTEX
 8
LATHE
 10
0.1411
 20
0
 30
0.1221
 70
192
 0
VERTEX
 8
LATHE
 10
0.1312
 20
0
 30
0.116
 70
192
 0
VERTEX
 8
LATHE
 10
0.1193
 20
0
 30
0.11
 70
192
 0
VERTEX
 8
LATHE
 10
0.1011
 20
0
 30
0.1028
 70
192
 0
VERTEX
 8
LATHE
 10
0.0738
 20
0
 30
0.095
 70
192
 0
VERTEX
 8
LATHE
 10
0.0737
 20
0
 30
0.0949
 70
192
 0
VERTEX
 8
LATHE
 10
0.0369
 20
0
 30
0.0912
 70
192
 0
VERTEX
 8
LATHE
 10
0.0005
 20
0
 30
0.088
 70
192
 0
VERTEX
 8
LATHE
 10
0.001
 20
0
 30
0.3201
 70
192
 0
VERTEX
 8
LATHE
 10
0
 20
0.077
 30
0.3221
 70
192
 0
VERTEX
 8
LATHE
 10
0
 20
0.0802
 30
0.3151
 70
192
 0
VERTEX
 8
LATHE
 10
0
 20
0.089
 30
0.2997
 70
192
 0
VERTEX
 8
LATHE
 10
0
 20
0.1014
 30
0.2818
 70
192
 0
VERTEX
 8
LATHE
 10
0
 20
0.1087
 30
0.2727
 70
192
 0
VERTEX
 8
LATHE
 10
0
 20
0.1189
 30
0.2611
 70
192
 0
VERTEX
 8
LATHE
 10
0
 20
0.14
 30
0.2365
 70
192
 0
VERTEX
 8
LATHE
 10
0
 20
0.1548
 30
0.2157
 70
192
 0
VERTEX
 8
LATHE
 10
0
 20
0.1629
 30
0.2017
 70
192
 0
VERTEX
 8
LATHE
 10
0
 20
0.1673
 30
0.1923
 70
192
 0
VERTEX
 8
LATHE
 10
0
 20
0.1699
 30
0.1853
 70
192
 0
VERTEX
 8
LATHE
 10
0
 20
0.1711
 30
0.1803
 70
192
 0
VERTEX
 8
LATHE
 10
0
 20
0.1718
 30
0.1757
 70
192
 0
VERTEX
 8
LATHE
 10
0
 20
0.1719
 30
0.1729
 70
192
 0
VERTEX
 8
LATHE
 10
0
 20
0.1717
 30
0.1702
 70
192
 0
VERTEX
 8
LATHE
 10
0
 20
0.1712
 30
0.1677
 70
192
 0
VERTEX
 8
LATHE
 10
0
 20
0.1672
 30
0.1544
 70
192
 0
VERTEX
 8
LATHE
 10
0
 20
0.1647
 30
0.1485
 70
192
 0
VERTEX
 8
LATHE
 10
0
 20
0.1612
 30
0.1425
 70
192
 0
VERTEX
 8
LATHE
 10
0
 20
0.1579
 30
0.1378
 70
192
 0
VERTEX
 8
LATHE
 10
0
 20
0.1539
 30
0.1331
 70
192
 0
VERTEX
 8
LATHE
 10
0
 20
0.149
 30
0.1284
 70
192
 0
VERTEX
 8
LATHE
 10
0
 20
0.1411
 30
0.1221
 70
192
 0
VERTEX
 8
LATHE
 10
0
 20
0.1312
 30
0.116
 70
192
 0
VERTEX
 8
LATHE
 10
0
 20
0.1193
 30
0.11
 70
192
 0
VERTEX
 8
LATHE
 10
0
 20
0.1011
 30
0.1028
 70
192
 0
VERTEX
 8
LATHE
 10
0
 20
0.0738
 30
0.095
 70
192
 0
VERTEX
 8
LATHE
 10
0
 20
0.0737
 30
0.0949
 70
192
 0
VERTEX
 8
LATHE
 10
0
 20
0.0369
 30
0.0912
 70
192
 0
VERTEX
 8
LATHE
 10
0
 20
0.0005
 30
0.088
 70
192
 0
VERTEX
 8
LATHE
 10
0
 20
0.001
 30
0.3201
 70
192
 0
VERTEX
 8
LATHE
 10
0
 20
0
 30
0
 70
128
 71
1
 72
2
 73
33
 74
32
 0
VERTEX
 8
LATHE
 10
0
 20
0
 30
0
 70
128
 71
2
 72
3
 73
34
 74
33
 0
VERTEX
 8
LATHE
 10
0
 20
0
 30
0
 70
128
 71
3
 72
4
 73
35
 74
34
 0
VERTEX
 8
LATHE
 10
0
 20
0
 30
0
 70
128
 71
4
 72
5
 73
36
 74
35
 0
VERTEX
 8
LATHE
 10
0
 20
0
 30
0
 70
128
 71
5
 72
6
 73
37
 74
36
 0
VERTEX
 8
LATHE
 10
0
 20
0
 30
0
 70
128
 71
6
 72
7
 73
38
 74
37
 0
VERTEX
 8
LATHE
 10
0
 20
0
 30
0
 70
128
 71
7
 72
8
 73
39
 74
38
 0
VERTEX
 8
LATHE
 10
0
 20
0
 30
0
 70
128
 71
8
 72
9
 73
40
 74
39
 0
VERTEX
 8
LATHE
 10
0
 20
0
 30
0
 70
128
 71
9
 72
10
 73
41
 74
40
 0
VERTEX
 8
LATHE
 10
0
 20
0
 30
0
 70
128
 71
10
 72
11
 73
42
 74
41
 0
VERTEX
 8
LATHE
 10
0
 20
0
 30
0
 70
128
 71
11
 72
12
 73
43
 74
42
 0
VERTEX
 8
LATHE
 10
0
 20
0
 30
0
 70
128
 71
12
 72
13
 73
44
 74
43
 0
VERTEX
 8
LATHE
 10
0
 20
0
 30
0
 70
128
 71
13
 72
14
 73
45
 74
44
 0
VERTEX
 8
LATHE
 10
0
 20
0
 30
0
 70
128
 71
14
 72
15
 73
46
 74
45
 0
VERTEX
 8
LATHE
 10
0
 20
0
 30
0
 70
128
 71
15
 72
16
 73
47
 74
46
 0
VERTEX
 8
LATHE
 10
0
 20
0
 30
0
 70
128
 71
16
 72
17
 73
48
 74
47
 0
VERTEX
 8
LATHE
 10
0
 20
0
 30
0
 70
128
 71
17
 72
18
 73
49
 74
48
 0
VERTEX
 8
LATHE
 10
0
 20
0
 30
0
 70
128
 71
18
 72
19
 73
50
 74
49
 0
VERTEX
 8
LATHE
 10
0
 20
0
 30
0
 70
128
 71
19
 72
20
 73
51
 74
50
 0
VERTEX
 8
LATHE
 10
0
 20
0
 30
0
 70
128
 71
20
 72
21
 73
52
 74
51
 0
VERTEX
 8
LATHE
 10
0
 20
0
 30
0
 70
128
 71
21
 72
22
 73
53
 74
52
 0
VERTEX
 8
LATHE
 10
0
 20
0
 30
0
 70
128
 71
22
 72
23
 73
54
 74
53
 0
VERTEX
 8
LATHE
 10
0
 20
0
 30
0
 70
128
 71
23
 72
24
 73
55
 74
54
 0
VERTEX
 8
LATHE
 10
0
 20
0
 30
0
 70
128
 71
24
 72
25
 73
56
 74
55
 0
VERTEX
 8
LATHE
 10
0
 20
0
 30
0
 70
128
 71
25
 72
26
 73
57
 74
56
 0
VERTEX
 8
LATHE
 10
0
 20
0
 30
0
 70
128
 71
26
 72
27
 73
58
 74
57
 0
VERTEX
 8
LATHE
 10
0
 20
0
 30
0
 70
128
 71
27
 72
28
 73
59
 74
58
 0
VERTEX
 8
LATHE
 10
0
 20
0
 30
0
 70
128
 71
28
 72
29
 73
60
 74
59
 0
VERTEX
 8
LATHE
 10
0
 20
0
 30
0
 70
128
 71
29
 72
30
 73
61
 74
60
 0
VERTEX
 8
LATHE
 10
0
 20
0
 30
0
 70
128
 71
30
 72
31
 73
62
 74
61
 0
VERTEX
 8
LATHE
 10
0
 20
0
 30
0
 70
128
 71
31
 72
1
 73
32
 74
62
 0
VERTEX
 8
LATHE
 10
0
 20
0
 30
0
 70
128
 71
32
 72
33
 73
64
 74
63
 0
VERTEX
 8
LATHE
 10
0
 20
0
 30
0
 70
128
 71
33
 72
34
 73
65
 74
64
 0
VERTEX
 8
LATHE
 10
0
 20
0
 30
0
 70
128
 71
34
 72
35
 73
66
 74
65
 0
VERTEX
 8
LATHE
 10
0
 20
0
 30
0
 70
128
 71
35
 72
36
 73
67
 74
66
 0
VERTEX
 8
LATHE
 10
0
 20
0
 30
0
 70
128
 71
36
 72
37
 73
68
 74
67
 0
VERTEX
 8
LATHE
 10
0
 20
0
 30
0
 70
128
 71
37
 72
38
 73
69
 74
68
 0
VERTEX
 8
LATHE
 10
0
 20
0
 30
0
 70
128
 71
38
 72
39
 73
70
 74
69
 0
VERTEX
 8
LATHE
 10
0
 20
0
 30
0
 70
128
 71
39
 72
40
 73
71
 74
70
 0
VERTEX
 8
LATHE
 10
0
 20
0
 30
0
 70
128
 71
40
 72
41
 73
72
 74
71
 0
VERTEX
 8
LATHE
 10
0
 20
0
 30
0
 70
128
 71
41
 72
42
 73
73
 74
72
 0
VERTEX
 8
LATHE
 10
0
 20
0
 30
0
 70
128
 71
42
 72
43
 73
74
 74
73
 0
VERTEX
 8
LATHE
 10
0
 20
0
 30
0
 70
128
 71
43
 72
44
 73
75
 74
74
 0
VERTEX
 8
LATHE
 10
0
 20
0
 30
0
 70
128
 71
44
 72
45
 73
76
 74
75
 0
VERTEX
 8
LATHE
 10
0
 20
0
 30
0
 70
128
 71
45
 72
46
 73
77
 74
76
 0
VERTEX
 8
LATHE
 10
0
 20
0
 30
0
 70
128
 71
46
 72
47
 73
78
 74
77
 0
VERTEX
 8
LATHE
 10
0
 20
0
 30
0
 70
128
 71
47
 72
48
 73
79
 74
78
 0
VERTEX
 8
LATHE
 10
0
 20
0
 30
0
 70
128
 71
48
 72
49
 73
80
 74
79
 0
VERTEX
 8
LATHE
 10
0
 20
0
 30
0
 70
128
 71
49
 72
50
 73
81
 74
80
 0
VERTEX
 8
LATHE
 10
0
 20
0
 30
0
 70
128
 71
50
 72
51
 73
82
 74
81
 0
VERTEX
 8
LATHE
 10
0
 20
0
 30
0
 70
128
 71
51
 72
52
 73
83
 74
82
 0
VERTEX
 8
LATHE
 10
0
 20
0
 30
0
 70
128
 71
52
 72
53
 73
84
 74
83
 0
VERTEX
 8
LATHE
 10
0
 20
0
 30
0
 70
128
 71
53
 72
54
 73
85
 74
84
 0
VERTEX
 8
LATHE
 10
0
 20
0
 30
0
 70
128
 71
54
 72
55
 73
86
 74
85
 0
VERTEX
 8
LATHE
 10
0
 20
0
 30
0
 70
128
 71
55
 72
56
 73
87
 74
86
 0
VERTEX
 8
LATHE
 10
0
 20
0
 30
0
 70
128
 71
56
 72
57
 73
88
 74
87
 0
VERTEX
 8
LATHE
 10
0
 20
0
 30
0
 70
128
 71
57
 72
58
 73
89
 74
88
 0
VERTEX
 8
LATHE
 10
0
 20
0
 30
0
 70
128
 71
58
 72
59
 73
90
 74
89
 0
VERTEX
 8
LATHE
 10
0
 20
0
 30
0
 70
128
 71
59
 72
60
 73
91
 74
90
 0
VERTEX
 8
LATHE
 10
0
 20
0
 30
0
 70
128
 71
60
 72
61
 73
92
 74
91
 0
VERTEX
 8
LATHE
 10
0
 20
0
 30
0
 70
128
 71
61
 72
62
 73
93
 74
92
 0
VERTEX
 8
LATHE
 10
0
 20
0
 30
0
 70
128
 71
62
 72
32
 73
63
 74
93
 0
VERTEX
 8
LATHE
 10
0
 20
0
 30
0
 70
128
 71
63
 72
64
 73
95
 74
94
 0
VERTEX
 8
LATHE
 10
0
 20
0
 30
0
 70
128
 71
64
 72
65
 73
96
 74
95
 0
VERTEX
 8
LATHE
 10
0
 20
0
 30
0
 70
128
 71
65
 72
66
 73
97
 74
96
 0
VERTEX
 8
LATHE
 10
0
 20
0
 30
0
 70
128
 71
66
 72
67
 73
98
 74
97
 0
VERTEX
 8
LATHE
 10
0
 20
0
 30
0
 70
128
 71
67
 72
68
 73
99
 74
98
 0
VERTEX
 8
LATHE
 10
0
 20
0
 30
0
 70
128
 71
68
 72
69
 73
100
 74
99
 0
VERTEX
 8
LATHE
 10
0
 20
0
 30
0
 70
128
 71
69
 72
70
 73
101
 74
100
 0
VERTEX
 8
LATHE
 10
0
 20
0
 30
0
 70
128
 71
70
 72
71
 73
102
 74
101
 0
VERTEX
 8
LATHE
 10
0
 20
0
 30
0
 70
128
 71
71
 72
72
 73
103
 74
102
 0
VERTEX
 8
LATHE
 10
0
 20
0
 30
0
 70
128
 71
72
 72
73
 73
104
 74
103
 0
VERTEX
 8
LATHE
 10
0
 20
0
 30
0
 70
128
 71
73
 72
74
 73
105
 74
104
 0
VERTEX
 8
LATHE
 10
0
 20
0
 30
0
 70
128
 71
74
 72
75
 73
106
 74
105
 0
VERTEX
 8
LATHE
 10
0
 20
0
 30
0
 70
128
 71
75
 72
76
 73
107
 74
106
 0
VERTEX
 8
LATHE
 10
0
 20
0
 30
0
 70
128
 71
76
 72
77
 73
108
 74
107
 0
VERTEX
 8
LATHE
 10
0
 20
0
 30
0
 70
128
 71
77
 72
78
 73
109
 74
108
 0
VERTEX
 8
LATHE
 10
0
 20
0
 30
0
 70
128
 71
78
 72
79
 73
110
 74
109
 0
VERTEX
 8
LATHE
 10
0
 20
0
 30
0
 70
128
 71
79
 72
80
 73
111
 74
110
 0
VERTEX
 8
LATHE
 10
0
 20
0
 30
0
 70
128
 71
80
 72
81
 73
112
 74
111
 0
VERTEX
 8
LATHE
 10
0
 20
0
 30
0
 70
128
 71
81
 72
82
 73
113
 74
112
 0
VERTEX
 8
LATHE
 10
0
 20
0
 30
0
 70
128
 71
82
 72
83
 73
114
 74
113
 0
VERTEX
 8
LATHE
 10
0
 20
0
 30
0
 70
128
 71
83
 72
84
 73
115
 74
114
 0
VERTEX
 8
LATHE
 10
0
 20
0
 30
0
 70
128
 71
84
 72
85
 73
116
 74
115
 0
VERTEX
 8
LATHE
 10
0
 20
0
 30
0
 70
128
 71
85
 72
86
 73
117
 74
116
 0
VERTEX
 8
LATHE
 10
0
 20
0
 30
0
 70
128
 71
86
 72
87
 73
118
 74
117
 0
VERTEX
 8
LATHE
 10
0
 20
0
 30
0
 70
128
 71
87
 72
88
 73
119
 74
118
 0
VERTEX
 8
LATHE
 10
0
 20
0
 30
0
 70
128
 71
88
 72
89
 73
120
 74
119
 0
VERTEX
 8
LATHE
 10
0
 20
0
 30
0
 70
128
 71
89
 72
90
 73
121
 74
120
 0
VERTEX
 8
LATHE
 10
0
 20
0
 30
0
 70
128
 71
90
 72
91
 73
122
 74
121
 0
VERTEX
 8
LATHE
 10
0
 20
0
 30
0
 70
128
 71
91
 72
92
 73
123
 74
122
 0
VERTEX
 8
LATHE
 10
0
 20
0
 30
0
 70
128
 71
92
 72
93
 73
124
 74
123
 0
VERTEX
 8
LATHE
 10
0
 20
0
 30
0
 70
128
 71
93
 72
63
 73
94
 74
124
 0
VERTEX
 8
LATHE
 10
0
 20
0
 30
0
 70
128
 71
94
 72
95
 73
2
 74
1
 0
VERTEX
 8
LATHE
 10
0
 20
0
 30
0
 70
128
 71
95
 72
96
 73
3
 74
2
 0
VERTEX
 8
LATHE
 10
0
 20
0
 30
0
 70
128
 71
96
 72
97
 73
4
 74
3
 0
VERTEX
 8
LATHE
 10
0
 20
0
 30
0
 70
128
 71
97
 72
98
 73
5
 74
4
 0
VERTEX
 8
LATHE
 10
0
 20
0
 30
0
 70
128
 71
98
 72
99
 73
6
 74
5
 0
VERTEX
 8
LATHE
 10
0
 20
0
 30
0
 70
128
 71
99
 72
100
 73
7
 74
6
 0
VERTEX
 8
LATHE
 10
0
 20
0
 30
0
 70
128
 71
100
 72
101
 73
8
 74
7
 0
VERTEX
 8
LATHE
 10
0
 20
0
 30
0
 70
128
 71
101
 72
102
 73
9
 74
8
 0
VERTEX
 8
LATHE
 10
0
 20
0
 30
0
 70
128
 71
102
 72
103
 73
10
 74
9
 0
VERTEX
 8
LATHE
 10
0
 20
0
 30
0
 70
128
 71
103
 72
104
 73
11
 74
10
 0
VERTEX
 8
LATHE
 10
0
 20
0
 30
0
 70
128
 71
104
 72
105
 73
12
 74
11
 0
VERTEX
 8
LATHE
 10
0
 20
0
 30
0
 70
128
 71
105
 72
106
 73
13
 74
12
 0
VERTEX
 8
LATHE
 10
0
 20
0
 30
0
 70
128
 71
106
 72
107
 73
14
 74
13
 0
VERTEX
 8
LATHE
 10
0
 20
0
 30
0
 70
128
 71
107
 72
108
 73
15
 74
14
 0
VERTEX
 8
LATHE
 10
0
 20
0
 30
0
 70
128
 71
108
 72
109
 73
16
 74
15
 0
VERTEX
 8
LATHE
 10
0
 20
0
 30
0
 70
128
 71
109
 72
110
 73
17
 74
16
 0
VERTEX
 8
LATHE
 10
0
 20
0
 30
0
 70
128
 71
110
 72
111
 73
18
 74
17
 0
VERTEX
 8
LATHE
 10
0
 20
0
 30
0
 70
128
 71
111
 72
112
 73
19
 74
18
 0
VERTEX
 8
LATHE
 10
0
 20
0
 30
0
 70
128
 71
112
 72
113
 73
20
 74
19
 0
VERTEX
 8
LATHE
 10
0
 20
0
 30
0
 70
128
 71
113
 72
114
 73
21
 74
20
 0
VERTEX
 8
LATHE
 10
0
 20
0
 30
0
 70
128
 71
114
 72
115
 73
22
 74
21
 0
VERTEX
 8
LATHE
 10
0
 20
0
 30
0
 70
128
 71
115
 72
116
 73
23
 74
22
 0
VERTEX
 8
LATHE
 10
0
 20
0
 30
0
 70
128
 71
116
 72
117
 73
24
 74
23
 0
VERTEX
 8
LATHE
 10
0
 20
0
 30
0
 70
128
 71
117
 72
118
 73
25
 74
24
 0
VERTEX
 8
LATHE
 10
0
 20
0
 30
0
 70
128
 71
118
 72
119
 73
26
 74
25
 0
VERTEX
 8
LATHE
 10
0
 20
0
 30
0
 70
128
 71
119
 72
120
 73
27
 74
26
 0
VERTEX
 8
LATHE
 10
0
 20
0
 30
0
 70
128
 71
120
 72
121
 73
28
 74
27
 0
VERTEX
 8
LATHE
 10
0
 20
0
 30
0
 70
128
 71
121
 72
122
 73
29
 74
28
 0
VERTEX
 8
LATHE
 10
0
 20
0
 30
0
 70
128
 71
122
 72
123
 73
30
 74
29
 0
VERTEX
 8
LATHE
 10
0
 20
0
 30
0
 70
128
 71
123
 72
124
 73
31
 74
30
 0
VERTEX
 8
LATHE
 10
0
 20
0
 30
0
 70
128
 71
124
 72
94
 73
1
 74
31
 0
SEQEND
 0
ENDSEC
 0
EOF
