 0
SECTION
 2
HEADER
 9
$ACADVER
 1
AC1009
 0
ENDSEC
 0
SECTION
 2
TABLES
 0
TABLE
 2
LTYPE
 70
1
 0
LTYPE
 2
CONTINUOUS
 70
64
 3
solid line
 72
65
 73
0
 40
0.0
 0
ENDTAB
 0
TABLE
 2
LAYER
 70
6
 0
LAYER
 2
0
 70
0
 62
7
 6
CONTINUOUS
 0
LAYER
 2
BOOLE_4
 70
64
 62
7
 6
CONTINUOUS
 0
LAYER
 2
CUBE
 70
64
 62
33
 6
CONTINUOUS
 0
LAYER
 2
EXTRUDE
 70
64
 62
33
 6
CONTINUOUS
 0
LAYER
 2
CAP_1
 70
64
 62
33
 6
CONTINUOUS
 0
LAYER
 2
CAP_2
 70
64
 62
33
 6
CONTINUOUS
 0
LAYER
 2
BOOLE_3
 70
64
 62
7
 6
CONTINUOUS
 0
LAYER
 2
CUBE_1
 70
64
 62
0
 6
CONTINUOUS
 0
LAYER
 2
CUBE_2
 70
64
 62
0
 6
CONTINUOUS
 0
LAYER
 2
BOOLE_2
 70
64
 62
7
 6
CONTINUOUS
 0
LAYER
 2
CUBE_1_1
 70
64
 62
0
 6
CONTINUOUS
 0
LAYER
 2
CUBE_2_1
 70
64
 62
0
 6
CONTINUOUS
 0
LAYER
 2
BOOLE_1
 70
64
 62
7
 6
CONTINUOUS
 0
LAYER
 2
CUBE_3
 70
64
 62
33
 6
CONTINUOUS
 0
LAYER
 2
CUBE_2_2
 70
64
 62
33
 6
CONTINUOUS
 0
LAYER
 2
BOOLE
 70
64
 62
7
 6
CONTINUOUS
 0
LAYER
 2
CUBE_1_2
 70
64
 62
0
 6
CONTINUOUS
 0
LAYER
 2
CUBE_2_3
 70
64
 62
0
 6
CONTINUOUS
 0
ENDTAB
 0
ENDSEC
 0
SECTION
 2
BLOCKS
 0
ENDSEC
 0
SECTION
 2
ENTITIES
 0
POLYLINE
 8
CUBE
 66
1
 10
0.0
 20
0.0
 30
0.0
 70
64
 71
224
 72
210
 0
VERTEX
 8
CUBE
 10
-0.2453
 20
-0.1972
 30
0.5684
 70
192
 0
VERTEX
 8
CUBE
 10
-0.2645
 20
-0.2127
 30
0.6184
 70
192
 0
VERTEX
 8
CUBE
 10
0.2453
 20
-0.1972
 30
0.5684
 70
192
 0
VERTEX
 8
CUBE
 10
0.2645
 20
-0.2127
 30
0.6184
 70
192
 0
VERTEX
 8
CUBE
 10
0.2453
 20
0.1972
 30
0.5684
 70
192
 0
VERTEX
 8
CUBE
 10
0.2645
 20
0.2127
 30
0.6184
 70
192
 0
VERTEX
 8
CUBE
 10
-0.2453
 20
0.1972
 30
0.5684
 70
192
 0
VERTEX
 8
CUBE
 10
-0.2645
 20
0.2127
 30
0.6184
 70
192
 0
VERTEX
 8
CUBE
 10
-0.2504
 20
-0.1986
 30
0.6184
 70
192
 0
VERTEX
 8
CUBE
 10
0.2504
 20
-0.1986
 30
0.6184
 70
192
 0
VERTEX
 8
CUBE
 10
0.2504
 20
0.1986
 30
0.6184
 70
192
 0
VERTEX
 8
CUBE
 10
-0.2504
 20
0.1986
 30
0.6184
 70
192
 0
VERTEX
 8
CUBE
 10
-0.2482
 20
-0.1964
 30
0.573
 70
192
 0
VERTEX
 8
CUBE
 10
0.2482
 20
-0.1964
 30
0.573
 70
192
 0
VERTEX
 8
CUBE
 10
0.2482
 20
0.1964
 30
0.573
 70
192
 0
VERTEX
 8
CUBE
 10
-0.2482
 20
0.1964
 30
0.573
 70
192
 0
VERTEX
 8
CUBE
 10
0.2605
 20
0.0519
 30
0.6081
 70
192
 0
VERTEX
 8
CUBE
 10
0.2605
 20
0.0521
 30
0.6081
 70
192
 0
VERTEX
 8
CUBE
 10
0.2606
 20
-0.0035
 30
0.6083
 70
192
 0
VERTEX
 8
CUBE
 10
0.2605
 20
-0.0586
 30
0.6081
 70
192
 0
VERTEX
 8
CUBE
 10
0.2602
 20
-0.0593
 30
0.6071
 70
192
 0
VERTEX
 8
CUBE
 10
0.2596
 20
-0.0603
 30
0.6056
 70
192
 0
VERTEX
 8
CUBE
 10
0.2589
 20
-0.0612
 30
0.6039
 70
192
 0
VERTEX
 8
CUBE
 10
0.2583
 20
-0.0619
 30
0.6024
 70
192
 0
VERTEX
 8
CUBE
 10
0.2578
 20
-0.0622
 30
0.6011
 70
192
 0
VERTEX
 8
CUBE
 10
0.2573
 20
-0.0625
 30
0.5997
 70
192
 0
VERTEX
 8
CUBE
 10
0.2568
 20
-0.0626
 30
0.5983
 70
192
 0
VERTEX
 8
CUBE
 10
0.2564
 20
-0.0626
 30
0.5973
 70
192
 0
VERTEX
 8
CUBE
 10
0.256
 20
-0.0625
 30
0.5964
 70
192
 0
VERTEX
 8
CUBE
 10
0.2556
 20
-0.0622
 30
0.5954
 70
192
 0
VERTEX
 8
CUBE
 10
0.2553
 20
-0.0619
 30
0.5944
 70
192
 0
VERTEX
 8
CUBE
 10
0.2549
 20
-0.0614
 30
0.5934
 70
192
 0
VERTEX
 8
CUBE
 10
0.2545
 20
-0.0608
 30
0.5925
 70
192
 0
VERTEX
 8
CUBE
 10
0.2542
 20
-0.06
 30
0.5915
 70
192
 0
VERTEX
 8
CUBE
 10
0.254
 20
-0.0596
 30
0.591
 70
192
 0
VERTEX
 8
CUBE
 10
0.2536
 20
-0.0586
 30
0.5901
 70
192
 0
VERTEX
 8
CUBE
 10
0.2536
 20
-0.0584
 30
0.59
 70
192
 0
VERTEX
 8
CUBE
 10
0.2535
 20
-0.058
 30
0.5899
 70
192
 0
VERTEX
 8
CUBE
 10
0.2534
 20
-0.0564
 30
0.5896
 70
192
 0
VERTEX
 8
CUBE
 10
0.2531
 20
0.0036
 30
0.5887
 70
192
 0
VERTEX
 8
CUBE
 10
0.2532
 20
0.0521
 30
0.589
 70
192
 0
VERTEX
 8
CUBE
 10
0.2534
 20
0.053
 30
0.5896
 70
192
 0
VERTEX
 8
CUBE
 10
0.2539
 20
0.0546
 30
0.5907
 70
192
 0
VERTEX
 8
CUBE
 10
0.2543
 20
0.0558
 30
0.5918
 70
192
 0
VERTEX
 8
CUBE
 10
0.2548
 20
0.0569
 30
0.5932
 70
192
 0
VERTEX
 8
CUBE
 10
0.2552
 20
0.0577
 30
0.5943
 70
192
 0
VERTEX
 8
CUBE
 10
0.2555
 20
0.0582
 30
0.5951
 70
192
 0
VERTEX
 8
CUBE
 10
0.2559
 20
0.0586
 30
0.596
 70
192
 0
VERTEX
 8
CUBE
 10
0.2562
 20
0.0589
 30
0.5969
 70
192
 0
VERTEX
 8
CUBE
 10
0.2566
 20
0.0591
 30
0.5979
 70
192
 0
VERTEX
 8
CUBE
 10
0.257
 20
0.0592
 30
0.5989
 70
192
 0
VERTEX
 8
CUBE
 10
0.2574
 20
0.0591
 30
0.6
 70
192
 0
VERTEX
 8
CUBE
 10
0.2578
 20
0.0589
 30
0.6011
 70
192
 0
VERTEX
 8
CUBE
 10
0.2583
 20
0.0585
 30
0.6022
 70
192
 0
VERTEX
 8
CUBE
 10
0.2587
 20
0.0579
 30
0.6034
 70
192
 0
VERTEX
 8
CUBE
 10
0.2592
 20
0.0572
 30
0.6046
 70
192
 0
VERTEX
 8
CUBE
 10
0.2597
 20
0.0562
 30
0.6059
 70
192
 0
VERTEX
 8
CUBE
 10
0.2604
 20
0.0542
 30
0.6078
 70
192
 0
VERTEX
 8
CUBE
 10
0.2604
 20
0.0539
 30
0.6077
 70
192
 0
VERTEX
 8
CUBE
 10
0.2604
 20
0.0536
 30
0.6077
 70
192
 0
VERTEX
 8
CUBE
 10
0.2604
 20
0.0533
 30
0.6076
 70
192
 0
VERTEX
 8
CUBE
 10
0.2604
 20
0.0531
 30
0.6076
 70
192
 0
VERTEX
 8
CUBE
 10
0.2604
 20
0.0529
 30
0.6077
 70
192
 0
VERTEX
 8
CUBE
 10
0.2604
 20
0.0527
 30
0.6077
 70
192
 0
VERTEX
 8
CUBE
 10
0.2604
 20
0.0526
 30
0.6078
 70
192
 0
VERTEX
 8
CUBE
 10
0.2604
 20
0.0524
 30
0.6078
 70
192
 0
VERTEX
 8
CUBE
 10
0.2605
 20
0.0523
 30
0.6079
 70
192
 0
VERTEX
 8
CUBE
 10
0.2605
 20
0.0522
 30
0.608
 70
192
 0
VERTEX
 8
CUBE
 10
-0.2605
 20
0.0519
 30
0.6081
 70
192
 0
VERTEX
 8
CUBE
 10
-0.2605
 20
0.0521
 30
0.6081
 70
192
 0
VERTEX
 8
CUBE
 10
-0.2606
 20
-0.0035
 30
0.6083
 70
192
 0
VERTEX
 8
CUBE
 10
-0.2605
 20
-0.0586
 30
0.6081
 70
192
 0
VERTEX
 8
CUBE
 10
-0.2602
 20
-0.0593
 30
0.6071
 70
192
 0
VERTEX
 8
CUBE
 10
-0.2596
 20
-0.0603
 30
0.6056
 70
192
 0
VERTEX
 8
CUBE
 10
-0.2589
 20
-0.0612
 30
0.6039
 70
192
 0
VERTEX
 8
CUBE
 10
-0.2583
 20
-0.0619
 30
0.6024
 70
192
 0
VERTEX
 8
CUBE
 10
-0.2578
 20
-0.0622
 30
0.6011
 70
192
 0
VERTEX
 8
CUBE
 10
-0.2573
 20
-0.0625
 30
0.5997
 70
192
 0
VERTEX
 8
CUBE
 10
-0.2568
 20
-0.0626
 30
0.5983
 70
192
 0
VERTEX
 8
CUBE
 10
-0.2564
 20
-0.0626
 30
0.5973
 70
192
 0
VERTEX
 8
CUBE
 10
-0.256
 20
-0.0625
 30
0.5964
 70
192
 0
VERTEX
 8
CUBE
 10
-0.2556
 20
-0.0622
 30
0.5954
 70
192
 0
VERTEX
 8
CUBE
 10
-0.2553
 20
-0.0619
 30
0.5944
 70
192
 0
VERTEX
 8
CUBE
 10
-0.2549
 20
-0.0614
 30
0.5934
 70
192
 0
VERTEX
 8
CUBE
 10
-0.2545
 20
-0.0608
 30
0.5925
 70
192
 0
VERTEX
 8
CUBE
 10
-0.2542
 20
-0.06
 30
0.5915
 70
192
 0
VERTEX
 8
CUBE
 10
-0.254
 20
-0.0596
 30
0.591
 70
192
 0
VERTEX
 8
CUBE
 10
-0.2536
 20
-0.0586
 30
0.5901
 70
192
 0
VERTEX
 8
CUBE
 10
-0.2536
 20
-0.0584
 30
0.59
 70
192
 0
VERTEX
 8
CUBE
 10
-0.2535
 20
-0.058
 30
0.5899
 70
192
 0
VERTEX
 8
CUBE
 10
-0.2534
 20
-0.0564
 30
0.5896
 70
192
 0
VERTEX
 8
CUBE
 10
-0.2531
 20
0.0036
 30
0.5887
 70
192
 0
VERTEX
 8
CUBE
 10
-0.2532
 20
0.0521
 30
0.589
 70
192
 0
VERTEX
 8
CUBE
 10
-0.2534
 20
0.053
 30
0.5896
 70
192
 0
VERTEX
 8
CUBE
 10
-0.2539
 20
0.0546
 30
0.5907
 70
192
 0
VERTEX
 8
CUBE
 10
-0.2543
 20
0.0558
 30
0.5918
 70
192
 0
VERTEX
 8
CUBE
 10
-0.2548
 20
0.0569
 30
0.5932
 70
192
 0
VERTEX
 8
CUBE
 10
-0.2552
 20
0.0577
 30
0.5943
 70
192
 0
VERTEX
 8
CUBE
 10
-0.2555
 20
0.0582
 30
0.5951
 70
192
 0
VERTEX
 8
CUBE
 10
-0.2559
 20
0.0586
 30
0.596
 70
192
 0
VERTEX
 8
CUBE
 10
-0.2562
 20
0.0589
 30
0.5969
 70
192
 0
VERTEX
 8
CUBE
 10
-0.2566
 20
0.0591
 30
0.5979
 70
192
 0
VERTEX
 8
CUBE
 10
-0.257
 20
0.0592
 30
0.5989
 70
192
 0
VERTEX
 8
CUBE
 10
-0.2574
 20
0.0591
 30
0.6
 70
192
 0
VERTEX
 8
CUBE
 10
-0.2578
 20
0.0589
 30
0.6011
 70
192
 0
VERTEX
 8
CUBE
 10
-0.2583
 20
0.0585
 30
0.6022
 70
192
 0
VERTEX
 8
CUBE
 10
-0.2587
 20
0.0579
 30
0.6034
 70
192
 0
VERTEX
 8
CUBE
 10
-0.2592
 20
0.0572
 30
0.6046
 70
192
 0
VERTEX
 8
CUBE
 10
-0.2597
 20
0.0562
 30
0.6059
 70
192
 0
VERTEX
 8
CUBE
 10
-0.2604
 20
0.0542
 30
0.6078
 70
192
 0
VERTEX
 8
CUBE
 10
-0.2604
 20
0.0539
 30
0.6077
 70
192
 0
VERTEX
 8
CUBE
 10
-0.2604
 20
0.0536
 30
0.6077
 70
192
 0
VERTEX
 8
CUBE
 10
-0.2604
 20
0.0533
 30
0.6076
 70
192
 0
VERTEX
 8
CUBE
 10
-0.2604
 20
0.0531
 30
0.6076
 70
192
 0
VERTEX
 8
CUBE
 10
-0.2604
 20
0.0529
 30
0.6077
 70
192
 0
VERTEX
 8
CUBE
 10
-0.2604
 20
0.0527
 30
0.6077
 70
192
 0
VERTEX
 8
CUBE
 10
-0.2604
 20
0.0526
 30
0.6078
 70
192
 0
VERTEX
 8
CUBE
 10
-0.2604
 20
0.0524
 30
0.6078
 70
192
 0
VERTEX
 8
CUBE
 10
-0.2605
 20
0.0523
 30
0.6079
 70
192
 0
VERTEX
 8
CUBE
 10
-0.2605
 20
0.0522
 30
0.608
 70
192
 0
VERTEX
 8
CUBE
 10
0.2499
 20
0.0519
 30
0.6081
 70
192
 0
VERTEX
 8
CUBE
 10
0.2499
 20
0.0521
 30
0.6081
 70
192
 0
VERTEX
 8
CUBE
 10
0.2499
 20
-0.0035
 30
0.6083
 70
192
 0
VERTEX
 8
CUBE
 10
0.2499
 20
-0.0586
 30
0.6081
 70
192
 0
VERTEX
 8
CUBE
 10
0.2498
 20
-0.0593
 30
0.6071
 70
192
 0
VERTEX
 8
CUBE
 10
0.2498
 20
-0.0603
 30
0.6056
 70
192
 0
VERTEX
 8
CUBE
 10
0.2497
 20
-0.0612
 30
0.6039
 70
192
 0
VERTEX
 8
CUBE
 10
0.2496
 20
-0.0619
 30
0.6024
 70
192
 0
VERTEX
 8
CUBE
 10
0.2495
 20
-0.0622
 30
0.6011
 70
192
 0
VERTEX
 8
CUBE
 10
0.2495
 20
-0.0625
 30
0.5997
 70
192
 0
VERTEX
 8
CUBE
 10
0.2494
 20
-0.0626
 30
0.5983
 70
192
 0
VERTEX
 8
CUBE
 10
0.2494
 20
-0.0626
 30
0.5973
 70
192
 0
VERTEX
 8
CUBE
 10
0.2493
 20
-0.0625
 30
0.5964
 70
192
 0
VERTEX
 8
CUBE
 10
0.2493
 20
-0.0622
 30
0.5954
 70
192
 0
VERTEX
 8
CUBE
 10
0.2492
 20
-0.0619
 30
0.5944
 70
192
 0
VERTEX
 8
CUBE
 10
0.2492
 20
-0.0614
 30
0.5934
 70
192
 0
VERTEX
 8
CUBE
 10
0.2491
 20
-0.0608
 30
0.5925
 70
192
 0
VERTEX
 8
CUBE
 10
0.2491
 20
-0.06
 30
0.5915
 70
192
 0
VERTEX
 8
CUBE
 10
0.2491
 20
-0.0596
 30
0.591
 70
192
 0
VERTEX
 8
CUBE
 10
0.249
 20
-0.0586
 30
0.5901
 70
192
 0
VERTEX
 8
CUBE
 10
0.249
 20
-0.0584
 30
0.59
 70
192
 0
VERTEX
 8
CUBE
 10
0.249
 20
-0.058
 30
0.5899
 70
192
 0
VERTEX
 8
CUBE
 10
0.249
 20
-0.0564
 30
0.5896
 70
192
 0
VERTEX
 8
CUBE
 10
0.249
 20
0.0036
 30
0.5887
 70
192
 0
VERTEX
 8
CUBE
 10
0.249
 20
0.0521
 30
0.589
 70
192
 0
VERTEX
 8
CUBE
 10
0.249
 20
0.053
 30
0.5896
 70
192
 0
VERTEX
 8
CUBE
 10
0.2491
 20
0.0546
 30
0.5907
 70
192
 0
VERTEX
 8
CUBE
 10
0.2491
 20
0.0558
 30
0.5918
 70
192
 0
VERTEX
 8
CUBE
 10
0.2492
 20
0.0569
 30
0.5932
 70
192
 0
VERTEX
 8
CUBE
 10
0.2492
 20
0.0577
 30
0.5943
 70
192
 0
VERTEX
 8
CUBE
 10
0.2493
 20
0.0582
 30
0.5951
 70
192
 0
VERTEX
 8
CUBE
 10
0.2493
 20
0.0586
 30
0.596
 70
192
 0
VERTEX
 8
CUBE
 10
0.2494
 20
0.0589
 30
0.5969
 70
192
 0
VERTEX
 8
CUBE
 10
0.2494
 20
0.0591
 30
0.5979
 70
192
 0
VERTEX
 8
CUBE
 10
0.2494
 20
0.0592
 30
0.5989
 70
192
 0
VERTEX
 8
CUBE
 10
0.2495
 20
0.0591
 30
0.6
 70
192
 0
VERTEX
 8
CUBE
 10
0.2495
 20
0.0589
 30
0.6011
 70
192
 0
VERTEX
 8
CUBE
 10
0.2496
 20
0.0585
 30
0.6022
 70
192
 0
VERTEX
 8
CUBE
 10
0.2497
 20
0.0579
 30
0.6034
 70
192
 0
VERTEX
 8
CUBE
 10
0.2497
 20
0.0572
 30
0.6046
 70
192
 0
VERTEX
 8
CUBE
 10
0.2498
 20
0.0562
 30
0.6059
 70
192
 0
VERTEX
 8
CUBE
 10
0.2499
 20
0.0542
 30
0.6078
 70
192
 0
VERTEX
 8
CUBE
 10
0.2499
 20
0.0539
 30
0.6077
 70
192
 0
VERTEX
 8
CUBE
 10
0.2499
 20
0.0536
 30
0.6077
 70
192
 0
VERTEX
 8
CUBE
 10
0.2499
 20
0.0533
 30
0.6076
 70
192
 0
VERTEX
 8
CUBE
 10
0.2499
 20
0.0531
 30
0.6076
 70
192
 0
VERTEX
 8
CUBE
 10
0.2499
 20
0.0529
 30
0.6077
 70
192
 0
VERTEX
 8
CUBE
 10
0.2499
 20
0.0527
 30
0.6077
 70
192
 0
VERTEX
 8
CUBE
 10
0.2499
 20
0.0526
 30
0.6078
 70
192
 0
VERTEX
 8
CUBE
 10
0.2499
 20
0.0524
 30
0.6078
 70
192
 0
VERTEX
 8
CUBE
 10
0.2499
 20
0.0523
 30
0.6079
 70
192
 0
VERTEX
 8
CUBE
 10
0.2499
 20
0.0522
 30
0.608
 70
192
 0
VERTEX
 8
CUBE
 10
-0.2499
 20
0.0519
 30
0.6081
 70
192
 0
VERTEX
 8
CUBE
 10
-0.2499
 20
0.0521
 30
0.6081
 70
192
 0
VERTEX
 8
CUBE
 10
-0.2499
 20
-0.0035
 30
0.6083
 70
192
 0
VERTEX
 8
CUBE
 10
-0.2499
 20
-0.0586
 30
0.6081
 70
192
 0
VERTEX
 8
CUBE
 10
-0.2498
 20
-0.0593
 30
0.6071
 70
192
 0
VERTEX
 8
CUBE
 10
-0.2498
 20
-0.0603
 30
0.6056
 70
192
 0
VERTEX
 8
CUBE
 10
-0.2497
 20
-0.0612
 30
0.6039
 70
192
 0
VERTEX
 8
CUBE
 10
-0.2496
 20
-0.0619
 30
0.6024
 70
192
 0
VERTEX
 8
CUBE
 10
-0.2495
 20
-0.0622
 30
0.6011
 70
192
 0
VERTEX
 8
CUBE
 10
-0.2495
 20
-0.0625
 30
0.5997
 70
192
 0
VERTEX
 8
CUBE
 10
-0.2494
 20
-0.0626
 30
0.5983
 70
192
 0
VERTEX
 8
CUBE
 10
-0.2494
 20
-0.0626
 30
0.5973
 70
192
 0
VERTEX
 8
CUBE
 10
-0.2493
 20
-0.0625
 30
0.5964
 70
192
 0
VERTEX
 8
CUBE
 10
-0.2493
 20
-0.0622
 30
0.5954
 70
192
 0
VERTEX
 8
CUBE
 10
-0.2492
 20
-0.0619
 30
0.5944
 70
192
 0
VERTEX
 8
CUBE
 10
-0.2492
 20
-0.0614
 30
0.5934
 70
192
 0
VERTEX
 8
CUBE
 10
-0.2491
 20
-0.0608
 30
0.5925
 70
192
 0
VERTEX
 8
CUBE
 10
-0.2491
 20
-0.06
 30
0.5915
 70
192
 0
VERTEX
 8
CUBE
 10
-0.2491
 20
-0.0596
 30
0.591
 70
192
 0
VERTEX
 8
CUBE
 10
-0.249
 20
-0.0586
 30
0.5901
 70
192
 0
VERTEX
 8
CUBE
 10
-0.249
 20
-0.0584
 30
0.59
 70
192
 0
VERTEX
 8
CUBE
 10
-0.249
 20
-0.058
 30
0.5899
 70
192
 0
VERTEX
 8
CUBE
 10
-0.249
 20
-0.0564
 30
0.5896
 70
192
 0
VERTEX
 8
CUBE
 10
-0.249
 20
0.0036
 30
0.5887
 70
192
 0
VERTEX
 8
CUBE
 10
-0.249
 20
0.0521
 30
0.589
 70
192
 0
VERTEX
 8
CUBE
 10
-0.249
 20
0.053
 30
0.5896
 70
192
 0
VERTEX
 8
CUBE
 10
-0.2491
 20
0.0546
 30
0.5907
 70
192
 0
VERTEX
 8
CUBE
 10
-0.2491
 20
0.0558
 30
0.5918
 70
192
 0
VERTEX
 8
CUBE
 10
-0.2492
 20
0.0569
 30
0.5932
 70
192
 0
VERTEX
 8
CUBE
 10
-0.2492
 20
0.0577
 30
0.5943
 70
192
 0
VERTEX
 8
CUBE
 10
-0.2493
 20
0.0582
 30
0.5951
 70
192
 0
VERTEX
 8
CUBE
 10
-0.2493
 20
0.0586
 30
0.596
 70
192
 0
VERTEX
 8
CUBE
 10
-0.2494
 20
0.0589
 30
0.5969
 70
192
 0
VERTEX
 8
CUBE
 10
-0.2494
 20
0.0591
 30
0.5979
 70
192
 0
VERTEX
 8
CUBE
 10
-0.2494
 20
0.0592
 30
0.5989
 70
192
 0
VERTEX
 8
CUBE
 10
-0.2495
 20
0.0591
 30
0.6
 70
192
 0
VERTEX
 8
CUBE
 10
-0.2495
 20
0.0589
 30
0.6011
 70
192
 0
VERTEX
 8
CUBE
 10
-0.2496
 20
0.0585
 30
0.6022
 70
192
 0
VERTEX
 8
CUBE
 10
-0.2497
 20
0.0579
 30
0.6034
 70
192
 0
VERTEX
 8
CUBE
 10
-0.2497
 20
0.0572
 30
0.6046
 70
192
 0
VERTEX
 8
CUBE
 10
-0.2498
 20
0.0562
 30
0.6059
 70
192
 0
VERTEX
 8
CUBE
 10
-0.2499
 20
0.0542
 30
0.6078
 70
192
 0
VERTEX
 8
CUBE
 10
-0.2499
 20
0.0539
 30
0.6077
 70
192
 0
VERTEX
 8
CUBE
 10
-0.2499
 20
0.0536
 30
0.6077
 70
192
 0
VERTEX
 8
CUBE
 10
-0.2499
 20
0.0533
 30
0.6076
 70
192
 0
VERTEX
 8
CUBE
 10
-0.2499
 20
0.0531
 30
0.6076
 70
192
 0
VERTEX
 8
CUBE
 10
-0.2499
 20
0.0529
 30
0.6077
 70
192
 0
VERTEX
 8
CUBE
 10
-0.2499
 20
0.0527
 30
0.6077
 70
192
 0
VERTEX
 8
CUBE
 10
-0.2499
 20
0.0526
 30
0.6078
 70
192
 0
VERTEX
 8
CUBE
 10
-0.2499
 20
0.0524
 30
0.6078
 70
192
 0
VERTEX
 8
CUBE
 10
-0.2499
 20
0.0523
 30
0.6079
 70
192
 0
VERTEX
 8
CUBE
 10
-0.2499
 20
0.0522
 30
0.608
 70
192
 0
VERTEX
 8
CUBE
 10
0
 20
0
 30
0
 70
128
 71
1
 72
2
 73
4
 74
3
 0
VERTEX
 8
CUBE
 10
0
 20
0
 30
0
 70
128
 71
64
 72
65
 73
66
 74
63
 0
VERTEX
 8
CUBE
 10
0
 20
0
 30
0
 70
128
 71
5
 72
40
 73
41
 74
41
 0
VERTEX
 8
CUBE
 10
0
 20
0
 30
0
 70
128
 71
58
 72
59
 73
66
 74
66
 0
VERTEX
 8
CUBE
 10
0
 20
0
 30
0
 70
128
 71
60
 72
61
 73
62
 74
59
 0
VERTEX
 8
CUBE
 10
0
 20
0
 30
0
 70
128
 71
67
 72
68
 73
6
 74
6
 0
VERTEX
 8
CUBE
 10
0
 20
0
 30
0
 70
128
 71
6
 72
5
 73
42
 74
43
 0
VERTEX
 8
CUBE
 10
0
 20
0
 30
0
 70
128
 71
66
 72
67
 73
6
 74
6
 0
VERTEX
 8
CUBE
 10
0
 20
0
 30
0
 70
128
 71
39
 72
40
 73
5
 74
3
 0
VERTEX
 8
CUBE
 10
0
 20
0
 30
0
 70
128
 71
59
 72
62
 73
63
 74
66
 0
VERTEX
 8
CUBE
 10
0
 20
0
 30
0
 70
128
 71
5
 72
41
 73
42
 74
42
 0
VERTEX
 8
CUBE
 10
0
 20
0
 30
0
 70
128
 71
38
 72
39
 73
3
 74
3
 0
VERTEX
 8
CUBE
 10
0
 20
0
 30
0
 70
128
 71
38
 72
3
 73
37
 74
37
 0
VERTEX
 8
CUBE
 10
0
 20
0
 30
0
 70
128
 71
58
 72
66
 73
6
 74
6
 0
VERTEX
 8
CUBE
 10
0
 20
0
 30
0
 70
128
 71
6
 72
43
 73
44
 74
44
 0
VERTEX
 8
CUBE
 10
0
 20
0
 30
0
 70
128
 71
68
 72
18
 73
6
 74
6
 0
VERTEX
 8
CUBE
 10
0
 20
0
 30
0
 70
128
 71
37
 72
3
 73
4
 74
4
 0
VERTEX
 8
CUBE
 10
0
 20
0
 30
0
 70
128
 71
6
 72
44
 73
45
 74
45
 0
VERTEX
 8
CUBE
 10
0
 20
0
 30
0
 70
128
 71
36
 72
37
 73
4
 74
4
 0
VERTEX
 8
CUBE
 10
0
 20
0
 30
0
 70
128
 71
6
 72
45
 73
46
 74
46
 0
VERTEX
 8
CUBE
 10
0
 20
0
 30
0
 70
128
 71
35
 72
36
 73
4
 74
4
 0
VERTEX
 8
CUBE
 10
0
 20
0
 30
0
 70
128
 71
6
 72
46
 73
47
 74
47
 0
VERTEX
 8
CUBE
 10
0
 20
0
 30
0
 70
128
 71
34
 72
35
 73
4
 74
4
 0
VERTEX
 8
CUBE
 10
0
 20
0
 30
0
 70
128
 71
6
 72
47
 73
48
 74
48
 0
VERTEX
 8
CUBE
 10
0
 20
0
 30
0
 70
128
 71
33
 72
34
 73
4
 74
4
 0
VERTEX
 8
CUBE
 10
0
 20
0
 30
0
 70
128
 71
6
 72
48
 73
49
 74
49
 0
VERTEX
 8
CUBE
 10
0
 20
0
 30
0
 70
128
 71
32
 72
33
 73
4
 74
4
 0
VERTEX
 8
CUBE
 10
0
 20
0
 30
0
 70
128
 71
6
 72
49
 73
50
 74
50
 0
VERTEX
 8
CUBE
 10
0
 20
0
 30
0
 70
128
 71
31
 72
32
 73
4
 74
4
 0
VERTEX
 8
CUBE
 10
0
 20
0
 30
0
 70
128
 71
6
 72
50
 73
51
 74
51
 0
VERTEX
 8
CUBE
 10
0
 20
0
 30
0
 70
128
 71
30
 72
31
 73
4
 74
4
 0
VERTEX
 8
CUBE
 10
0
 20
0
 30
0
 70
128
 71
6
 72
51
 73
52
 74
52
 0
VERTEX
 8
CUBE
 10
0
 20
0
 30
0
 70
128
 71
29
 72
30
 73
4
 74
4
 0
VERTEX
 8
CUBE
 10
0
 20
0
 30
0
 70
128
 71
6
 72
52
 73
53
 74
53
 0
VERTEX
 8
CUBE
 10
0
 20
0
 30
0
 70
128
 71
28
 72
29
 73
4
 74
4
 0
VERTEX
 8
CUBE
 10
0
 20
0
 30
0
 70
128
 71
27
 72
28
 73
4
 74
4
 0
VERTEX
 8
CUBE
 10
0
 20
0
 30
0
 70
128
 71
6
 72
53
 73
54
 74
54
 0
VERTEX
 8
CUBE
 10
0
 20
0
 30
0
 70
128
 71
26
 72
27
 73
4
 74
4
 0
VERTEX
 8
CUBE
 10
0
 20
0
 30
0
 70
128
 71
6
 72
54
 73
55
 74
55
 0
VERTEX
 8
CUBE
 10
0
 20
0
 30
0
 70
128
 71
25
 72
26
 73
4
 74
4
 0
VERTEX
 8
CUBE
 10
0
 20
0
 30
0
 70
128
 71
6
 72
55
 73
56
 74
56
 0
VERTEX
 8
CUBE
 10
0
 20
0
 30
0
 70
128
 71
24
 72
25
 73
4
 74
4
 0
VERTEX
 8
CUBE
 10
0
 20
0
 30
0
 70
128
 71
6
 72
56
 73
57
 74
57
 0
VERTEX
 8
CUBE
 10
0
 20
0
 30
0
 70
128
 71
23
 72
24
 73
4
 74
4
 0
VERTEX
 8
CUBE
 10
0
 20
0
 30
0
 70
128
 71
6
 72
57
 73
58
 74
58
 0
VERTEX
 8
CUBE
 10
0
 20
0
 30
0
 70
128
 71
22
 72
23
 73
4
 74
4
 0
VERTEX
 8
CUBE
 10
0
 20
0
 30
0
 70
128
 71
6
 72
18
 73
17
 74
17
 0
VERTEX
 8
CUBE
 10
0
 20
0
 30
0
 70
128
 71
21
 72
22
 73
4
 74
4
 0
VERTEX
 8
CUBE
 10
0
 20
0
 30
0
 70
128
 71
6
 72
17
 73
19
 74
19
 0
VERTEX
 8
CUBE
 10
0
 20
0
 30
0
 70
128
 71
20
 72
21
 73
4
 74
4
 0
VERTEX
 8
CUBE
 10
0
 20
0
 30
0
 70
128
 71
4
 72
6
 73
19
 74
20
 0
VERTEX
 8
CUBE
 10
0
 20
0
 30
0
 70
128
 71
5
 72
6
 73
8
 74
7
 0
VERTEX
 8
CUBE
 10
0
 20
0
 30
0
 70
128
 71
1
 72
92
 73
91
 74
91
 0
VERTEX
 8
CUBE
 10
0
 20
0
 30
0
 70
128
 71
116
 72
115
 73
118
 74
117
 0
VERTEX
 8
CUBE
 10
0
 20
0
 30
0
 70
128
 71
92
 72
1
 73
7
 74
93
 0
VERTEX
 8
CUBE
 10
0
 20
0
 30
0
 70
128
 71
114
 72
113
 73
112
 74
111
 0
VERTEX
 8
CUBE
 10
0
 20
0
 30
0
 70
128
 71
70
 72
120
 73
8
 74
8
 0
VERTEX
 8
CUBE
 10
0
 20
0
 30
0
 70
128
 71
1
 72
91
 73
90
 74
90
 0
VERTEX
 8
CUBE
 10
0
 20
0
 30
0
 70
128
 71
114
 72
111
 73
118
 74
115
 0
VERTEX
 8
CUBE
 10
0
 20
0
 30
0
 70
128
 71
120
 72
119
 73
8
 74
8
 0
VERTEX
 8
CUBE
 10
0
 20
0
 30
0
 70
128
 71
2
 72
1
 73
89
 74
89
 0
VERTEX
 8
CUBE
 10
0
 20
0
 30
0
 70
128
 71
93
 72
7
 73
94
 74
94
 0
VERTEX
 8
CUBE
 10
0
 20
0
 30
0
 70
128
 71
118
 72
111
 73
110
 74
110
 0
VERTEX
 8
CUBE
 10
0
 20
0
 30
0
 70
128
 71
119
 72
118
 73
8
 74
8
 0
VERTEX
 8
CUBE
 10
0
 20
0
 30
0
 70
128
 71
94
 72
7
 73
95
 74
95
 0
VERTEX
 8
CUBE
 10
0
 20
0
 30
0
 70
128
 71
1
 72
90
 73
89
 74
89
 0
VERTEX
 8
CUBE
 10
0
 20
0
 30
0
 70
128
 71
95
 72
7
 73
8
 74
96
 0
VERTEX
 8
CUBE
 10
0
 20
0
 30
0
 70
128
 71
2
 72
89
 73
88
 74
88
 0
VERTEX
 8
CUBE
 10
0
 20
0
 30
0
 70
128
 71
69
 72
70
 73
8
 74
8
 0
VERTEX
 8
CUBE
 10
0
 20
0
 30
0
 70
128
 71
2
 72
88
 73
87
 74
87
 0
VERTEX
 8
CUBE
 10
0
 20
0
 30
0
 70
128
 71
97
 72
96
 73
8
 74
8
 0
VERTEX
 8
CUBE
 10
0
 20
0
 30
0
 70
128
 71
2
 72
87
 73
86
 74
86
 0
VERTEX
 8
CUBE
 10
0
 20
0
 30
0
 70
128
 71
98
 72
97
 73
8
 74
8
 0
VERTEX
 8
CUBE
 10
0
 20
0
 30
0
 70
128
 71
2
 72
86
 73
85
 74
85
 0
VERTEX
 8
CUBE
 10
0
 20
0
 30
0
 70
128
 71
99
 72
98
 73
8
 74
8
 0
VERTEX
 8
CUBE
 10
0
 20
0
 30
0
 70
128
 71
2
 72
85
 73
84
 74
84
 0
VERTEX
 8
CUBE
 10
0
 20
0
 30
0
 70
128
 71
100
 72
99
 73
8
 74
8
 0
VERTEX
 8
CUBE
 10
0
 20
0
 30
0
 70
128
 71
2
 72
84
 73
83
 74
83
 0
VERTEX
 8
CUBE
 10
0
 20
0
 30
0
 70
128
 71
101
 72
100
 73
8
 74
8
 0
VERTEX
 8
CUBE
 10
0
 20
0
 30
0
 70
128
 71
2
 72
83
 73
82
 74
82
 0
VERTEX
 8
CUBE
 10
0
 20
0
 30
0
 70
128
 71
102
 72
101
 73
8
 74
8
 0
VERTEX
 8
CUBE
 10
0
 20
0
 30
0
 70
128
 71
2
 72
82
 73
81
 74
81
 0
VERTEX
 8
CUBE
 10
0
 20
0
 30
0
 70
128
 71
103
 72
102
 73
8
 74
8
 0
VERTEX
 8
CUBE
 10
0
 20
0
 30
0
 70
128
 71
2
 72
81
 73
80
 74
80
 0
VERTEX
 8
CUBE
 10
0
 20
0
 30
0
 70
128
 71
104
 72
103
 73
8
 74
8
 0
VERTEX
 8
CUBE
 10
0
 20
0
 30
0
 70
128
 71
2
 72
80
 73
79
 74
79
 0
VERTEX
 8
CUBE
 10
0
 20
0
 30
0
 70
128
 71
105
 72
104
 73
8
 74
8
 0
VERTEX
 8
CUBE
 10
0
 20
0
 30
0
 70
128
 71
2
 72
79
 73
78
 74
78
 0
VERTEX
 8
CUBE
 10
0
 20
0
 30
0
 70
128
 71
2
 72
78
 73
77
 74
77
 0
VERTEX
 8
CUBE
 10
0
 20
0
 30
0
 70
128
 71
106
 72
105
 73
8
 74
8
 0
VERTEX
 8
CUBE
 10
0
 20
0
 30
0
 70
128
 71
2
 72
77
 73
76
 74
76
 0
VERTEX
 8
CUBE
 10
0
 20
0
 30
0
 70
128
 71
107
 72
106
 73
8
 74
8
 0
VERTEX
 8
CUBE
 10
0
 20
0
 30
0
 70
128
 71
2
 72
76
 73
75
 74
75
 0
VERTEX
 8
CUBE
 10
0
 20
0
 30
0
 70
128
 71
108
 72
107
 73
8
 74
8
 0
VERTEX
 8
CUBE
 10
0
 20
0
 30
0
 70
128
 71
2
 72
75
 73
74
 74
74
 0
VERTEX
 8
CUBE
 10
0
 20
0
 30
0
 70
128
 71
109
 72
108
 73
8
 74
8
 0
VERTEX
 8
CUBE
 10
0
 20
0
 30
0
 70
128
 71
2
 72
74
 73
73
 74
73
 0
VERTEX
 8
CUBE
 10
0
 20
0
 30
0
 70
128
 71
110
 72
109
 73
8
 74
8
 0
VERTEX
 8
CUBE
 10
0
 20
0
 30
0
 70
128
 71
2
 72
73
 73
72
 74
72
 0
VERTEX
 8
CUBE
 10
0
 20
0
 30
0
 70
128
 71
118
 72
110
 73
8
 74
8
 0
VERTEX
 8
CUBE
 10
0
 20
0
 30
0
 70
128
 71
2
 72
72
 73
71
 74
8
 0
VERTEX
 8
CUBE
 10
0
 20
0
 30
0
 70
128
 71
71
 72
69
 73
8
 74
8
 0
VERTEX
 8
CUBE
 10
0
 20
0
 30
0
 70
128
 71
13
 72
16
 73
15
 74
14
 0
VERTEX
 8
CUBE
 10
0
 20
0
 30
0
 70
128
 71
7
 72
1
 73
3
 74
5
 0
VERTEX
 8
CUBE
 10
0
 20
0
 30
0
 70
128
 71
2
 72
9
 73
10
 74
4
 0
VERTEX
 8
CUBE
 10
0
 20
0
 30
0
 70
128
 71
4
 72
10
 73
11
 74
6
 0
VERTEX
 8
CUBE
 10
0
 20
0
 30
0
 70
128
 71
6
 72
11
 73
12
 74
8
 0
VERTEX
 8
CUBE
 10
0
 20
0
 30
0
 70
128
 71
8
 72
12
 73
9
 74
2
 0
VERTEX
 8
CUBE
 10
0
 20
0
 30
0
 70
128
 71
9
 72
13
 73
14
 74
10
 0
VERTEX
 8
CUBE
 10
0
 20
0
 30
0
 70
128
 71
168
 72
167
 73
170
 74
169
 0
VERTEX
 8
CUBE
 10
0
 20
0
 30
0
 70
128
 71
122
 72
172
 73
11
 74
11
 0
VERTEX
 8
CUBE
 10
0
 20
0
 30
0
 70
128
 71
166
 72
165
 73
164
 74
163
 0
VERTEX
 8
CUBE
 10
0
 20
0
 30
0
 70
128
 71
145
 72
144
 73
15
 74
15
 0
VERTEX
 8
CUBE
 10
0
 20
0
 30
0
 70
128
 71
145
 72
15
 73
146
 74
146
 0
VERTEX
 8
CUBE
 10
0
 20
0
 30
0
 70
128
 71
166
 72
163
 73
170
 74
167
 0
VERTEX
 8
CUBE
 10
0
 20
0
 30
0
 70
128
 71
172
 72
171
 73
11
 74
11
 0
VERTEX
 8
CUBE
 10
0
 20
0
 30
0
 70
128
 71
14
 72
15
 73
144
 74
143
 0
VERTEX
 8
CUBE
 10
0
 20
0
 30
0
 70
128
 71
170
 72
163
 73
162
 74
162
 0
VERTEX
 8
CUBE
 10
0
 20
0
 30
0
 70
128
 71
146
 72
15
 73
147
 74
147
 0
VERTEX
 8
CUBE
 10
0
 20
0
 30
0
 70
128
 71
14
 72
143
 73
142
 74
142
 0
VERTEX
 8
CUBE
 10
0
 20
0
 30
0
 70
128
 71
10
 72
14
 73
141
 74
141
 0
VERTEX
 8
CUBE
 10
0
 20
0
 30
0
 70
128
 71
171
 72
170
 73
11
 74
11
 0
VERTEX
 8
CUBE
 10
0
 20
0
 30
0
 70
128
 71
147
 72
15
 73
11
 74
148
 0
VERTEX
 8
CUBE
 10
0
 20
0
 30
0
 70
128
 71
121
 72
122
 73
11
 74
11
 0
VERTEX
 8
CUBE
 10
0
 20
0
 30
0
 70
128
 71
14
 72
142
 73
141
 74
141
 0
VERTEX
 8
CUBE
 10
0
 20
0
 30
0
 70
128
 71
149
 72
148
 73
11
 74
11
 0
VERTEX
 8
CUBE
 10
0
 20
0
 30
0
 70
128
 71
10
 72
141
 73
140
 74
140
 0
VERTEX
 8
CUBE
 10
0
 20
0
 30
0
 70
128
 71
150
 72
149
 73
11
 74
11
 0
VERTEX
 8
CUBE
 10
0
 20
0
 30
0
 70
128
 71
10
 72
140
 73
139
 74
139
 0
VERTEX
 8
CUBE
 10
0
 20
0
 30
0
 70
128
 71
151
 72
150
 73
11
 74
11
 0
VERTEX
 8
CUBE
 10
0
 20
0
 30
0
 70
128
 71
10
 72
139
 73
138
 74
138
 0
VERTEX
 8
CUBE
 10
0
 20
0
 30
0
 70
128
 71
152
 72
151
 73
11
 74
11
 0
VERTEX
 8
CUBE
 10
0
 20
0
 30
0
 70
128
 71
10
 72
138
 73
137
 74
137
 0
VERTEX
 8
CUBE
 10
0
 20
0
 30
0
 70
128
 71
153
 72
152
 73
11
 74
11
 0
VERTEX
 8
CUBE
 10
0
 20
0
 30
0
 70
128
 71
10
 72
137
 73
136
 74
136
 0
VERTEX
 8
CUBE
 10
0
 20
0
 30
0
 70
128
 71
154
 72
153
 73
11
 74
11
 0
VERTEX
 8
CUBE
 10
0
 20
0
 30
0
 70
128
 71
10
 72
136
 73
135
 74
135
 0
VERTEX
 8
CUBE
 10
0
 20
0
 30
0
 70
128
 71
155
 72
154
 73
11
 74
11
 0
VERTEX
 8
CUBE
 10
0
 20
0
 30
0
 70
128
 71
10
 72
135
 73
134
 74
134
 0
VERTEX
 8
CUBE
 10
0
 20
0
 30
0
 70
128
 71
156
 72
155
 73
11
 74
11
 0
VERTEX
 8
CUBE
 10
0
 20
0
 30
0
 70
128
 71
10
 72
134
 73
133
 74
133
 0
VERTEX
 8
CUBE
 10
0
 20
0
 30
0
 70
128
 71
157
 72
156
 73
11
 74
11
 0
VERTEX
 8
CUBE
 10
0
 20
0
 30
0
 70
128
 71
10
 72
133
 73
132
 74
132
 0
VERTEX
 8
CUBE
 10
0
 20
0
 30
0
 70
128
 71
10
 72
132
 73
131
 74
131
 0
VERTEX
 8
CUBE
 10
0
 20
0
 30
0
 70
128
 71
158
 72
157
 73
11
 74
11
 0
VERTEX
 8
CUBE
 10
0
 20
0
 30
0
 70
128
 71
10
 72
131
 73
130
 74
130
 0
VERTEX
 8
CUBE
 10
0
 20
0
 30
0
 70
128
 71
159
 72
158
 73
11
 74
11
 0
VERTEX
 8
CUBE
 10
0
 20
0
 30
0
 70
128
 71
10
 72
130
 73
129
 74
129
 0
VERTEX
 8
CUBE
 10
0
 20
0
 30
0
 70
128
 71
160
 72
159
 73
11
 74
11
 0
VERTEX
 8
CUBE
 10
0
 20
0
 30
0
 70
128
 71
10
 72
129
 73
128
 74
128
 0
VERTEX
 8
CUBE
 10
0
 20
0
 30
0
 70
128
 71
161
 72
160
 73
11
 74
11
 0
VERTEX
 8
CUBE
 10
0
 20
0
 30
0
 70
128
 71
10
 72
128
 73
127
 74
127
 0
VERTEX
 8
CUBE
 10
0
 20
0
 30
0
 70
128
 71
162
 72
161
 73
11
 74
11
 0
VERTEX
 8
CUBE
 10
0
 20
0
 30
0
 70
128
 71
10
 72
127
 73
126
 74
126
 0
VERTEX
 8
CUBE
 10
0
 20
0
 30
0
 70
128
 71
170
 72
162
 73
11
 74
11
 0
VERTEX
 8
CUBE
 10
0
 20
0
 30
0
 70
128
 71
10
 72
126
 73
125
 74
125
 0
VERTEX
 8
CUBE
 10
0
 20
0
 30
0
 70
128
 71
123
 72
121
 73
11
 74
11
 0
VERTEX
 8
CUBE
 10
0
 20
0
 30
0
 70
128
 71
10
 72
125
 73
124
 74
124
 0
VERTEX
 8
CUBE
 10
0
 20
0
 30
0
 70
128
 71
10
 72
124
 73
123
 74
11
 0
VERTEX
 8
CUBE
 10
0
 20
0
 30
0
 70
128
 71
11
 72
15
 73
16
 74
12
 0
VERTEX
 8
CUBE
 10
0
 20
0
 30
0
 70
128
 71
220
 72
221
 73
222
 74
219
 0
VERTEX
 8
CUBE
 10
0
 20
0
 30
0
 70
128
 71
218
 72
219
 73
222
 74
215
 0
VERTEX
 8
CUBE
 10
0
 20
0
 30
0
 70
128
 71
214
 72
215
 73
222
 74
222
 0
VERTEX
 8
CUBE
 10
0
 20
0
 30
0
 70
128
 71
223
 72
224
 73
12
 74
12
 0
VERTEX
 8
CUBE
 10
0
 20
0
 30
0
 70
128
 71
195
 72
196
 73
13
 74
13
 0
VERTEX
 8
CUBE
 10
0
 20
0
 30
0
 70
128
 71
216
 72
217
 73
218
 74
215
 0
VERTEX
 8
CUBE
 10
0
 20
0
 30
0
 70
128
 71
194
 72
195
 73
13
 74
13
 0
VERTEX
 8
CUBE
 10
0
 20
0
 30
0
 70
128
 71
222
 72
223
 73
12
 74
12
 0
VERTEX
 8
CUBE
 10
0
 20
0
 30
0
 70
128
 71
16
 72
13
 73
196
 74
197
 0
VERTEX
 8
CUBE
 10
0
 20
0
 30
0
 70
128
 71
194
 72
13
 73
193
 74
193
 0
VERTEX
 8
CUBE
 10
0
 20
0
 30
0
 70
128
 71
214
 72
222
 73
12
 74
12
 0
VERTEX
 8
CUBE
 10
0
 20
0
 30
0
 70
128
 71
16
 72
197
 73
198
 74
198
 0
VERTEX
 8
CUBE
 10
0
 20
0
 30
0
 70
128
 71
193
 72
13
 73
9
 74
9
 0
VERTEX
 8
CUBE
 10
0
 20
0
 30
0
 70
128
 71
16
 72
198
 73
199
 74
199
 0
VERTEX
 8
CUBE
 10
0
 20
0
 30
0
 70
128
 71
192
 72
193
 73
9
 74
9
 0
VERTEX
 8
CUBE
 10
0
 20
0
 30
0
 70
128
 71
224
 72
174
 73
12
 74
12
 0
VERTEX
 8
CUBE
 10
0
 20
0
 30
0
 70
128
 71
16
 72
199
 73
200
 74
200
 0
VERTEX
 8
CUBE
 10
0
 20
0
 30
0
 70
128
 71
191
 72
192
 73
9
 74
9
 0
VERTEX
 8
CUBE
 10
0
 20
0
 30
0
 70
128
 71
16
 72
200
 73
201
 74
12
 0
VERTEX
 8
CUBE
 10
0
 20
0
 30
0
 70
128
 71
190
 72
191
 73
9
 74
9
 0
VERTEX
 8
CUBE
 10
0
 20
0
 30
0
 70
128
 71
12
 72
201
 73
202
 74
202
 0
VERTEX
 8
CUBE
 10
0
 20
0
 30
0
 70
128
 71
189
 72
190
 73
9
 74
9
 0
VERTEX
 8
CUBE
 10
0
 20
0
 30
0
 70
128
 71
12
 72
202
 73
203
 74
203
 0
VERTEX
 8
CUBE
 10
0
 20
0
 30
0
 70
128
 71
188
 72
189
 73
9
 74
9
 0
VERTEX
 8
CUBE
 10
0
 20
0
 30
0
 70
128
 71
12
 72
203
 73
204
 74
204
 0
VERTEX
 8
CUBE
 10
0
 20
0
 30
0
 70
128
 71
187
 72
188
 73
9
 74
9
 0
VERTEX
 8
CUBE
 10
0
 20
0
 30
0
 70
128
 71
12
 72
204
 73
205
 74
205
 0
VERTEX
 8
CUBE
 10
0
 20
0
 30
0
 70
128
 71
186
 72
187
 73
9
 74
9
 0
VERTEX
 8
CUBE
 10
0
 20
0
 30
0
 70
128
 71
12
 72
205
 73
206
 74
206
 0
VERTEX
 8
CUBE
 10
0
 20
0
 30
0
 70
128
 71
185
 72
186
 73
9
 74
9
 0
VERTEX
 8
CUBE
 10
0
 20
0
 30
0
 70
128
 71
12
 72
206
 73
207
 74
207
 0
VERTEX
 8
CUBE
 10
0
 20
0
 30
0
 70
128
 71
184
 72
185
 73
9
 74
9
 0
VERTEX
 8
CUBE
 10
0
 20
0
 30
0
 70
128
 71
12
 72
207
 73
208
 74
208
 0
VERTEX
 8
CUBE
 10
0
 20
0
 30
0
 70
128
 71
183
 72
184
 73
9
 74
9
 0
VERTEX
 8
CUBE
 10
0
 20
0
 30
0
 70
128
 71
12
 72
208
 73
209
 74
209
 0
VERTEX
 8
CUBE
 10
0
 20
0
 30
0
 70
128
 71
182
 72
183
 73
9
 74
9
 0
VERTEX
 8
CUBE
 10
0
 20
0
 30
0
 70
128
 71
181
 72
182
 73
9
 74
9
 0
VERTEX
 8
CUBE
 10
0
 20
0
 30
0
 70
128
 71
12
 72
209
 73
210
 74
210
 0
VERTEX
 8
CUBE
 10
0
 20
0
 30
0
 70
128
 71
180
 72
181
 73
9
 74
9
 0
VERTEX
 8
CUBE
 10
0
 20
0
 30
0
 70
128
 71
12
 72
210
 73
211
 74
211
 0
VERTEX
 8
CUBE
 10
0
 20
0
 30
0
 70
128
 71
179
 72
180
 73
9
 74
9
 0
VERTEX
 8
CUBE
 10
0
 20
0
 30
0
 70
128
 71
12
 72
211
 73
212
 74
212
 0
VERTEX
 8
CUBE
 10
0
 20
0
 30
0
 70
128
 71
178
 72
179
 73
9
 74
9
 0
VERTEX
 8
CUBE
 10
0
 20
0
 30
0
 70
128
 71
12
 72
212
 73
213
 74
213
 0
VERTEX
 8
CUBE
 10
0
 20
0
 30
0
 70
128
 71
177
 72
178
 73
9
 74
9
 0
VERTEX
 8
CUBE
 10
0
 20
0
 30
0
 70
128
 71
12
 72
213
 73
214
 74
214
 0
VERTEX
 8
CUBE
 10
0
 20
0
 30
0
 70
128
 71
176
 72
177
 73
9
 74
9
 0
VERTEX
 8
CUBE
 10
0
 20
0
 30
0
 70
128
 71
12
 72
174
 73
173
 74
173
 0
VERTEX
 8
CUBE
 10
0
 20
0
 30
0
 70
128
 71
175
 72
176
 73
9
 74
12
 0
VERTEX
 8
CUBE
 10
0
 20
0
 30
0
 70
128
 71
12
 72
173
 73
175
 74
175
 0
SEQEND
 0
POLYLINE
 8
EXTRUDE
 66
1
 10
0.0
 20
0.0
 30
0.0
 70
64
 71
208
 72
104
 0
VERTEX
 8
EXTRUDE
 10
0.2605
 20
0.0519
 30
0.6081
 70
192
 0
VERTEX
 8
EXTRUDE
 10
0.2605
 20
0.0521
 30
0.6081
 70
192
 0
VERTEX
 8
EXTRUDE
 10
0.2606
 20
-0.0035
 30
0.6083
 70
192
 0
VERTEX
 8
EXTRUDE
 10
0.2605
 20
-0.0586
 30
0.6081
 70
192
 0
VERTEX
 8
EXTRUDE
 10
0.2602
 20
-0.0593
 30
0.6071
 70
192
 0
VERTEX
 8
EXTRUDE
 10
0.2596
 20
-0.0603
 30
0.6056
 70
192
 0
VERTEX
 8
EXTRUDE
 10
0.2589
 20
-0.0612
 30
0.6039
 70
192
 0
VERTEX
 8
EXTRUDE
 10
0.2583
 20
-0.0619
 30
0.6024
 70
192
 0
VERTEX
 8
EXTRUDE
 10
0.2578
 20
-0.0622
 30
0.6011
 70
192
 0
VERTEX
 8
EXTRUDE
 10
0.2573
 20
-0.0625
 30
0.5997
 70
192
 0
VERTEX
 8
EXTRUDE
 10
0.2568
 20
-0.0626
 30
0.5983
 70
192
 0
VERTEX
 8
EXTRUDE
 10
0.2564
 20
-0.0626
 30
0.5973
 70
192
 0
VERTEX
 8
EXTRUDE
 10
0.256
 20
-0.0625
 30
0.5964
 70
192
 0
VERTEX
 8
EXTRUDE
 10
0.2556
 20
-0.0622
 30
0.5954
 70
192
 0
VERTEX
 8
EXTRUDE
 10
0.2553
 20
-0.0619
 30
0.5944
 70
192
 0
VERTEX
 8
EXTRUDE
 10
0.2549
 20
-0.0614
 30
0.5934
 70
192
 0
VERTEX
 8
EXTRUDE
 10
0.2545
 20
-0.0608
 30
0.5925
 70
192
 0
VERTEX
 8
EXTRUDE
 10
0.2542
 20
-0.06
 30
0.5915
 70
192
 0
VERTEX
 8
EXTRUDE
 10
0.254
 20
-0.0596
 30
0.591
 70
192
 0
VERTEX
 8
EXTRUDE
 10
0.2536
 20
-0.0586
 30
0.5901
 70
192
 0
VERTEX
 8
EXTRUDE
 10
0.2536
 20
-0.0584
 30
0.59
 70
192
 0
VERTEX
 8
EXTRUDE
 10
0.2535
 20
-0.058
 30
0.5899
 70
192
 0
VERTEX
 8
EXTRUDE
 10
0.2534
 20
-0.0564
 30
0.5896
 70
192
 0
VERTEX
 8
EXTRUDE
 10
0.2531
 20
0.0036
 30
0.5887
 70
192
 0
VERTEX
 8
EXTRUDE
 10
0.2532
 20
0.0521
 30
0.589
 70
192
 0
VERTEX
 8
EXTRUDE
 10
0.2534
 20
0.053
 30
0.5896
 70
192
 0
VERTEX
 8
EXTRUDE
 10
0.2539
 20
0.0546
 30
0.5907
 70
192
 0
VERTEX
 8
EXTRUDE
 10
0.2543
 20
0.0558
 30
0.5918
 70
192
 0
VERTEX
 8
EXTRUDE
 10
0.2548
 20
0.0569
 30
0.5932
 70
192
 0
VERTEX
 8
EXTRUDE
 10
0.2552
 20
0.0577
 30
0.5943
 70
192
 0
VERTEX
 8
EXTRUDE
 10
0.2555
 20
0.0582
 30
0.5951
 70
192
 0
VERTEX
 8
EXTRUDE
 10
0.2559
 20
0.0586
 30
0.596
 70
192
 0
VERTEX
 8
EXTRUDE
 10
0.2562
 20
0.0589
 30
0.5969
 70
192
 0
VERTEX
 8
EXTRUDE
 10
0.2566
 20
0.0591
 30
0.5979
 70
192
 0
VERTEX
 8
EXTRUDE
 10
0.257
 20
0.0592
 30
0.5989
 70
192
 0
VERTEX
 8
EXTRUDE
 10
0.2574
 20
0.0591
 30
0.6
 70
192
 0
VERTEX
 8
EXTRUDE
 10
0.2578
 20
0.0589
 30
0.6011
 70
192
 0
VERTEX
 8
EXTRUDE
 10
0.2583
 20
0.0585
 30
0.6022
 70
192
 0
VERTEX
 8
EXTRUDE
 10
0.2587
 20
0.0579
 30
0.6034
 70
192
 0
VERTEX
 8
EXTRUDE
 10
0.2592
 20
0.0572
 30
0.6046
 70
192
 0
VERTEX
 8
EXTRUDE
 10
0.2597
 20
0.0562
 30
0.6059
 70
192
 0
VERTEX
 8
EXTRUDE
 10
0.2604
 20
0.0542
 30
0.6078
 70
192
 0
VERTEX
 8
EXTRUDE
 10
0.2604
 20
0.0539
 30
0.6077
 70
192
 0
VERTEX
 8
EXTRUDE
 10
0.2604
 20
0.0536
 30
0.6077
 70
192
 0
VERTEX
 8
EXTRUDE
 10
0.2604
 20
0.0533
 30
0.6076
 70
192
 0
VERTEX
 8
EXTRUDE
 10
0.2604
 20
0.0531
 30
0.6076
 70
192
 0
VERTEX
 8
EXTRUDE
 10
0.2604
 20
0.0529
 30
0.6077
 70
192
 0
VERTEX
 8
EXTRUDE
 10
0.2604
 20
0.0527
 30
0.6077
 70
192
 0
VERTEX
 8
EXTRUDE
 10
0.2604
 20
0.0526
 30
0.6078
 70
192
 0
VERTEX
 8
EXTRUDE
 10
0.2604
 20
0.0524
 30
0.6078
 70
192
 0
VERTEX
 8
EXTRUDE
 10
0.2605
 20
0.0523
 30
0.6079
 70
192
 0
VERTEX
 8
EXTRUDE
 10
0.2605
 20
0.0522
 30
0.608
 70
192
 0
VERTEX
 8
EXTRUDE
 10
-0.2605
 20
0.0519
 30
0.6081
 70
192
 0
VERTEX
 8
EXTRUDE
 10
-0.2605
 20
0.0521
 30
0.6081
 70
192
 0
VERTEX
 8
EXTRUDE
 10
-0.2606
 20
-0.0035
 30
0.6083
 70
192
 0
VERTEX
 8
EXTRUDE
 10
-0.2605
 20
-0.0586
 30
0.6081
 70
192
 0
VERTEX
 8
EXTRUDE
 10
-0.2602
 20
-0.0593
 30
0.6071
 70
192
 0
VERTEX
 8
EXTRUDE
 10
-0.2596
 20
-0.0603
 30
0.6056
 70
192
 0
VERTEX
 8
EXTRUDE
 10
-0.2589
 20
-0.0612
 30
0.6039
 70
192
 0
VERTEX
 8
EXTRUDE
 10
-0.2583
 20
-0.0619
 30
0.6024
 70
192
 0
VERTEX
 8
EXTRUDE
 10
-0.2578
 20
-0.0622
 30
0.6011
 70
192
 0
VERTEX
 8
EXTRUDE
 10
-0.2573
 20
-0.0625
 30
0.5997
 70
192
 0
VERTEX
 8
EXTRUDE
 10
-0.2568
 20
-0.0626
 30
0.5983
 70
192
 0
VERTEX
 8
EXTRUDE
 10
-0.2564
 20
-0.0626
 30
0.5973
 70
192
 0
VERTEX
 8
EXTRUDE
 10
-0.256
 20
-0.0625
 30
0.5964
 70
192
 0
VERTEX
 8
EXTRUDE
 10
-0.2556
 20
-0.0622
 30
0.5954
 70
192
 0
VERTEX
 8
EXTRUDE
 10
-0.2553
 20
-0.0619
 30
0.5944
 70
192
 0
VERTEX
 8
EXTRUDE
 10
-0.2549
 20
-0.0614
 30
0.5934
 70
192
 0
VERTEX
 8
EXTRUDE
 10
-0.2545
 20
-0.0608
 30
0.5925
 70
192
 0
VERTEX
 8
EXTRUDE
 10
-0.2542
 20
-0.06
 30
0.5915
 70
192
 0
VERTEX
 8
EXTRUDE
 10
-0.254
 20
-0.0596
 30
0.591
 70
192
 0
VERTEX
 8
EXTRUDE
 10
-0.2536
 20
-0.0586
 30
0.5901
 70
192
 0
VERTEX
 8
EXTRUDE
 10
-0.2536
 20
-0.0584
 30
0.59
 70
192
 0
VERTEX
 8
EXTRUDE
 10
-0.2535
 20
-0.058
 30
0.5899
 70
192
 0
VERTEX
 8
EXTRUDE
 10
-0.2534
 20
-0.0564
 30
0.5896
 70
192
 0
VERTEX
 8
EXTRUDE
 10
-0.2531
 20
0.0036
 30
0.5887
 70
192
 0
VERTEX
 8
EXTRUDE
 10
-0.2532
 20
0.0521
 30
0.589
 70
192
 0
VERTEX
 8
EXTRUDE
 10
-0.2534
 20
0.053
 30
0.5896
 70
192
 0
VERTEX
 8
EXTRUDE
 10
-0.2539
 20
0.0546
 30
0.5907
 70
192
 0
VERTEX
 8
EXTRUDE
 10
-0.2543
 20
0.0558
 30
0.5918
 70
192
 0
VERTEX
 8
EXTRUDE
 10
-0.2548
 20
0.0569
 30
0.5932
 70
192
 0
VERTEX
 8
EXTRUDE
 10
-0.2552
 20
0.0577
 30
0.5943
 70
192
 0
VERTEX
 8
EXTRUDE
 10
-0.2555
 20
0.0582
 30
0.5951
 70
192
 0
VERTEX
 8
EXTRUDE
 10
-0.2559
 20
0.0586
 30
0.596
 70
192
 0
VERTEX
 8
EXTRUDE
 10
-0.2562
 20
0.0589
 30
0.5969
 70
192
 0
VERTEX
 8
EXTRUDE
 10
-0.2566
 20
0.0591
 30
0.5979
 70
192
 0
VERTEX
 8
EXTRUDE
 10
-0.257
 20
0.0592
 30
0.5989
 70
192
 0
VERTEX
 8
EXTRUDE
 10
-0.2574
 20
0.0591
 30
0.6
 70
192
 0
VERTEX
 8
EXTRUDE
 10
-0.2578
 20
0.0589
 30
0.6011
 70
192
 0
VERTEX
 8
EXTRUDE
 10
-0.2583
 20
0.0585
 30
0.6022
 70
192
 0
VERTEX
 8
EXTRUDE
 10
-0.2587
 20
0.0579
 30
0.6034
 70
192
 0
VERTEX
 8
EXTRUDE
 10
-0.2592
 20
0.0572
 30
0.6046
 70
192
 0
VERTEX
 8
EXTRUDE
 10
-0.2597
 20
0.0562
 30
0.6059
 70
192
 0
VERTEX
 8
EXTRUDE
 10
-0.2604
 20
0.0542
 30
0.6078
 70
192
 0
VERTEX
 8
EXTRUDE
 10
-0.2604
 20
0.0539
 30
0.6077
 70
192
 0
VERTEX
 8
EXTRUDE
 10
-0.2604
 20
0.0536
 30
0.6077
 70
192
 0
VERTEX
 8
EXTRUDE
 10
-0.2604
 20
0.0533
 30
0.6076
 70
192
 0
VERTEX
 8
EXTRUDE
 10
-0.2604
 20
0.0531
 30
0.6076
 70
192
 0
VERTEX
 8
EXTRUDE
 10
-0.2604
 20
0.0529
 30
0.6077
 70
192
 0
VERTEX
 8
EXTRUDE
 10
-0.2604
 20
0.0527
 30
0.6077
 70
192
 0
VERTEX
 8
EXTRUDE
 10
-0.2604
 20
0.0526
 30
0.6078
 70
192
 0
VERTEX
 8
EXTRUDE
 10
-0.2604
 20
0.0524
 30
0.6078
 70
192
 0
VERTEX
 8
EXTRUDE
 10
-0.2605
 20
0.0523
 30
0.6079
 70
192
 0
VERTEX
 8
EXTRUDE
 10
-0.2605
 20
0.0522
 30
0.608
 70
192
 0
VERTEX
 8
EXTRUDE
 10
0.2499
 20
0.0519
 30
0.6081
 70
192
 0
VERTEX
 8
EXTRUDE
 10
0.2499
 20
0.0521
 30
0.6081
 70
192
 0
VERTEX
 8
EXTRUDE
 10
0.2499
 20
-0.0035
 30
0.6083
 70
192
 0
VERTEX
 8
EXTRUDE
 10
0.2499
 20
-0.0586
 30
0.6081
 70
192
 0
VERTEX
 8
EXTRUDE
 10
0.2498
 20
-0.0593
 30
0.6071
 70
192
 0
VERTEX
 8
EXTRUDE
 10
0.2498
 20
-0.0603
 30
0.6056
 70
192
 0
VERTEX
 8
EXTRUDE
 10
0.2497
 20
-0.0612
 30
0.6039
 70
192
 0
VERTEX
 8
EXTRUDE
 10
0.2496
 20
-0.0619
 30
0.6024
 70
192
 0
VERTEX
 8
EXTRUDE
 10
0.2495
 20
-0.0622
 30
0.6011
 70
192
 0
VERTEX
 8
EXTRUDE
 10
0.2495
 20
-0.0625
 30
0.5997
 70
192
 0
VERTEX
 8
EXTRUDE
 10
0.2494
 20
-0.0626
 30
0.5983
 70
192
 0
VERTEX
 8
EXTRUDE
 10
0.2494
 20
-0.0626
 30
0.5973
 70
192
 0
VERTEX
 8
EXTRUDE
 10
0.2493
 20
-0.0625
 30
0.5964
 70
192
 0
VERTEX
 8
EXTRUDE
 10
0.2493
 20
-0.0622
 30
0.5954
 70
192
 0
VERTEX
 8
EXTRUDE
 10
0.2492
 20
-0.0619
 30
0.5944
 70
192
 0
VERTEX
 8
EXTRUDE
 10
0.2492
 20
-0.0614
 30
0.5934
 70
192
 0
VERTEX
 8
EXTRUDE
 10
0.2491
 20
-0.0608
 30
0.5925
 70
192
 0
VERTEX
 8
EXTRUDE
 10
0.2491
 20
-0.06
 30
0.5915
 70
192
 0
VERTEX
 8
EXTRUDE
 10
0.2491
 20
-0.0596
 30
0.591
 70
192
 0
VERTEX
 8
EXTRUDE
 10
0.249
 20
-0.0586
 30
0.5901
 70
192
 0
VERTEX
 8
EXTRUDE
 10
0.249
 20
-0.0584
 30
0.59
 70
192
 0
VERTEX
 8
EXTRUDE
 10
0.249
 20
-0.058
 30
0.5899
 70
192
 0
VERTEX
 8
EXTRUDE
 10
0.249
 20
-0.0564
 30
0.5896
 70
192
 0
VERTEX
 8
EXTRUDE
 10
0.249
 20
0.0036
 30
0.5887
 70
192
 0
VERTEX
 8
EXTRUDE
 10
0.249
 20
0.0521
 30
0.589
 70
192
 0
VERTEX
 8
EXTRUDE
 10
0.249
 20
0.053
 30
0.5896
 70
192
 0
VERTEX
 8
EXTRUDE
 10
0.2491
 20
0.0546
 30
0.5907
 70
192
 0
VERTEX
 8
EXTRUDE
 10
0.2491
 20
0.0558
 30
0.5918
 70
192
 0
VERTEX
 8
EXTRUDE
 10
0.2492
 20
0.0569
 30
0.5932
 70
192
 0
VERTEX
 8
EXTRUDE
 10
0.2492
 20
0.0577
 30
0.5943
 70
192
 0
VERTEX
 8
EXTRUDE
 10
0.2493
 20
0.0582
 30
0.5951
 70
192
 0
VERTEX
 8
EXTRUDE
 10
0.2493
 20
0.0586
 30
0.596
 70
192
 0
VERTEX
 8
EXTRUDE
 10
0.2494
 20
0.0589
 30
0.5969
 70
192
 0
VERTEX
 8
EXTRUDE
 10
0.2494
 20
0.0591
 30
0.5979
 70
192
 0
VERTEX
 8
EXTRUDE
 10
0.2494
 20
0.0592
 30
0.5989
 70
192
 0
VERTEX
 8
EXTRUDE
 10
0.2495
 20
0.0591
 30
0.6
 70
192
 0
VERTEX
 8
EXTRUDE
 10
0.2495
 20
0.0589
 30
0.6011
 70
192
 0
VERTEX
 8
EXTRUDE
 10
0.2496
 20
0.0585
 30
0.6022
 70
192
 0
VERTEX
 8
EXTRUDE
 10
0.2497
 20
0.0579
 30
0.6034
 70
192
 0
VERTEX
 8
EXTRUDE
 10
0.2497
 20
0.0572
 30
0.6046
 70
192
 0
VERTEX
 8
EXTRUDE
 10
0.2498
 20
0.0562
 30
0.6059
 70
192
 0
VERTEX
 8
EXTRUDE
 10
0.2499
 20
0.0542
 30
0.6078
 70
192
 0
VERTEX
 8
EXTRUDE
 10
0.2499
 20
0.0539
 30
0.6077
 70
192
 0
VERTEX
 8
EXTRUDE
 10
0.2499
 20
0.0536
 30
0.6077
 70
192
 0
VERTEX
 8
EXTRUDE
 10
0.2499
 20
0.0533
 30
0.6076
 70
192
 0
VERTEX
 8
EXTRUDE
 10
0.2499
 20
0.0531
 30
0.6076
 70
192
 0
VERTEX
 8
EXTRUDE
 10
0.2499
 20
0.0529
 30
0.6077
 70
192
 0
VERTEX
 8
EXTRUDE
 10
0.2499
 20
0.0527
 30
0.6077
 70
192
 0
VERTEX
 8
EXTRUDE
 10
0.2499
 20
0.0526
 30
0.6078
 70
192
 0
VERTEX
 8
EXTRUDE
 10
0.2499
 20
0.0524
 30
0.6078
 70
192
 0
VERTEX
 8
EXTRUDE
 10
0.2499
 20
0.0523
 30
0.6079
 70
192
 0
VERTEX
 8
EXTRUDE
 10
0.2499
 20
0.0522
 30
0.608
 70
192
 0
VERTEX
 8
EXTRUDE
 10
-0.2499
 20
0.0519
 30
0.6081
 70
192
 0
VERTEX
 8
EXTRUDE
 10
-0.2499
 20
0.0521
 30
0.6081
 70
192
 0
VERTEX
 8
EXTRUDE
 10
-0.2499
 20
-0.0035
 30
0.6083
 70
192
 0
VERTEX
 8
EXTRUDE
 10
-0.2499
 20
-0.0586
 30
0.6081
 70
192
 0
VERTEX
 8
EXTRUDE
 10
-0.2498
 20
-0.0593
 30
0.6071
 70
192
 0
VERTEX
 8
EXTRUDE
 10
-0.2498
 20
-0.0603
 30
0.6056
 70
192
 0
VERTEX
 8
EXTRUDE
 10
-0.2497
 20
-0.0612
 30
0.6039
 70
192
 0
VERTEX
 8
EXTRUDE
 10
-0.2496
 20
-0.0619
 30
0.6024
 70
192
 0
VERTEX
 8
EXTRUDE
 10
-0.2495
 20
-0.0622
 30
0.6011
 70
192
 0
VERTEX
 8
EXTRUDE
 10
-0.2495
 20
-0.0625
 30
0.5997
 70
192
 0
VERTEX
 8
EXTRUDE
 10
-0.2494
 20
-0.0626
 30
0.5983
 70
192
 0
VERTEX
 8
EXTRUDE
 10
-0.2494
 20
-0.0626
 30
0.5973
 70
192
 0
VERTEX
 8
EXTRUDE
 10
-0.2493
 20
-0.0625
 30
0.5964
 70
192
 0
VERTEX
 8
EXTRUDE
 10
-0.2493
 20
-0.0622
 30
0.5954
 70
192
 0
VERTEX
 8
EXTRUDE
 10
-0.2492
 20
-0.0619
 30
0.5944
 70
192
 0
VERTEX
 8
EXTRUDE
 10
-0.2492
 20
-0.0614
 30
0.5934
 70
192
 0
VERTEX
 8
EXTRUDE
 10
-0.2491
 20
-0.0608
 30
0.5925
 70
192
 0
VERTEX
 8
EXTRUDE
 10
-0.2491
 20
-0.06
 30
0.5915
 70
192
 0
VERTEX
 8
EXTRUDE
 10
-0.2491
 20
-0.0596
 30
0.591
 70
192
 0
VERTEX
 8
EXTRUDE
 10
-0.249
 20
-0.0586
 30
0.5901
 70
192
 0
VERTEX
 8
EXTRUDE
 10
-0.249
 20
-0.0584
 30
0.59
 70
192
 0
VERTEX
 8
EXTRUDE
 10
-0.249
 20
-0.058
 30
0.5899
 70
192
 0
VERTEX
 8
EXTRUDE
 10
-0.249
 20
-0.0564
 30
0.5896
 70
192
 0
VERTEX
 8
EXTRUDE
 10
-0.249
 20
0.0036
 30
0.5887
 70
192
 0
VERTEX
 8
EXTRUDE
 10
-0.249
 20
0.0521
 30
0.589
 70
192
 0
VERTEX
 8
EXTRUDE
 10
-0.249
 20
0.053
 30
0.5896
 70
192
 0
VERTEX
 8
EXTRUDE
 10
-0.2491
 20
0.0546
 30
0.5907
 70
192
 0
VERTEX
 8
EXTRUDE
 10
-0.2491
 20
0.0558
 30
0.5918
 70
192
 0
VERTEX
 8
EXTRUDE
 10
-0.2492
 20
0.0569
 30
0.5932
 70
192
 0
VERTEX
 8
EXTRUDE
 10
-0.2492
 20
0.0577
 30
0.5943
 70
192
 0
VERTEX
 8
EXTRUDE
 10
-0.2493
 20
0.0582
 30
0.5951
 70
192
 0
VERTEX
 8
EXTRUDE
 10
-0.2493
 20
0.0586
 30
0.596
 70
192
 0
VERTEX
 8
EXTRUDE
 10
-0.2494
 20
0.0589
 30
0.5969
 70
192
 0
VERTEX
 8
EXTRUDE
 10
-0.2494
 20
0.0591
 30
0.5979
 70
192
 0
VERTEX
 8
EXTRUDE
 10
-0.2494
 20
0.0592
 30
0.5989
 70
192
 0
VERTEX
 8
EXTRUDE
 10
-0.2495
 20
0.0591
 30
0.6
 70
192
 0
VERTEX
 8
EXTRUDE
 10
-0.2495
 20
0.0589
 30
0.6011
 70
192
 0
VERTEX
 8
EXTRUDE
 10
-0.2496
 20
0.0585
 30
0.6022
 70
192
 0
VERTEX
 8
EXTRUDE
 10
-0.2497
 20
0.0579
 30
0.6034
 70
192
 0
VERTEX
 8
EXTRUDE
 10
-0.2497
 20
0.0572
 30
0.6046
 70
192
 0
VERTEX
 8
EXTRUDE
 10
-0.2498
 20
0.0562
 30
0.6059
 70
192
 0
VERTEX
 8
EXTRUDE
 10
-0.2499
 20
0.0542
 30
0.6078
 70
192
 0
VERTEX
 8
EXTRUDE
 10
-0.2499
 20
0.0539
 30
0.6077
 70
192
 0
VERTEX
 8
EXTRUDE
 10
-0.2499
 20
0.0536
 30
0.6077
 70
192
 0
VERTEX
 8
EXTRUDE
 10
-0.2499
 20
0.0533
 30
0.6076
 70
192
 0
VERTEX
 8
EXTRUDE
 10
-0.2499
 20
0.0531
 30
0.6076
 70
192
 0
VERTEX
 8
EXTRUDE
 10
-0.2499
 20
0.0529
 30
0.6077
 70
192
 0
VERTEX
 8
EXTRUDE
 10
-0.2499
 20
0.0527
 30
0.6077
 70
192
 0
VERTEX
 8
EXTRUDE
 10
-0.2499
 20
0.0526
 30
0.6078
 70
192
 0
VERTEX
 8
EXTRUDE
 10
-0.2499
 20
0.0524
 30
0.6078
 70
192
 0
VERTEX
 8
EXTRUDE
 10
-0.2499
 20
0.0523
 30
0.6079
 70
192
 0
VERTEX
 8
EXTRUDE
 10
-0.2499
 20
0.0522
 30
0.608
 70
192
 0
VERTEX
 8
EXTRUDE
 10
0
 20
0
 30
0
 70
128
 71
105
 72
1
 73
2
 74
106
 0
VERTEX
 8
EXTRUDE
 10
0
 20
0
 30
0
 70
128
 71
157
 72
158
 73
54
 74
53
 0
VERTEX
 8
EXTRUDE
 10
0
 20
0
 30
0
 70
128
 71
107
 72
3
 73
1
 74
105
 0
VERTEX
 8
EXTRUDE
 10
0
 20
0
 30
0
 70
128
 71
157
 72
53
 73
55
 74
159
 0
VERTEX
 8
EXTRUDE
 10
0
 20
0
 30
0
 70
128
 71
108
 72
4
 73
3
 74
107
 0
VERTEX
 8
EXTRUDE
 10
0
 20
0
 30
0
 70
128
 71
159
 72
55
 73
56
 74
160
 0
VERTEX
 8
EXTRUDE
 10
0
 20
0
 30
0
 70
128
 71
109
 72
5
 73
4
 74
108
 0
VERTEX
 8
EXTRUDE
 10
0
 20
0
 30
0
 70
128
 71
160
 72
56
 73
57
 74
161
 0
VERTEX
 8
EXTRUDE
 10
0
 20
0
 30
0
 70
128
 71
110
 72
6
 73
5
 74
109
 0
VERTEX
 8
EXTRUDE
 10
0
 20
0
 30
0
 70
128
 71
161
 72
57
 73
58
 74
162
 0
VERTEX
 8
EXTRUDE
 10
0
 20
0
 30
0
 70
128
 71
111
 72
7
 73
6
 74
110
 0
VERTEX
 8
EXTRUDE
 10
0
 20
0
 30
0
 70
128
 71
163
 72
162
 73
58
 74
59
 0
VERTEX
 8
EXTRUDE
 10
0
 20
0
 30
0
 70
128
 71
111
 72
112
 73
8
 74
7
 0
VERTEX
 8
EXTRUDE
 10
0
 20
0
 30
0
 70
128
 71
163
 72
59
 73
60
 74
164
 0
VERTEX
 8
EXTRUDE
 10
0
 20
0
 30
0
 70
128
 71
113
 72
9
 73
8
 74
112
 0
VERTEX
 8
EXTRUDE
 10
0
 20
0
 30
0
 70
128
 71
164
 72
60
 73
61
 74
165
 0
VERTEX
 8
EXTRUDE
 10
0
 20
0
 30
0
 70
128
 71
114
 72
10
 73
9
 74
113
 0
VERTEX
 8
EXTRUDE
 10
0
 20
0
 30
0
 70
128
 71
165
 72
61
 73
62
 74
166
 0
VERTEX
 8
EXTRUDE
 10
0
 20
0
 30
0
 70
128
 71
115
 72
11
 73
10
 74
114
 0
VERTEX
 8
EXTRUDE
 10
0
 20
0
 30
0
 70
128
 71
167
 72
166
 73
62
 74
63
 0
VERTEX
 8
EXTRUDE
 10
0
 20
0
 30
0
 70
128
 71
116
 72
12
 73
11
 74
115
 0
VERTEX
 8
EXTRUDE
 10
0
 20
0
 30
0
 70
128
 71
167
 72
63
 73
64
 74
168
 0
VERTEX
 8
EXTRUDE
 10
0
 20
0
 30
0
 70
128
 71
116
 72
117
 73
13
 74
12
 0
VERTEX
 8
EXTRUDE
 10
0
 20
0
 30
0
 70
128
 71
168
 72
64
 73
65
 74
169
 0
VERTEX
 8
EXTRUDE
 10
0
 20
0
 30
0
 70
128
 71
118
 72
14
 73
13
 74
117
 0
VERTEX
 8
EXTRUDE
 10
0
 20
0
 30
0
 70
128
 71
169
 72
65
 73
66
 74
170
 0
VERTEX
 8
EXTRUDE
 10
0
 20
0
 30
0
 70
128
 71
118
 72
119
 73
15
 74
14
 0
VERTEX
 8
EXTRUDE
 10
0
 20
0
 30
0
 70
128
 71
171
 72
170
 73
66
 74
67
 0
VERTEX
 8
EXTRUDE
 10
0
 20
0
 30
0
 70
128
 71
119
 72
120
 73
16
 74
15
 0
VERTEX
 8
EXTRUDE
 10
0
 20
0
 30
0
 70
128
 71
172
 72
171
 73
67
 74
68
 0
VERTEX
 8
EXTRUDE
 10
0
 20
0
 30
0
 70
128
 71
121
 72
17
 73
16
 74
120
 0
VERTEX
 8
EXTRUDE
 10
0
 20
0
 30
0
 70
128
 71
173
 72
172
 73
68
 74
69
 0
VERTEX
 8
EXTRUDE
 10
0
 20
0
 30
0
 70
128
 71
121
 72
122
 73
18
 74
17
 0
VERTEX
 8
EXTRUDE
 10
0
 20
0
 30
0
 70
128
 71
173
 72
69
 73
70
 74
174
 0
VERTEX
 8
EXTRUDE
 10
0
 20
0
 30
0
 70
128
 71
122
 72
123
 73
19
 74
18
 0
VERTEX
 8
EXTRUDE
 10
0
 20
0
 30
0
 70
128
 71
175
 72
174
 73
70
 74
71
 0
VERTEX
 8
EXTRUDE
 10
0
 20
0
 30
0
 70
128
 71
124
 72
20
 73
19
 74
123
 0
VERTEX
 8
EXTRUDE
 10
0
 20
0
 30
0
 70
128
 71
176
 72
175
 73
71
 74
72
 0
VERTEX
 8
EXTRUDE
 10
0
 20
0
 30
0
 70
128
 71
124
 72
125
 73
21
 74
20
 0
VERTEX
 8
EXTRUDE
 10
0
 20
0
 30
0
 70
128
 71
176
 72
72
 73
73
 74
177
 0
VERTEX
 8
EXTRUDE
 10
0
 20
0
 30
0
 70
128
 71
125
 72
126
 73
22
 74
21
 0
VERTEX
 8
EXTRUDE
 10
0
 20
0
 30
0
 70
128
 71
177
 72
73
 73
74
 74
178
 0
VERTEX
 8
EXTRUDE
 10
0
 20
0
 30
0
 70
128
 71
127
 72
23
 73
22
 74
126
 0
VERTEX
 8
EXTRUDE
 10
0
 20
0
 30
0
 70
128
 71
178
 72
74
 73
75
 74
179
 0
VERTEX
 8
EXTRUDE
 10
0
 20
0
 30
0
 70
128
 71
128
 72
24
 73
23
 74
127
 0
VERTEX
 8
EXTRUDE
 10
0
 20
0
 30
0
 70
128
 71
179
 72
75
 73
76
 74
180
 0
VERTEX
 8
EXTRUDE
 10
0
 20
0
 30
0
 70
128
 71
129
 72
25
 73
24
 74
128
 0
VERTEX
 8
EXTRUDE
 10
0
 20
0
 30
0
 70
128
 71
180
 72
76
 73
77
 74
181
 0
VERTEX
 8
EXTRUDE
 10
0
 20
0
 30
0
 70
128
 71
129
 72
130
 73
26
 74
25
 0
VERTEX
 8
EXTRUDE
 10
0
 20
0
 30
0
 70
128
 71
181
 72
77
 73
78
 74
182
 0
VERTEX
 8
EXTRUDE
 10
0
 20
0
 30
0
 70
128
 71
131
 72
27
 73
26
 74
130
 0
VERTEX
 8
EXTRUDE
 10
0
 20
0
 30
0
 70
128
 71
183
 72
182
 73
78
 74
79
 0
VERTEX
 8
EXTRUDE
 10
0
 20
0
 30
0
 70
128
 71
131
 72
132
 73
28
 74
27
 0
VERTEX
 8
EXTRUDE
 10
0
 20
0
 30
0
 70
128
 71
183
 72
79
 73
80
 74
184
 0
VERTEX
 8
EXTRUDE
 10
0
 20
0
 30
0
 70
128
 71
184
 72
80
 73
81
 74
185
 0
VERTEX
 8
EXTRUDE
 10
0
 20
0
 30
0
 70
128
 71
132
 72
133
 73
29
 74
28
 0
VERTEX
 8
EXTRUDE
 10
0
 20
0
 30
0
 70
128
 71
186
 72
185
 73
81
 74
82
 0
VERTEX
 8
EXTRUDE
 10
0
 20
0
 30
0
 70
128
 71
134
 72
30
 73
29
 74
133
 0
VERTEX
 8
EXTRUDE
 10
0
 20
0
 30
0
 70
128
 71
186
 72
82
 73
83
 74
187
 0
VERTEX
 8
EXTRUDE
 10
0
 20
0
 30
0
 70
128
 71
135
 72
31
 73
30
 74
134
 0
VERTEX
 8
EXTRUDE
 10
0
 20
0
 30
0
 70
128
 71
188
 72
187
 73
83
 74
84
 0
VERTEX
 8
EXTRUDE
 10
0
 20
0
 30
0
 70
128
 71
136
 72
32
 73
31
 74
135
 0
VERTEX
 8
EXTRUDE
 10
0
 20
0
 30
0
 70
128
 71
189
 72
188
 73
84
 74
85
 0
VERTEX
 8
EXTRUDE
 10
0
 20
0
 30
0
 70
128
 71
136
 72
137
 73
33
 74
32
 0
VERTEX
 8
EXTRUDE
 10
0
 20
0
 30
0
 70
128
 71
190
 72
189
 73
85
 74
86
 0
VERTEX
 8
EXTRUDE
 10
0
 20
0
 30
0
 70
128
 71
137
 72
138
 73
34
 74
33
 0
VERTEX
 8
EXTRUDE
 10
0
 20
0
 30
0
 70
128
 71
191
 72
190
 73
86
 74
87
 0
VERTEX
 8
EXTRUDE
 10
0
 20
0
 30
0
 70
128
 71
138
 72
139
 73
35
 74
34
 0
VERTEX
 8
EXTRUDE
 10
0
 20
0
 30
0
 70
128
 71
191
 72
87
 73
88
 74
192
 0
VERTEX
 8
EXTRUDE
 10
0
 20
0
 30
0
 70
128
 71
139
 72
140
 73
36
 74
35
 0
VERTEX
 8
EXTRUDE
 10
0
 20
0
 30
0
 70
128
 71
192
 72
88
 73
89
 74
193
 0
VERTEX
 8
EXTRUDE
 10
0
 20
0
 30
0
 70
128
 71
141
 72
37
 73
36
 74
140
 0
VERTEX
 8
EXTRUDE
 10
0
 20
0
 30
0
 70
128
 71
194
 72
193
 73
89
 74
90
 0
VERTEX
 8
EXTRUDE
 10
0
 20
0
 30
0
 70
128
 71
141
 72
142
 73
38
 74
37
 0
VERTEX
 8
EXTRUDE
 10
0
 20
0
 30
0
 70
128
 71
194
 72
90
 73
91
 74
195
 0
VERTEX
 8
EXTRUDE
 10
0
 20
0
 30
0
 70
128
 71
142
 72
143
 73
39
 74
38
 0
VERTEX
 8
EXTRUDE
 10
0
 20
0
 30
0
 70
128
 71
196
 72
195
 73
91
 74
92
 0
VERTEX
 8
EXTRUDE
 10
0
 20
0
 30
0
 70
128
 71
144
 72
40
 73
39
 74
143
 0
VERTEX
 8
EXTRUDE
 10
0
 20
0
 30
0
 70
128
 71
196
 72
92
 73
93
 74
197
 0
VERTEX
 8
EXTRUDE
 10
0
 20
0
 30
0
 70
128
 71
144
 72
145
 73
41
 74
40
 0
VERTEX
 8
EXTRUDE
 10
0
 20
0
 30
0
 70
128
 71
197
 72
93
 73
94
 74
198
 0
VERTEX
 8
EXTRUDE
 10
0
 20
0
 30
0
 70
128
 71
146
 72
42
 73
41
 74
145
 0
VERTEX
 8
EXTRUDE
 10
0
 20
0
 30
0
 70
128
 71
146
 72
147
 73
43
 74
42
 0
VERTEX
 8
EXTRUDE
 10
0
 20
0
 30
0
 70
128
 71
198
 72
94
 73
95
 74
199
 0
VERTEX
 8
EXTRUDE
 10
0
 20
0
 30
0
 70
128
 71
148
 72
44
 73
43
 74
147
 0
VERTEX
 8
EXTRUDE
 10
0
 20
0
 30
0
 70
128
 71
199
 72
95
 73
96
 74
200
 0
VERTEX
 8
EXTRUDE
 10
0
 20
0
 30
0
 70
128
 71
149
 72
45
 73
44
 74
148
 0
VERTEX
 8
EXTRUDE
 10
0
 20
0
 30
0
 70
128
 71
200
 72
96
 73
97
 74
201
 0
VERTEX
 8
EXTRUDE
 10
0
 20
0
 30
0
 70
128
 71
150
 72
46
 73
45
 74
149
 0
VERTEX
 8
EXTRUDE
 10
0
 20
0
 30
0
 70
128
 71
201
 72
97
 73
98
 74
202
 0
VERTEX
 8
EXTRUDE
 10
0
 20
0
 30
0
 70
128
 71
151
 72
47
 73
46
 74
150
 0
VERTEX
 8
EXTRUDE
 10
0
 20
0
 30
0
 70
128
 71
202
 72
98
 73
99
 74
203
 0
VERTEX
 8
EXTRUDE
 10
0
 20
0
 30
0
 70
128
 71
152
 72
48
 73
47
 74
151
 0
VERTEX
 8
EXTRUDE
 10
0
 20
0
 30
0
 70
128
 71
203
 72
99
 73
100
 74
204
 0
VERTEX
 8
EXTRUDE
 10
0
 20
0
 30
0
 70
128
 71
153
 72
49
 73
48
 74
152
 0
VERTEX
 8
EXTRUDE
 10
0
 20
0
 30
0
 70
128
 71
205
 72
204
 73
100
 74
101
 0
VERTEX
 8
EXTRUDE
 10
0
 20
0
 30
0
 70
128
 71
154
 72
50
 73
49
 74
153
 0
VERTEX
 8
EXTRUDE
 10
0
 20
0
 30
0
 70
128
 71
205
 72
101
 73
102
 74
206
 0
VERTEX
 8
EXTRUDE
 10
0
 20
0
 30
0
 70
128
 71
155
 72
51
 73
50
 74
154
 0
VERTEX
 8
EXTRUDE
 10
0
 20
0
 30
0
 70
128
 71
206
 72
102
 73
103
 74
207
 0
VERTEX
 8
EXTRUDE
 10
0
 20
0
 30
0
 70
128
 71
156
 72
52
 73
51
 74
155
 0
VERTEX
 8
EXTRUDE
 10
0
 20
0
 30
0
 70
128
 71
208
 72
207
 73
103
 74
104
 0
VERTEX
 8
EXTRUDE
 10
0
 20
0
 30
0
 70
128
 71
156
 72
106
 73
2
 74
52
 0
VERTEX
 8
EXTRUDE
 10
0
 20
0
 30
0
 70
128
 71
208
 72
104
 73
54
 74
158
 0
SEQEND
 0
POLYLINE
 8
CUBE_1
 66
1
 10
0.0
 20
0.0
 30
0.0
 70
64
 71
16
 72
12
 0
VERTEX
 8
CUBE_1
 10
-0.2496
 20
-0.225
 30
0.1083
 70
192
 0
VERTEX
 8
CUBE_1
 10
-0.2589
 20
-0.225
 30
0.12
 70
192
 0
VERTEX
 8
CUBE_1
 10
0.2747
 20
-0.225
 30
0.5259
 70
192
 0
VERTEX
 8
CUBE_1
 10
0.2653
 20
-0.225
 30
0.5377
 70
192
 0
VERTEX
 8
CUBE_1
 10
0.2747
 20
0.225
 30
0.5259
 70
192
 0
VERTEX
 8
CUBE_1
 10
0.2653
 20
0.225
 30
0.5377
 70
192
 0
VERTEX
 8
CUBE_1
 10
-0.2496
 20
0.225
 30
0.1083
 70
192
 0
VERTEX
 8
CUBE_1
 10
-0.2589
 20
0.225
 30
0.12
 70
192
 0
VERTEX
 8
CUBE_1
 10
-0.2459
 20
-0.205
 30
0.1304
 70
192
 0
VERTEX
 8
CUBE_1
 10
0.2526
 20
-0.205
 30
0.5275
 70
192
 0
VERTEX
 8
CUBE_1
 10
0.2526
 20
0.205
 30
0.5275
 70
192
 0
VERTEX
 8
CUBE_1
 10
-0.2459
 20
0.205
 30
0.1304
 70
192
 0
VERTEX
 8
CUBE_1
 10
-0.2365
 20
-0.205
 30
0.1187
 70
192
 0
VERTEX
 8
CUBE_1
 10
0.2619
 20
-0.205
 30
0.5158
 70
192
 0
VERTEX
 8
CUBE_1
 10
0.2619
 20
0.205
 30
0.5158
 70
192
 0
VERTEX
 8
CUBE_1
 10
-0.2365
 20
0.205
 30
0.1187
 70
192
 0
VERTEX
 8
CUBE_1
 10
0
 20
0
 30
0
 70
128
 71
1
 72
2
 73
4
 74
3
 0
VERTEX
 8
CUBE_1
 10
0
 20
0
 30
0
 70
128
 71
3
 72
4
 73
6
 74
5
 0
VERTEX
 8
CUBE_1
 10
0
 20
0
 30
0
 70
128
 71
5
 72
6
 73
8
 74
7
 0
VERTEX
 8
CUBE_1
 10
0
 20
0
 30
0
 70
128
 71
7
 72
8
 73
2
 74
1
 0
VERTEX
 8
CUBE_1
 10
0
 20
0
 30
0
 70
128
 71
9
 72
10
 73
4
 74
2
 0
VERTEX
 8
CUBE_1
 10
0
 20
0
 30
0
 70
128
 71
4
 72
10
 73
11
 74
6
 0
VERTEX
 8
CUBE_1
 10
0
 20
0
 30
0
 70
128
 71
12
 72
9
 73
2
 74
8
 0
VERTEX
 8
CUBE_1
 10
0
 20
0
 30
0
 70
128
 71
8
 72
6
 73
11
 74
12
 0
VERTEX
 8
CUBE_1
 10
0
 20
0
 30
0
 70
128
 71
14
 72
13
 73
1
 74
3
 0
VERTEX
 8
CUBE_1
 10
0
 20
0
 30
0
 70
128
 71
1
 72
13
 73
16
 74
7
 0
VERTEX
 8
CUBE_1
 10
0
 20
0
 30
0
 70
128
 71
5
 72
7
 73
16
 74
15
 0
VERTEX
 8
CUBE_1
 10
0
 20
0
 30
0
 70
128
 71
14
 72
3
 73
5
 74
15
 0
SEQEND
 0
POLYLINE
 8
CUBE_2
 66
1
 10
0.0
 20
0.0
 30
0.0
 70
64
 71
8
 72
4
 0
VERTEX
 8
CUBE_2
 10
-0.2459
 20
-0.205
 30
0.1304
 70
192
 0
VERTEX
 8
CUBE_2
 10
0.2526
 20
-0.205
 30
0.5275
 70
192
 0
VERTEX
 8
CUBE_2
 10
0.2526
 20
0.205
 30
0.5275
 70
192
 0
VERTEX
 8
CUBE_2
 10
-0.2459
 20
0.205
 30
0.1304
 70
192
 0
VERTEX
 8
CUBE_2
 10
-0.2365
 20
-0.205
 30
0.1187
 70
192
 0
VERTEX
 8
CUBE_2
 10
0.2619
 20
-0.205
 30
0.5158
 70
192
 0
VERTEX
 8
CUBE_2
 10
0.2619
 20
0.205
 30
0.5158
 70
192
 0
VERTEX
 8
CUBE_2
 10
-0.2365
 20
0.205
 30
0.1187
 70
192
 0
VERTEX
 8
CUBE_2
 10
0
 20
0
 30
0
 70
128
 71
1
 72
5
 73
6
 74
2
 0
VERTEX
 8
CUBE_2
 10
0
 20
0
 30
0
 70
128
 71
2
 72
6
 73
7
 74
3
 0
VERTEX
 8
CUBE_2
 10
0
 20
0
 30
0
 70
128
 71
8
 72
4
 73
3
 74
7
 0
VERTEX
 8
CUBE_2
 10
0
 20
0
 30
0
 70
128
 71
4
 72
8
 73
5
 74
1
 0
SEQEND
 0
POLYLINE
 8
CUBE_1_1
 66
1
 10
0.0
 20
0.0
 30
0.0
 70
64
 71
16
 72
12
 0
VERTEX
 8
CUBE_1_1
 10
-0.2712
 20
-0.225
 30
0.5307
 70
192
 0
VERTEX
 8
CUBE_1_1
 10
-0.2616
 20
-0.225
 30
0.5422
 70
192
 0
VERTEX
 8
CUBE_1_1
 10
0.2423
 20
-0.225
 30
0.0998
 70
192
 0
VERTEX
 8
CUBE_1_1
 10
0.2519
 20
-0.225
 30
0.1113
 70
192
 0
VERTEX
 8
CUBE_1_1
 10
0.2423
 20
0.225
 30
0.0998
 70
192
 0
VERTEX
 8
CUBE_1_1
 10
0.2519
 20
0.225
 30
0.1113
 70
192
 0
VERTEX
 8
CUBE_1_1
 10
-0.2712
 20
0.225
 30
0.5307
 70
192
 0
VERTEX
 8
CUBE_1_1
 10
-0.2616
 20
0.225
 30
0.5422
 70
192
 0
VERTEX
 8
CUBE_1_1
 10
-0.2488
 20
-0.205
 30
0.5315
 70
192
 0
VERTEX
 8
CUBE_1_1
 10
0.2394
 20
-0.205
 30
0.1218
 70
192
 0
VERTEX
 8
CUBE_1_1
 10
0.2394
 20
0.205
 30
0.1218
 70
192
 0
VERTEX
 8
CUBE_1_1
 10
-0.2488
 20
0.205
 30
0.5315
 70
192
 0
VERTEX
 8
CUBE_1_1
 10
-0.2584
 20
-0.205
 30
0.52
 70
192
 0
VERTEX
 8
CUBE_1_1
 10
0.2298
 20
-0.205
 30
0.1103
 70
192
 0
VERTEX
 8
CUBE_1_1
 10
0.2298
 20
0.205
 30
0.1103
 70
192
 0
VERTEX
 8
CUBE_1_1
 10
-0.2584
 20
0.205
 30
0.52
 70
192
 0
VERTEX
 8
CUBE_1_1
 10
0
 20
0
 30
0
 70
128
 71
1
 72
2
 73
4
 74
3
 0
VERTEX
 8
CUBE_1_1
 10
0
 20
0
 30
0
 70
128
 71
3
 72
4
 73
6
 74
5
 0
VERTEX
 8
CUBE_1_1
 10
0
 20
0
 30
0
 70
128
 71
5
 72
6
 73
8
 74
7
 0
VERTEX
 8
CUBE_1_1
 10
0
 20
0
 30
0
 70
128
 71
7
 72
8
 73
2
 74
1
 0
VERTEX
 8
CUBE_1_1
 10
0
 20
0
 30
0
 70
128
 71
9
 72
10
 73
4
 74
2
 0
VERTEX
 8
CUBE_1_1
 10
0
 20
0
 30
0
 70
128
 71
4
 72
10
 73
11
 74
6
 0
VERTEX
 8
CUBE_1_1
 10
0
 20
0
 30
0
 70
128
 71
12
 72
9
 73
2
 74
8
 0
VERTEX
 8
CUBE_1_1
 10
0
 20
0
 30
0
 70
128
 71
8
 72
6
 73
11
 74
12
 0
VERTEX
 8
CUBE_1_1
 10
0
 20
0
 30
0
 70
128
 71
14
 72
13
 73
1
 74
3
 0
VERTEX
 8
CUBE_1_1
 10
0
 20
0
 30
0
 70
128
 71
1
 72
13
 73
16
 74
7
 0
VERTEX
 8
CUBE_1_1
 10
0
 20
0
 30
0
 70
128
 71
5
 72
7
 73
16
 74
15
 0
VERTEX
 8
CUBE_1_1
 10
0
 20
0
 30
0
 70
128
 71
14
 72
3
 73
5
 74
15
 0
SEQEND
 0
POLYLINE
 8
CUBE_2_1
 66
1
 10
0.0
 20
0.0
 30
0.0
 70
64
 71
8
 72
4
 0
VERTEX
 8
CUBE_2_1
 10
-0.2488
 20
-0.205
 30
0.5315
 70
192
 0
VERTEX
 8
CUBE_2_1
 10
0.2394
 20
-0.205
 30
0.1218
 70
192
 0
VERTEX
 8
CUBE_2_1
 10
0.2394
 20
0.205
 30
0.1218
 70
192
 0
VERTEX
 8
CUBE_2_1
 10
-0.2488
 20
0.205
 30
0.5315
 70
192
 0
VERTEX
 8
CUBE_2_1
 10
-0.2584
 20
-0.205
 30
0.52
 70
192
 0
VERTEX
 8
CUBE_2_1
 10
0.2298
 20
-0.205
 30
0.1103
 70
192
 0
VERTEX
 8
CUBE_2_1
 10
0.2298
 20
0.205
 30
0.1103
 70
192
 0
VERTEX
 8
CUBE_2_1
 10
-0.2584
 20
0.205
 30
0.52
 70
192
 0
VERTEX
 8
CUBE_2_1
 10
0
 20
0
 30
0
 70
128
 71
1
 72
5
 73
6
 74
2
 0
VERTEX
 8
CUBE_2_1
 10
0
 20
0
 30
0
 70
128
 71
2
 72
6
 73
7
 74
3
 0
VERTEX
 8
CUBE_2_1
 10
0
 20
0
 30
0
 70
128
 71
8
 72
4
 73
3
 74
7
 0
VERTEX
 8
CUBE_2_1
 10
0
 20
0
 30
0
 70
128
 71
4
 72
8
 73
5
 74
1
 0
SEQEND
 0
POLYLINE
 8
CUBE_3
 66
1
 10
0.0
 20
0.0
 30
0.0
 70
64
 71
12
 72
9
 0
VERTEX
 8
CUBE_3
 10
-0.275
 20
-0.225
 30
0.5385
 70
192
 0
VERTEX
 8
CUBE_3
 10
-0.275
 20
-0.225
 30
0.5685
 70
192
 0
VERTEX
 8
CUBE_3
 10
0.275
 20
-0.225
 30
0.5385
 70
192
 0
VERTEX
 8
CUBE_3
 10
0.275
 20
-0.225
 30
0.5685
 70
192
 0
VERTEX
 8
CUBE_3
 10
0.275
 20
0.225
 30
0.5385
 70
192
 0
VERTEX
 8
CUBE_3
 10
0.275
 20
0.225
 30
0.5685
 70
192
 0
VERTEX
 8
CUBE_3
 10
-0.275
 20
0.225
 30
0.5385
 70
192
 0
VERTEX
 8
CUBE_3
 10
-0.275
 20
0.225
 30
0.5685
 70
192
 0
VERTEX
 8
CUBE_3
 10
-0.2535
 20
-0.2067
 30
0.5685
 70
192
 0
VERTEX
 8
CUBE_3
 10
0.2535
 20
-0.2067
 30
0.5685
 70
192
 0
VERTEX
 8
CUBE_3
 10
0.2535
 20
0.2067
 30
0.5685
 70
192
 0
VERTEX
 8
CUBE_3
 10
-0.2535
 20
0.2067
 30
0.5685
 70
192
 0
VERTEX
 8
CUBE_3
 10
0
 20
0
 30
0
 70
128
 71
1
 72
2
 73
4
 74
3
 0
VERTEX
 8
CUBE_3
 10
0
 20
0
 30
0
 70
128
 71
3
 72
4
 73
6
 74
5
 0
VERTEX
 8
CUBE_3
 10
0
 20
0
 30
0
 70
128
 71
5
 72
6
 73
8
 74
7
 0
VERTEX
 8
CUBE_3
 10
0
 20
0
 30
0
 70
128
 71
7
 72
8
 73
2
 74
1
 0
VERTEX
 8
CUBE_3
 10
0
 20
0
 30
0
 70
128
 71
6
 72
4
 73
10
 74
11
 0
VERTEX
 8
CUBE_3
 10
0
 20
0
 30
0
 70
128
 71
9
 72
10
 73
4
 74
2
 0
VERTEX
 8
CUBE_3
 10
0
 20
0
 30
0
 70
128
 71
12
 72
9
 73
2
 74
8
 0
VERTEX
 8
CUBE_3
 10
0
 20
0
 30
0
 70
128
 71
8
 72
6
 73
11
 74
12
 0
VERTEX
 8
CUBE_3
 10
0
 20
0
 30
0
 70
128
 71
7
 72
1
 73
3
 74
5
 0
SEQEND
 0
POLYLINE
 8
CUBE_2_2
 66
1
 10
0.0
 20
0.0
 30
0.0
 70
64
 71
8
 72
5
 0
VERTEX
 8
CUBE_2_2
 10
-0.2535
 20
-0.2067
 30
0.5602
 70
192
 0
VERTEX
 8
CUBE_2_2
 10
0.2535
 20
-0.2067
 30
0.5602
 70
192
 0
VERTEX
 8
CUBE_2_2
 10
0.2535
 20
0.2067
 30
0.5602
 70
192
 0
VERTEX
 8
CUBE_2_2
 10
-0.2535
 20
0.2067
 30
0.5602
 70
192
 0
VERTEX
 8
CUBE_2_2
 10
-0.2535
 20
-0.2067
 30
0.5685
 70
192
 0
VERTEX
 8
CUBE_2_2
 10
0.2535
 20
-0.2067
 30
0.5685
 70
192
 0
VERTEX
 8
CUBE_2_2
 10
0.2535
 20
0.2067
 30
0.5685
 70
192
 0
VERTEX
 8
CUBE_2_2
 10
-0.2535
 20
0.2067
 30
0.5685
 70
192
 0
VERTEX
 8
CUBE_2_2
 10
0
 20
0
 30
0
 70
128
 71
2
 72
6
 73
5
 74
1
 0
VERTEX
 8
CUBE_2_2
 10
0
 20
0
 30
0
 70
128
 71
3
 72
7
 73
6
 74
2
 0
VERTEX
 8
CUBE_2_2
 10
0
 20
0
 30
0
 70
128
 71
4
 72
8
 73
7
 74
3
 0
VERTEX
 8
CUBE_2_2
 10
0
 20
0
 30
0
 70
128
 71
1
 72
5
 73
8
 74
4
 0
VERTEX
 8
CUBE_2_2
 10
0
 20
0
 30
0
 70
128
 71
1
 72
4
 73
3
 74
2
 0
SEQEND
 0
POLYLINE
 8
CUBE_1_2
 66
1
 10
0.0
 20
0.0
 30
0.0
 70
64
 71
16
 72
12
 0
VERTEX
 8
CUBE_1_2
 10
-0.275
 20
-0.225
 30
0.5248
 70
192
 0
VERTEX
 8
CUBE_1_2
 10
-0.275
 20
-0.225
 30
0.5398
 70
192
 0
VERTEX
 8
CUBE_1_2
 10
0.275
 20
-0.225
 30
0.5248
 70
192
 0
VERTEX
 8
CUBE_1_2
 10
0.275
 20
-0.225
 30
0.5398
 70
192
 0
VERTEX
 8
CUBE_1_2
 10
0.275
 20
0.225
 30
0.5248
 70
192
 0
VERTEX
 8
CUBE_1_2
 10
0.275
 20
0.225
 30
0.5398
 70
192
 0
VERTEX
 8
CUBE_1_2
 10
-0.275
 20
0.225
 30
0.5248
 70
192
 0
VERTEX
 8
CUBE_1_2
 10
-0.275
 20
0.225
 30
0.5398
 70
192
 0
VERTEX
 8
CUBE_1_2
 10
-0.2592
 20
-0.205
 30
0.5398
 70
192
 0
VERTEX
 8
CUBE_1_2
 10
0.2592
 20
-0.205
 30
0.5398
 70
192
 0
VERTEX
 8
CUBE_1_2
 10
0.2592
 20
0.205
 30
0.5398
 70
192
 0
VERTEX
 8
CUBE_1_2
 10
-0.2592
 20
0.205
 30
0.5398
 70
192
 0
VERTEX
 8
CUBE_1_2
 10
-0.2592
 20
-0.205
 30
0.5248
 70
192
 0
VERTEX
 8
CUBE_1_2
 10
0.2592
 20
-0.205
 30
0.5248
 70
192
 0
VERTEX
 8
CUBE_1_2
 10
0.2592
 20
0.205
 30
0.5248
 70
192
 0
VERTEX
 8
CUBE_1_2
 10
-0.2592
 20
0.205
 30
0.5248
 70
192
 0
VERTEX
 8
CUBE_1_2
 10
0
 20
0
 30
0
 70
128
 71
1
 72
2
 73
4
 74
3
 0
VERTEX
 8
CUBE_1_2
 10
0
 20
0
 30
0
 70
128
 71
3
 72
4
 73
6
 74
5
 0
VERTEX
 8
CUBE_1_2
 10
0
 20
0
 30
0
 70
128
 71
5
 72
6
 73
8
 74
7
 0
VERTEX
 8
CUBE_1_2
 10
0
 20
0
 30
0
 70
128
 71
7
 72
8
 73
2
 74
1
 0
VERTEX
 8
CUBE_1_2
 10
0
 20
0
 30
0
 70
128
 71
10
 72
4
 73
2
 74
9
 0
VERTEX
 8
CUBE_1_2
 10
0
 20
0
 30
0
 70
128
 71
4
 72
10
 73
11
 74
6
 0
VERTEX
 8
CUBE_1_2
 10
0
 20
0
 30
0
 70
128
 71
9
 72
2
 73
8
 74
12
 0
VERTEX
 8
CUBE_1_2
 10
0
 20
0
 30
0
 70
128
 71
6
 72
11
 73
12
 74
8
 0
VERTEX
 8
CUBE_1_2
 10
0
 20
0
 30
0
 70
128
 71
13
 72
1
 73
3
 74
14
 0
VERTEX
 8
CUBE_1_2
 10
0
 20
0
 30
0
 70
128
 71
1
 72
13
 73
16
 74
7
 0
VERTEX
 8
CUBE_1_2
 10
0
 20
0
 30
0
 70
128
 71
14
 72
3
 73
5
 74
15
 0
VERTEX
 8
CUBE_1_2
 10
0
 20
0
 30
0
 70
128
 71
7
 72
16
 73
15
 74
5
 0
SEQEND
 0
POLYLINE
 8
CUBE_2_3
 66
1
 10
0.0
 20
0.0
 30
0.0
 70
64
 71
8
 72
4
 0
VERTEX
 8
CUBE_2_3
 10
-0.2592
 20
-0.205
 30
0.5398
 70
192
 0
VERTEX
 8
CUBE_2_3
 10
0.2592
 20
-0.205
 30
0.5398
 70
192
 0
VERTEX
 8
CUBE_2_3
 10
0.2592
 20
0.205
 30
0.5398
 70
192
 0
VERTEX
 8
CUBE_2_3
 10
-0.2592
 20
0.205
 30
0.5398
 70
192
 0
VERTEX
 8
CUBE_2_3
 10
-0.2592
 20
-0.205
 30
0.5248
 70
192
 0
VERTEX
 8
CUBE_2_3
 10
0.2592
 20
-0.205
 30
0.5248
 70
192
 0
VERTEX
 8
CUBE_2_3
 10
0.2592
 20
0.205
 30
0.5248
 70
192
 0
VERTEX
 8
CUBE_2_3
 10
-0.2592
 20
0.205
 30
0.5248
 70
192
 0
VERTEX
 8
CUBE_2_3
 10
0
 20
0
 30
0
 70
128
 71
1
 72
5
 73
6
 74
2
 0
VERTEX
 8
CUBE_2_3
 10
0
 20
0
 30
0
 70
128
 71
2
 72
6
 73
7
 74
3
 0
VERTEX
 8
CUBE_2_3
 10
0
 20
0
 30
0
 70
128
 71
8
 72
4
 73
3
 74
7
 0
VERTEX
 8
CUBE_2_3
 10
0
 20
0
 30
0
 70
128
 71
4
 72
8
 73
5
 74
1
 0
SEQEND
 0
ENDSEC
 0
EOF
