 0
SECTION
 2
HEADER
 9
$ACADVER
 1
AC1009
 0
ENDSEC
 0
SECTION
 2
TABLES
 0
TABLE
 2
LTYPE
 70
1
 0
LTYPE
 2
CONTINUOUS
 70
64
 3
solid line
 72
65
 73
0
 40
0.0
 0
ENDTAB
 0
TABLE
 2
LAYER
 70
6
 0
LAYER
 2
0
 70
0
 62
7
 6
CONTINUOUS
 0
LAYER
 2
CUBE_4
 70
64
 62
252
 6
CONTINUOUS
 0
LAYER
 2
CUBE_3
 70
64
 62
252
 6
CONTINUOUS
 0
LAYER
 2
CUBE_2
 70
64
 62
252
 6
CONTINUOUS
 0
LAYER
 2
CUBE_1
 70
64
 62
252
 6
CONTINUOUS
 0
LAYER
 2
CUBE
 70
64
 62
252
 6
CONTINUOUS
 0
LAYER
 2
BOOLE_6
 70
64
 62
7
 6
CONTINUOUS
 0
LAYER
 2
BOOLE_5
 70
64
 62
7
 6
CONTINUOUS
 0
LAYER
 2
CUBE_5
 70
64
 62
59
 6
CONTINUOUS
 0
LAYER
 2
CUBE_1_1
 70
64
 62
89
 6
CONTINUOUS
 0
LAYER
 2
CUBE_2_1
 70
64
 62
89
 6
CONTINUOUS
 0
LAYER
 2
CUBE_6
 70
64
 62
49
 6
CONTINUOUS
 0
LAYER
 2
BOOLE_2
 70
64
 62
7
 6
CONTINUOUS
 0
LAYER
 2
CUBE_2_2
 70
64
 62
252
 6
CONTINUOUS
 0
LAYER
 2
CUBE_1_2
 70
64
 62
252
 6
CONTINUOUS
 0
LAYER
 2
BOOLE_4
 70
64
 62
7
 6
CONTINUOUS
 0
LAYER
 2
CUBE_2_3
 70
64
 62
252
 6
CONTINUOUS
 0
LAYER
 2
CUBE_1_3
 70
64
 62
252
 6
CONTINUOUS
 0
LAYER
 2
BOOLE_3
 70
64
 62
7
 6
CONTINUOUS
 0
LAYER
 2
CUBE_2_4
 70
64
 62
252
 6
CONTINUOUS
 0
LAYER
 2
CUBE_1_4
 70
64
 62
252
 6
CONTINUOUS
 0
LAYER
 2
BOOLE_1
 70
64
 62
7
 6
CONTINUOUS
 0
LAYER
 2
CUBE_2_5
 70
64
 62
252
 6
CONTINUOUS
 0
LAYER
 2
CUBE_1_5
 70
64
 62
252
 6
CONTINUOUS
 0
LAYER
 2
BOOLE
 70
64
 62
7
 6
CONTINUOUS
 0
LAYER
 2
CUBE_1_6
 70
64
 62
252
 6
CONTINUOUS
 0
LAYER
 2
CUBE_3_1
 70
64
 62
252
 6
CONTINUOUS
 0
ENDTAB
 0
ENDSEC
 0
SECTION
 2
BLOCKS
 0
ENDSEC
 0
SECTION
 2
ENTITIES
 0
POLYLINE
 8
CUBE_4
 66
1
 10
0.0
 20
0.0
 30
0.0
 70
64
 71
8
 72
6
 0
VERTEX
 8
CUBE_4
 10
-0.0409
 20
-0.2395
 30
0.343
 70
192
 0
VERTEX
 8
CUBE_4
 10
0.0665
 20
-0.2395
 30
0.346
 70
192
 0
VERTEX
 8
CUBE_4
 10
-0.0409
 20
-0.2395
 30
0.3427
 70
192
 0
VERTEX
 8
CUBE_4
 10
0.0665
 20
-0.2395
 30
0.3452
 70
192
 0
VERTEX
 8
CUBE_4
 10
-0.0531
 20
-0.2275
 30
0.3345
 70
192
 0
VERTEX
 8
CUBE_4
 10
0.0715
 20
-0.2275
 30
0.3345
 70
192
 0
VERTEX
 8
CUBE_4
 10
-0.0531
 20
-0.2275
 30
0.3586
 70
192
 0
VERTEX
 8
CUBE_4
 10
0.0715
 20
-0.2275
 30
0.3586
 70
192
 0
VERTEX
 8
CUBE_4
 10
0
 20
0
 30
0
 70
128
 71
1
 72
2
 73
4
 74
3
 0
VERTEX
 8
CUBE_4
 10
0
 20
0
 30
0
 70
128
 71
3
 72
4
 73
6
 74
5
 0
VERTEX
 8
CUBE_4
 10
0
 20
0
 30
0
 70
128
 71
5
 72
6
 73
8
 74
7
 0
VERTEX
 8
CUBE_4
 10
0
 20
0
 30
0
 70
128
 71
7
 72
8
 73
2
 74
1
 0
VERTEX
 8
CUBE_4
 10
0
 20
0
 30
0
 70
128
 71
2
 72
8
 73
6
 74
4
 0
VERTEX
 8
CUBE_4
 10
0
 20
0
 30
0
 70
128
 71
7
 72
1
 73
3
 74
5
 0
SEQEND
 0
POLYLINE
 8
CUBE_3
 66
1
 10
0.0
 20
0.0
 30
0.0
 70
64
 71
8
 72
6
 0
VERTEX
 8
CUBE_3
 10
0.6009
 20
-0.2367
 30
0.3989
 70
192
 0
VERTEX
 8
CUBE_3
 10
0.598
 20
-0.2367
 30
0.5115
 70
192
 0
VERTEX
 8
CUBE_3
 10
0.6011
 20
-0.2367
 30
0.3989
 70
192
 0
VERTEX
 8
CUBE_3
 10
0.5987
 20
-0.2367
 30
0.5115
 70
192
 0
VERTEX
 8
CUBE_3
 10
0.6091
 20
-0.2247
 30
0.386
 70
192
 0
VERTEX
 8
CUBE_3
 10
0.6091
 20
-0.2247
 30
0.5168
 70
192
 0
VERTEX
 8
CUBE_3
 10
0.5856
 20
-0.2247
 30
0.386
 70
192
 0
VERTEX
 8
CUBE_3
 10
0.5856
 20
-0.2247
 30
0.5168
 70
192
 0
VERTEX
 8
CUBE_3
 10
0
 20
0
 30
0
 70
128
 71
1
 72
2
 73
4
 74
3
 0
VERTEX
 8
CUBE_3
 10
0
 20
0
 30
0
 70
128
 71
3
 72
4
 73
6
 74
5
 0
VERTEX
 8
CUBE_3
 10
0
 20
0
 30
0
 70
128
 71
5
 72
6
 73
8
 74
7
 0
VERTEX
 8
CUBE_3
 10
0
 20
0
 30
0
 70
128
 71
7
 72
8
 73
2
 74
1
 0
VERTEX
 8
CUBE_3
 10
0
 20
0
 30
0
 70
128
 71
2
 72
8
 73
6
 74
4
 0
VERTEX
 8
CUBE_3
 10
0
 20
0
 30
0
 70
128
 71
7
 72
1
 73
3
 74
5
 0
SEQEND
 0
POLYLINE
 8
CUBE_2
 66
1
 10
0.0
 20
0.0
 30
0.0
 70
64
 71
8
 72
6
 0
VERTEX
 8
CUBE_2
 10
0.6794
 20
-0.2367
 30
0.3976
 70
192
 0
VERTEX
 8
CUBE_2
 10
0.6765
 20
-0.2367
 30
0.5103
 70
192
 0
VERTEX
 8
CUBE_2
 10
0.6796
 20
-0.2367
 30
0.3976
 70
192
 0
VERTEX
 8
CUBE_2
 10
0.6772
 20
-0.2367
 30
0.5103
 70
192
 0
VERTEX
 8
CUBE_2
 10
0.6877
 20
-0.2247
 30
0.3848
 70
192
 0
VERTEX
 8
CUBE_2
 10
0.6877
 20
-0.2247
 30
0.5156
 70
192
 0
VERTEX
 8
CUBE_2
 10
0.6641
 20
-0.2247
 30
0.3848
 70
192
 0
VERTEX
 8
CUBE_2
 10
0.6641
 20
-0.2247
 30
0.5156
 70
192
 0
VERTEX
 8
CUBE_2
 10
0
 20
0
 30
0
 70
128
 71
1
 72
2
 73
4
 74
3
 0
VERTEX
 8
CUBE_2
 10
0
 20
0
 30
0
 70
128
 71
3
 72
4
 73
6
 74
5
 0
VERTEX
 8
CUBE_2
 10
0
 20
0
 30
0
 70
128
 71
5
 72
6
 73
8
 74
7
 0
VERTEX
 8
CUBE_2
 10
0
 20
0
 30
0
 70
128
 71
7
 72
8
 73
2
 74
1
 0
VERTEX
 8
CUBE_2
 10
0
 20
0
 30
0
 70
128
 71
2
 72
8
 73
6
 74
4
 0
VERTEX
 8
CUBE_2
 10
0
 20
0
 30
0
 70
128
 71
7
 72
1
 73
3
 74
5
 0
SEQEND
 0
POLYLINE
 8
CUBE_1
 66
1
 10
0.0
 20
0.0
 30
0.0
 70
64
 71
8
 72
6
 0
VERTEX
 8
CUBE_1
 10
-0.5789
 20
-0.2367
 30
0.4105
 70
192
 0
VERTEX
 8
CUBE_1
 10
-0.5821
 20
-0.2367
 30
0.5178
 70
192
 0
VERTEX
 8
CUBE_1
 10
-0.5786
 20
-0.2367
 30
0.4105
 70
192
 0
VERTEX
 8
CUBE_1
 10
-0.5813
 20
-0.2367
 30
0.5178
 70
192
 0
VERTEX
 8
CUBE_1
 10
-0.5697
 20
-0.2247
 30
0.3982
 70
192
 0
VERTEX
 8
CUBE_1
 10
-0.5697
 20
-0.2247
 30
0.5229
 70
192
 0
VERTEX
 8
CUBE_1
 10
-0.5957
 20
-0.2247
 30
0.3982
 70
192
 0
VERTEX
 8
CUBE_1
 10
-0.5957
 20
-0.2247
 30
0.5229
 70
192
 0
VERTEX
 8
CUBE_1
 10
0
 20
0
 30
0
 70
128
 71
1
 72
2
 73
4
 74
3
 0
VERTEX
 8
CUBE_1
 10
0
 20
0
 30
0
 70
128
 71
3
 72
4
 73
6
 74
5
 0
VERTEX
 8
CUBE_1
 10
0
 20
0
 30
0
 70
128
 71
5
 72
6
 73
8
 74
7
 0
VERTEX
 8
CUBE_1
 10
0
 20
0
 30
0
 70
128
 71
7
 72
8
 73
2
 74
1
 0
VERTEX
 8
CUBE_1
 10
0
 20
0
 30
0
 70
128
 71
2
 72
8
 73
6
 74
4
 0
VERTEX
 8
CUBE_1
 10
0
 20
0
 30
0
 70
128
 71
7
 72
1
 73
3
 74
5
 0
SEQEND
 0
POLYLINE
 8
CUBE
 66
1
 10
0.0
 20
0.0
 30
0.0
 70
64
 71
8
 72
6
 0
VERTEX
 8
CUBE
 10
-0.6633
 20
-0.2367
 30
0.4105
 70
192
 0
VERTEX
 8
CUBE
 10
-0.6664
 20
-0.2367
 30
0.5178
 70
192
 0
VERTEX
 8
CUBE
 10
-0.6631
 20
-0.2367
 30
0.4105
 70
192
 0
VERTEX
 8
CUBE
 10
-0.6656
 20
-0.2367
 30
0.5178
 70
192
 0
VERTEX
 8
CUBE
 10
-0.6546
 20
-0.2247
 30
0.3982
 70
192
 0
VERTEX
 8
CUBE
 10
-0.6546
 20
-0.2247
 30
0.5229
 70
192
 0
VERTEX
 8
CUBE
 10
-0.6794
 20
-0.2247
 30
0.3982
 70
192
 0
VERTEX
 8
CUBE
 10
-0.6794
 20
-0.2247
 30
0.5229
 70
192
 0
VERTEX
 8
CUBE
 10
0
 20
0
 30
0
 70
128
 71
1
 72
2
 73
4
 74
3
 0
VERTEX
 8
CUBE
 10
0
 20
0
 30
0
 70
128
 71
3
 72
4
 73
6
 74
5
 0
VERTEX
 8
CUBE
 10
0
 20
0
 30
0
 70
128
 71
5
 72
6
 73
8
 74
7
 0
VERTEX
 8
CUBE
 10
0
 20
0
 30
0
 70
128
 71
7
 72
8
 73
2
 74
1
 0
VERTEX
 8
CUBE
 10
0
 20
0
 30
0
 70
128
 71
2
 72
8
 73
6
 74
4
 0
VERTEX
 8
CUBE
 10
0
 20
0
 30
0
 70
128
 71
7
 72
1
 73
3
 74
5
 0
SEQEND
 0
POLYLINE
 8
CUBE_5
 66
1
 10
0.0
 20
0.0
 30
0.0
 70
64
 71
20
 72
16
 0
VERTEX
 8
CUBE_5
 10
-1
 20
-0.225
 30
0.2323
 70
192
 0
VERTEX
 8
CUBE_5
 10
-1
 20
-0.225
 30
0.686
 70
192
 0
VERTEX
 8
CUBE_5
 10
1
 20
-0.225
 30
0.2323
 70
192
 0
VERTEX
 8
CUBE_5
 10
1
 20
-0.225
 30
0.686
 70
192
 0
VERTEX
 8
CUBE_5
 10
1
 20
0.225
 30
0.2323
 70
192
 0
VERTEX
 8
CUBE_5
 10
1
 20
0.225
 30
0.686
 70
192
 0
VERTEX
 8
CUBE_5
 10
-1
 20
0.225
 30
0.2323
 70
192
 0
VERTEX
 8
CUBE_5
 10
-1
 20
0.225
 30
0.686
 70
192
 0
VERTEX
 8
CUBE_5
 10
1
 20
0.2095
 30
0.6704
 70
192
 0
VERTEX
 8
CUBE_5
 10
1
 20
-0.2095
 30
0.248
 70
192
 0
VERTEX
 8
CUBE_5
 10
-1
 20
0.2095
 30
0.248
 70
192
 0
VERTEX
 8
CUBE_5
 10
-1
 20
-0.2095
 30
0.6704
 70
192
 0
VERTEX
 8
CUBE_5
 10
1
 20
-0.2095
 30
0.6704
 70
192
 0
VERTEX
 8
CUBE_5
 10
-1
 20
0.2095
 30
0.6704
 70
192
 0
VERTEX
 8
CUBE_5
 10
1
 20
0.2095
 30
0.248
 70
192
 0
VERTEX
 8
CUBE_5
 10
-1
 20
-0.2095
 30
0.248
 70
192
 0
VERTEX
 8
CUBE_5
 10
0.2612
 20
-0.225
 30
0.6729
 70
192
 0
VERTEX
 8
CUBE_5
 10
0.2612
 20
-0.225
 30
0.4721
 70
192
 0
VERTEX
 8
CUBE_5
 10
-0.2488
 20
-0.225
 30
0.6729
 70
192
 0
VERTEX
 8
CUBE_5
 10
-0.2488
 20
-0.225
 30
0.4721
 70
192
 0
VERTEX
 8
CUBE_5
 10
0
 20
0
 30
0
 70
128
 71
1
 72
2
 73
20
 74
20
 0
VERTEX
 8
CUBE_5
 10
0
 20
0
 30
0
 70
128
 71
19
 72
20
 73
2
 74
2
 0
VERTEX
 8
CUBE_5
 10
0
 20
0
 30
0
 70
128
 71
3
 72
1
 73
20
 74
18
 0
VERTEX
 8
CUBE_5
 10
0
 20
0
 30
0
 70
128
 71
17
 72
19
 73
2
 74
4
 0
VERTEX
 8
CUBE_5
 10
0
 20
0
 30
0
 70
128
 71
18
 72
17
 73
4
 74
3
 0
VERTEX
 8
CUBE_5
 10
0
 20
0
 30
0
 70
128
 71
10
 72
15
 73
5
 74
3
 0
VERTEX
 8
CUBE_5
 10
0
 20
0
 30
0
 70
128
 71
6
 72
5
 73
15
 74
9
 0
VERTEX
 8
CUBE_5
 10
0
 20
0
 30
0
 70
128
 71
4
 72
6
 73
9
 74
13
 0
VERTEX
 8
CUBE_5
 10
0
 20
0
 30
0
 70
128
 71
13
 72
10
 73
3
 74
4
 0
VERTEX
 8
CUBE_5
 10
0
 20
0
 30
0
 70
128
 71
5
 72
6
 73
8
 74
7
 0
VERTEX
 8
CUBE_5
 10
0
 20
0
 30
0
 70
128
 71
11
 72
16
 73
1
 74
7
 0
VERTEX
 8
CUBE_5
 10
0
 20
0
 30
0
 70
128
 71
2
 72
1
 73
16
 74
12
 0
VERTEX
 8
CUBE_5
 10
0
 20
0
 30
0
 70
128
 71
14
 72
11
 73
7
 74
8
 0
VERTEX
 8
CUBE_5
 10
0
 20
0
 30
0
 70
128
 71
8
 72
2
 73
12
 74
14
 0
VERTEX
 8
CUBE_5
 10
0
 20
0
 30
0
 70
128
 71
2
 72
8
 73
6
 74
4
 0
VERTEX
 8
CUBE_5
 10
0
 20
0
 30
0
 70
128
 71
7
 72
1
 73
3
 74
5
 0
SEQEND
 0
POLYLINE
 8
CUBE_1_1
 66
1
 10
0.0
 20
0.0
 30
0.0
 70
64
 71
16
 72
9
 0
VERTEX
 8
CUBE_1_1
 10
1
 20
-0.2095
 30
0.6704
 70
192
 0
VERTEX
 8
CUBE_1_1
 10
1
 20
0.2095
 30
0.6704
 70
192
 0
VERTEX
 8
CUBE_1_1
 10
1
 20
0.2095
 30
0.248
 70
192
 0
VERTEX
 8
CUBE_1_1
 10
-1
 20
-0.2095
 30
0.248
 70
192
 0
VERTEX
 8
CUBE_1_1
 10
1
 20
-0.2095
 30
0.248
 70
192
 0
VERTEX
 8
CUBE_1_1
 10
-1
 20
-0.2095
 30
0.6704
 70
192
 0
VERTEX
 8
CUBE_1_1
 10
-1
 20
0.2095
 30
0.6704
 70
192
 0
VERTEX
 8
CUBE_1_1
 10
-1
 20
0.2095
 30
0.248
 70
192
 0
VERTEX
 8
CUBE_1_1
 10
0.2612
 20
-0.2095
 30
0.6704
 70
192
 0
VERTEX
 8
CUBE_1_1
 10
-0.2488
 20
0.2095
 30
0.6704
 70
192
 0
VERTEX
 8
CUBE_1_1
 10
-0.2488
 20
-0.2095
 30
0.6704
 70
192
 0
VERTEX
 8
CUBE_1_1
 10
0.2612
 20
0.2095
 30
0.6704
 70
192
 0
VERTEX
 8
CUBE_1_1
 10
-0.2488
 20
-0.2095
 30
0.4721
 70
192
 0
VERTEX
 8
CUBE_1_1
 10
0.2612
 20
-0.2095
 30
0.4721
 70
192
 0
VERTEX
 8
CUBE_1_1
 10
0.2612
 20
0.2095
 30
0.4721
 70
192
 0
VERTEX
 8
CUBE_1_1
 10
-0.2488
 20
0.2095
 30
0.4721
 70
192
 0
VERTEX
 8
CUBE_1_1
 10
0
 20
0
 30
0
 70
128
 71
13
 72
11
 73
6
 74
4
 0
VERTEX
 8
CUBE_1_1
 10
0
 20
0
 30
0
 70
128
 71
1
 72
9
 73
14
 74
5
 0
VERTEX
 8
CUBE_1_1
 10
0
 20
0
 30
0
 70
128
 71
4
 72
5
 73
14
 74
13
 0
VERTEX
 8
CUBE_1_1
 10
0
 20
0
 30
0
 70
128
 71
12
 72
2
 73
3
 74
15
 0
VERTEX
 8
CUBE_1_1
 10
0
 20
0
 30
0
 70
128
 71
8
 72
7
 73
10
 74
16
 0
VERTEX
 8
CUBE_1_1
 10
0
 20
0
 30
0
 70
128
 71
16
 72
15
 73
3
 74
8
 0
VERTEX
 8
CUBE_1_1
 10
0
 20
0
 30
0
 70
128
 71
10
 72
7
 73
6
 74
11
 0
VERTEX
 8
CUBE_1_1
 10
0
 20
0
 30
0
 70
128
 71
9
 72
1
 73
2
 74
12
 0
VERTEX
 8
CUBE_1_1
 10
0
 20
0
 30
0
 70
128
 71
5
 72
4
 73
8
 74
3
 0
SEQEND
 0
POLYLINE
 8
CUBE_2_1
 66
1
 10
0.0
 20
0.0
 30
0.0
 70
64
 71
16
 72
11
 0
VERTEX
 8
CUBE_2_1
 10
-0.9843
 20
-0.2095
 30
0.248
 70
192
 0
VERTEX
 8
CUBE_2_1
 10
-0.9843
 20
-0.2095
 30
0.6704
 70
192
 0
VERTEX
 8
CUBE_2_1
 10
0.9912
 20
-0.2095
 30
0.248
 70
192
 0
VERTEX
 8
CUBE_2_1
 10
0.9912
 20
-0.2095
 30
0.6704
 70
192
 0
VERTEX
 8
CUBE_2_1
 10
0.9912
 20
0.2095
 30
0.248
 70
192
 0
VERTEX
 8
CUBE_2_1
 10
0.9912
 20
0.2095
 30
0.6704
 70
192
 0
VERTEX
 8
CUBE_2_1
 10
-0.9843
 20
0.2095
 30
0.248
 70
192
 0
VERTEX
 8
CUBE_2_1
 10
-0.9843
 20
0.2095
 30
0.6704
 70
192
 0
VERTEX
 8
CUBE_2_1
 10
0.2612
 20
-0.2095
 30
0.6704
 70
192
 0
VERTEX
 8
CUBE_2_1
 10
-0.2488
 20
-0.2095
 30
0.6704
 70
192
 0
VERTEX
 8
CUBE_2_1
 10
0.2612
 20
0.2095
 30
0.6704
 70
192
 0
VERTEX
 8
CUBE_2_1
 10
-0.2488
 20
0.2095
 30
0.6704
 70
192
 0
VERTEX
 8
CUBE_2_1
 10
0.2612
 20
-0.2095
 30
0.4721
 70
192
 0
VERTEX
 8
CUBE_2_1
 10
0.2612
 20
0.2095
 30
0.4721
 70
192
 0
VERTEX
 8
CUBE_2_1
 10
-0.2488
 20
-0.2095
 30
0.4721
 70
192
 0
VERTEX
 8
CUBE_2_1
 10
-0.2488
 20
0.2095
 30
0.4721
 70
192
 0
VERTEX
 8
CUBE_2_1
 10
0
 20
0
 30
0
 70
128
 71
13
 72
9
 73
4
 74
3
 0
VERTEX
 8
CUBE_2_1
 10
0
 20
0
 30
0
 70
128
 71
2
 72
10
 73
15
 74
1
 0
VERTEX
 8
CUBE_2_1
 10
0
 20
0
 30
0
 70
128
 71
13
 72
3
 73
1
 74
15
 0
VERTEX
 8
CUBE_2_1
 10
0
 20
0
 30
0
 70
128
 71
3
 72
4
 73
6
 74
5
 0
VERTEX
 8
CUBE_2_1
 10
0
 20
0
 30
0
 70
128
 71
16
 72
12
 73
8
 74
7
 0
VERTEX
 8
CUBE_2_1
 10
0
 20
0
 30
0
 70
128
 71
5
 72
6
 73
11
 74
14
 0
VERTEX
 8
CUBE_2_1
 10
0
 20
0
 30
0
 70
128
 71
7
 72
5
 73
14
 74
16
 0
VERTEX
 8
CUBE_2_1
 10
0
 20
0
 30
0
 70
128
 71
7
 72
8
 73
2
 74
1
 0
VERTEX
 8
CUBE_2_1
 10
0
 20
0
 30
0
 70
128
 71
11
 72
6
 73
4
 74
9
 0
VERTEX
 8
CUBE_2_1
 10
0
 20
0
 30
0
 70
128
 71
10
 72
2
 73
8
 74
12
 0
VERTEX
 8
CUBE_2_1
 10
0
 20
0
 30
0
 70
128
 71
7
 72
1
 73
3
 74
5
 0
SEQEND
 0
POLYLINE
 8
CUBE_6
 66
1
 10
0.0
 20
0.0
 30
0.0
 70
64
 71
16
 72
13
 0
VERTEX
 8
CUBE_6
 10
0.2612
 20
0.2146
 30
0.4721
 70
192
 0
VERTEX
 8
CUBE_6
 10
0.2612
 20
0.2146
 30
0.6729
 70
192
 0
VERTEX
 8
CUBE_6
 10
-0.2488
 20
0.2146
 30
0.4721
 70
192
 0
VERTEX
 8
CUBE_6
 10
-0.2488
 20
0.2146
 30
0.6729
 70
192
 0
VERTEX
 8
CUBE_6
 10
0.2612
 20
-0.225
 30
0.6729
 70
192
 0
VERTEX
 8
CUBE_6
 10
0.2612
 20
-0.225
 30
0.4721
 70
192
 0
VERTEX
 8
CUBE_6
 10
-0.2488
 20
-0.225
 30
0.6729
 70
192
 0
VERTEX
 8
CUBE_6
 10
-0.2488
 20
-0.225
 30
0.4721
 70
192
 0
VERTEX
 8
CUBE_6
 10
0.2612
 20
0.2095
 30
0.4721
 70
192
 0
VERTEX
 8
CUBE_6
 10
0.2612
 20
-0.2095
 30
0.4721
 70
192
 0
VERTEX
 8
CUBE_6
 10
-0.2488
 20
-0.2095
 30
0.4721
 70
192
 0
VERTEX
 8
CUBE_6
 10
-0.2488
 20
0.2095
 30
0.4721
 70
192
 0
VERTEX
 8
CUBE_6
 10
-0.2488
 20
-0.2095
 30
0.6704
 70
192
 0
VERTEX
 8
CUBE_6
 10
0.2612
 20
-0.2095
 30
0.6704
 70
192
 0
VERTEX
 8
CUBE_6
 10
-0.2488
 20
0.2095
 30
0.6704
 70
192
 0
VERTEX
 8
CUBE_6
 10
0.2612
 20
0.2095
 30
0.6704
 70
192
 0
VERTEX
 8
CUBE_6
 10
0
 20
0
 30
0
 70
128
 71
10
 72
9
 73
16
 74
14
 0
VERTEX
 8
CUBE_6
 10
0
 20
0
 30
0
 70
128
 71
6
 72
10
 73
14
 74
5
 0
VERTEX
 8
CUBE_6
 10
0
 20
0
 30
0
 70
128
 71
1
 72
2
 73
16
 74
9
 0
VERTEX
 8
CUBE_6
 10
0
 20
0
 30
0
 70
128
 71
16
 72
2
 73
5
 74
14
 0
VERTEX
 8
CUBE_6
 10
0
 20
0
 30
0
 70
128
 71
2
 72
1
 73
3
 74
4
 0
VERTEX
 8
CUBE_6
 10
0
 20
0
 30
0
 70
128
 71
12
 72
11
 73
13
 74
15
 0
VERTEX
 8
CUBE_6
 10
0
 20
0
 30
0
 70
128
 71
8
 72
7
 73
13
 74
11
 0
VERTEX
 8
CUBE_6
 10
0
 20
0
 30
0
 70
128
 71
3
 72
12
 73
15
 74
4
 0
VERTEX
 8
CUBE_6
 10
0
 20
0
 30
0
 70
128
 71
15
 72
13
 73
7
 74
4
 0
VERTEX
 8
CUBE_6
 10
0
 20
0
 30
0
 70
128
 71
4
 72
7
 73
5
 74
2
 0
VERTEX
 8
CUBE_6
 10
0
 20
0
 30
0
 70
128
 71
10
 72
6
 73
8
 74
11
 0
VERTEX
 8
CUBE_6
 10
0
 20
0
 30
0
 70
128
 71
9
 72
10
 73
11
 74
12
 0
VERTEX
 8
CUBE_6
 10
0
 20
0
 30
0
 70
128
 71
1
 72
9
 73
12
 74
3
 0
SEQEND
 0
POLYLINE
 8
CUBE_2_2
 66
1
 10
0.0
 20
0.0
 30
0.0
 70
64
 71
16
 72
12
 0
VERTEX
 8
CUBE_2_2
 10
0.9735
 20
-0.225
 30
-0.021
 70
192
 0
VERTEX
 8
CUBE_2_2
 10
0.9735
 20
-0.225
 30
0.2248
 70
192
 0
VERTEX
 8
CUBE_2_2
 10
0.9985
 20
-0.225
 30
-0.021
 70
192
 0
VERTEX
 8
CUBE_2_2
 10
0.9985
 20
-0.225
 30
0.2248
 70
192
 0
VERTEX
 8
CUBE_2_2
 10
0.9985
 20
0.225
 30
-0.021
 70
192
 0
VERTEX
 8
CUBE_2_2
 10
0.9985
 20
0.225
 30
0.2248
 70
192
 0
VERTEX
 8
CUBE_2_2
 10
0.9735
 20
0.225
 30
-0.021
 70
192
 0
VERTEX
 8
CUBE_2_2
 10
0.9735
 20
0.225
 30
0.2248
 70
192
 0
VERTEX
 8
CUBE_2_2
 10
0.9985
 20
-0.2086
 30
0.2046
 70
192
 0
VERTEX
 8
CUBE_2_2
 10
0.9985
 20
-0.2086
 30
-0.0008
 70
192
 0
VERTEX
 8
CUBE_2_2
 10
0.9985
 20
0.2086
 30
0.2046
 70
192
 0
VERTEX
 8
CUBE_2_2
 10
0.9985
 20
0.2086
 30
-0.0008
 70
192
 0
VERTEX
 8
CUBE_2_2
 10
0.9735
 20
-0.2086
 30
0.2046
 70
192
 0
VERTEX
 8
CUBE_2_2
 10
0.9735
 20
-0.2086
 30
-0.0008
 70
192
 0
VERTEX
 8
CUBE_2_2
 10
0.9735
 20
0.2086
 30
0.2046
 70
192
 0
VERTEX
 8
CUBE_2_2
 10
0.9735
 20
0.2086
 30
-0.0008
 70
192
 0
VERTEX
 8
CUBE_2_2
 10
0
 20
0
 30
0
 70
128
 71
1
 72
2
 73
4
 74
3
 0
VERTEX
 8
CUBE_2_2
 10
0
 20
0
 30
0
 70
128
 71
12
 72
5
 73
3
 74
10
 0
VERTEX
 8
CUBE_2_2
 10
0
 20
0
 30
0
 70
128
 71
5
 72
12
 73
11
 74
6
 0
VERTEX
 8
CUBE_2_2
 10
0
 20
0
 30
0
 70
128
 71
4
 72
6
 73
11
 74
9
 0
VERTEX
 8
CUBE_2_2
 10
0
 20
0
 30
0
 70
128
 71
9
 72
10
 73
3
 74
4
 0
VERTEX
 8
CUBE_2_2
 10
0
 20
0
 30
0
 70
128
 71
5
 72
6
 73
8
 74
7
 0
VERTEX
 8
CUBE_2_2
 10
0
 20
0
 30
0
 70
128
 71
14
 72
1
 73
7
 74
16
 0
VERTEX
 8
CUBE_2_2
 10
0
 20
0
 30
0
 70
128
 71
2
 72
1
 73
14
 74
13
 0
VERTEX
 8
CUBE_2_2
 10
0
 20
0
 30
0
 70
128
 71
8
 72
2
 73
13
 74
15
 0
VERTEX
 8
CUBE_2_2
 10
0
 20
0
 30
0
 70
128
 71
15
 72
16
 73
7
 74
8
 0
VERTEX
 8
CUBE_2_2
 10
0
 20
0
 30
0
 70
128
 71
2
 72
8
 73
6
 74
4
 0
VERTEX
 8
CUBE_2_2
 10
0
 20
0
 30
0
 70
128
 71
7
 72
1
 73
3
 74
5
 0
SEQEND
 0
POLYLINE
 8
CUBE_1_2
 66
1
 10
0.0
 20
0.0
 30
0.0
 70
64
 71
8
 72
4
 0
VERTEX
 8
CUBE_1_2
 10
0.9985
 20
-0.2086
 30
0.2046
 70
192
 0
VERTEX
 8
CUBE_1_2
 10
0.9985
 20
-0.2086
 30
-0.0008
 70
192
 0
VERTEX
 8
CUBE_1_2
 10
0.9985
 20
0.2086
 30
0.2046
 70
192
 0
VERTEX
 8
CUBE_1_2
 10
0.9985
 20
0.2086
 30
-0.0008
 70
192
 0
VERTEX
 8
CUBE_1_2
 10
0.9735
 20
-0.2086
 30
0.2046
 70
192
 0
VERTEX
 8
CUBE_1_2
 10
0.9735
 20
-0.2086
 30
-0.0008
 70
192
 0
VERTEX
 8
CUBE_1_2
 10
0.9735
 20
0.2086
 30
0.2046
 70
192
 0
VERTEX
 8
CUBE_1_2
 10
0.9735
 20
0.2086
 30
-0.0008
 70
192
 0
VERTEX
 8
CUBE_1_2
 10
0
 20
0
 30
0
 70
128
 71
1
 72
5
 73
6
 74
2
 0
VERTEX
 8
CUBE_1_2
 10
0
 20
0
 30
0
 70
128
 71
4
 72
8
 73
7
 74
3
 0
VERTEX
 8
CUBE_1_2
 10
0
 20
0
 30
0
 70
128
 71
5
 72
1
 73
3
 74
7
 0
VERTEX
 8
CUBE_1_2
 10
0
 20
0
 30
0
 70
128
 71
2
 72
6
 73
8
 74
4
 0
SEQEND
 0
POLYLINE
 8
CUBE_2_3
 66
1
 10
0.0
 20
0.0
 30
0.0
 70
64
 71
12
 72
8
 0
VERTEX
 8
CUBE_2_3
 10
-0.996
 20
-0.0194
 30
-0.0214
 70
192
 0
VERTEX
 8
CUBE_2_3
 10
-0.996
 20
-0.0444
 30
-0.0214
 70
192
 0
VERTEX
 8
CUBE_2_3
 10
-0.2362
 20
-0.0444
 30
-0.0214
 70
192
 0
VERTEX
 8
CUBE_2_3
 10
-0.2362
 20
-0.0444
 30
0.2988
 70
192
 0
VERTEX
 8
CUBE_2_3
 10
-0.2362
 20
-0.0194
 30
-0.0214
 70
192
 0
VERTEX
 8
CUBE_2_3
 10
-0.2362
 20
-0.0194
 30
0.2988
 70
192
 0
VERTEX
 8
CUBE_2_3
 10
-0.996
 20
-0.0194
 30
-0.0023
 70
192
 0
VERTEX
 8
CUBE_2_3
 10
-0.996
 20
-0.0444
 30
-0.0023
 70
192
 0
VERTEX
 8
CUBE_2_3
 10
-0.2509
 20
-0.0444
 30
0.2988
 70
192
 0
VERTEX
 8
CUBE_2_3
 10
-0.2509
 20
-0.0194
 30
0.2988
 70
192
 0
VERTEX
 8
CUBE_2_3
 10
-0.2509
 20
-0.0444
 30
-0.0023
 70
192
 0
VERTEX
 8
CUBE_2_3
 10
-0.2509
 20
-0.0194
 30
-0.0023
 70
192
 0
VERTEX
 8
CUBE_2_3
 10
0
 20
0
 30
0
 70
128
 71
8
 72
2
 73
1
 74
7
 0
VERTEX
 8
CUBE_2_3
 10
0
 20
0
 30
0
 70
128
 71
11
 72
9
 73
4
 74
3
 0
VERTEX
 8
CUBE_2_3
 10
0
 20
0
 30
0
 70
128
 71
3
 72
2
 73
8
 74
11
 0
VERTEX
 8
CUBE_2_3
 10
0
 20
0
 30
0
 70
128
 71
3
 72
4
 73
6
 74
5
 0
VERTEX
 8
CUBE_2_3
 10
0
 20
0
 30
0
 70
128
 71
7
 72
1
 73
5
 74
12
 0
VERTEX
 8
CUBE_2_3
 10
0
 20
0
 30
0
 70
128
 71
5
 72
6
 73
10
 74
12
 0
VERTEX
 8
CUBE_2_3
 10
0
 20
0
 30
0
 70
128
 71
10
 72
6
 73
4
 74
9
 0
VERTEX
 8
CUBE_2_3
 10
0
 20
0
 30
0
 70
128
 71
5
 72
1
 73
2
 74
3
 0
SEQEND
 0
POLYLINE
 8
CUBE_1_3
 66
1
 10
0.0
 20
0.0
 30
0.0
 70
64
 71
6
 72
2
 0
VERTEX
 8
CUBE_1_3
 10
-0.2509
 20
-0.0194
 30
-0.0023
 70
192
 0
VERTEX
 8
CUBE_1_3
 10
-0.2509
 20
-0.0444
 30
-0.0023
 70
192
 0
VERTEX
 8
CUBE_1_3
 10
-0.2509
 20
-0.0444
 30
0.2988
 70
192
 0
VERTEX
 8
CUBE_1_3
 10
-0.996
 20
-0.0194
 30
-0.0023
 70
192
 0
VERTEX
 8
CUBE_1_3
 10
-0.996
 20
-0.0444
 30
-0.0023
 70
192
 0
VERTEX
 8
CUBE_1_3
 10
-0.2509
 20
-0.0194
 30
0.2988
 70
192
 0
VERTEX
 8
CUBE_1_3
 10
0
 20
0
 30
0
 70
128
 71
2
 72
1
 73
6
 74
3
 0
VERTEX
 8
CUBE_1_3
 10
0
 20
0
 30
0
 70
128
 71
2
 72
5
 73
4
 74
1
 0
SEQEND
 0
POLYLINE
 8
CUBE_2_4
 66
1
 10
0.0
 20
0.0
 30
0.0
 70
64
 71
12
 72
8
 0
VERTEX
 8
CUBE_2_4
 10
0.9923
 20
-0.0533
 30
-0.0214
 70
192
 0
VERTEX
 8
CUBE_2_4
 10
0.9923
 20
-0.0283
 30
-0.0214
 70
192
 0
VERTEX
 8
CUBE_2_4
 10
0.2326
 20
-0.0283
 30
-0.0214
 70
192
 0
VERTEX
 8
CUBE_2_4
 10
0.2326
 20
-0.0283
 30
0.2988
 70
192
 0
VERTEX
 8
CUBE_2_4
 10
0.2326
 20
-0.0533
 30
-0.0214
 70
192
 0
VERTEX
 8
CUBE_2_4
 10
0.2326
 20
-0.0533
 30
0.2988
 70
192
 0
VERTEX
 8
CUBE_2_4
 10
0.9923
 20
-0.0533
 30
-0.0023
 70
192
 0
VERTEX
 8
CUBE_2_4
 10
0.9923
 20
-0.0283
 30
-0.0023
 70
192
 0
VERTEX
 8
CUBE_2_4
 10
0.2472
 20
-0.0283
 30
0.2988
 70
192
 0
VERTEX
 8
CUBE_2_4
 10
0.2472
 20
-0.0533
 30
0.2988
 70
192
 0
VERTEX
 8
CUBE_2_4
 10
0.2472
 20
-0.0283
 30
-0.0023
 70
192
 0
VERTEX
 8
CUBE_2_4
 10
0.2472
 20
-0.0533
 30
-0.0023
 70
192
 0
VERTEX
 8
CUBE_2_4
 10
0
 20
0
 30
0
 70
128
 71
8
 72
2
 73
1
 74
7
 0
VERTEX
 8
CUBE_2_4
 10
0
 20
0
 30
0
 70
128
 71
11
 72
9
 73
4
 74
3
 0
VERTEX
 8
CUBE_2_4
 10
0
 20
0
 30
0
 70
128
 71
3
 72
2
 73
8
 74
11
 0
VERTEX
 8
CUBE_2_4
 10
0
 20
0
 30
0
 70
128
 71
3
 72
4
 73
6
 74
5
 0
VERTEX
 8
CUBE_2_4
 10
0
 20
0
 30
0
 70
128
 71
7
 72
1
 73
5
 74
12
 0
VERTEX
 8
CUBE_2_4
 10
0
 20
0
 30
0
 70
128
 71
5
 72
6
 73
10
 74
12
 0
VERTEX
 8
CUBE_2_4
 10
0
 20
0
 30
0
 70
128
 71
10
 72
6
 73
4
 74
9
 0
VERTEX
 8
CUBE_2_4
 10
0
 20
0
 30
0
 70
128
 71
5
 72
1
 73
2
 74
3
 0
SEQEND
 0
POLYLINE
 8
CUBE_1_4
 66
1
 10
0.0
 20
0.0
 30
0.0
 70
64
 71
6
 72
2
 0
VERTEX
 8
CUBE_1_4
 10
0.2472
 20
-0.0533
 30
-0.0023
 70
192
 0
VERTEX
 8
CUBE_1_4
 10
0.2472
 20
-0.0283
 30
-0.0023
 70
192
 0
VERTEX
 8
CUBE_1_4
 10
0.2472
 20
-0.0283
 30
0.2988
 70
192
 0
VERTEX
 8
CUBE_1_4
 10
0.9923
 20
-0.0533
 30
-0.0023
 70
192
 0
VERTEX
 8
CUBE_1_4
 10
0.9923
 20
-0.0283
 30
-0.0023
 70
192
 0
VERTEX
 8
CUBE_1_4
 10
0.2472
 20
-0.0533
 30
0.2988
 70
192
 0
VERTEX
 8
CUBE_1_4
 10
0
 20
0
 30
0
 70
128
 71
2
 72
1
 73
6
 74
3
 0
VERTEX
 8
CUBE_1_4
 10
0
 20
0
 30
0
 70
128
 71
2
 72
5
 73
4
 74
1
 0
SEQEND
 0
POLYLINE
 8
CUBE_2_5
 66
1
 10
0.0
 20
0.0
 30
0.0
 70
64
 71
16
 72
12
 0
VERTEX
 8
CUBE_2_5
 10
-1.0011
 20
-0.225
 30
-0.021
 70
192
 0
VERTEX
 8
CUBE_2_5
 10
-1.0011
 20
-0.225
 30
0.2248
 70
192
 0
VERTEX
 8
CUBE_2_5
 10
-0.9761
 20
-0.225
 30
-0.021
 70
192
 0
VERTEX
 8
CUBE_2_5
 10
-0.9761
 20
-0.225
 30
0.2248
 70
192
 0
VERTEX
 8
CUBE_2_5
 10
-0.9761
 20
0.225
 30
-0.021
 70
192
 0
VERTEX
 8
CUBE_2_5
 10
-0.9761
 20
0.225
 30
0.2248
 70
192
 0
VERTEX
 8
CUBE_2_5
 10
-1.0011
 20
0.225
 30
-0.021
 70
192
 0
VERTEX
 8
CUBE_2_5
 10
-1.0011
 20
0.225
 30
0.2248
 70
192
 0
VERTEX
 8
CUBE_2_5
 10
-0.9761
 20
-0.2086
 30
0.2046
 70
192
 0
VERTEX
 8
CUBE_2_5
 10
-0.9761
 20
-0.2086
 30
-0.0008
 70
192
 0
VERTEX
 8
CUBE_2_5
 10
-0.9761
 20
0.2086
 30
0.2046
 70
192
 0
VERTEX
 8
CUBE_2_5
 10
-0.9761
 20
0.2086
 30
-0.0008
 70
192
 0
VERTEX
 8
CUBE_2_5
 10
-1.0011
 20
-0.2086
 30
0.2046
 70
192
 0
VERTEX
 8
CUBE_2_5
 10
-1.0011
 20
-0.2086
 30
-0.0008
 70
192
 0
VERTEX
 8
CUBE_2_5
 10
-1.0011
 20
0.2086
 30
0.2046
 70
192
 0
VERTEX
 8
CUBE_2_5
 10
-1.0011
 20
0.2086
 30
-0.0008
 70
192
 0
VERTEX
 8
CUBE_2_5
 10
0
 20
0
 30
0
 70
128
 71
1
 72
2
 73
4
 74
3
 0
VERTEX
 8
CUBE_2_5
 10
0
 20
0
 30
0
 70
128
 71
12
 72
5
 73
3
 74
10
 0
VERTEX
 8
CUBE_2_5
 10
0
 20
0
 30
0
 70
128
 71
5
 72
12
 73
11
 74
6
 0
VERTEX
 8
CUBE_2_5
 10
0
 20
0
 30
0
 70
128
 71
4
 72
6
 73
11
 74
9
 0
VERTEX
 8
CUBE_2_5
 10
0
 20
0
 30
0
 70
128
 71
9
 72
10
 73
3
 74
4
 0
VERTEX
 8
CUBE_2_5
 10
0
 20
0
 30
0
 70
128
 71
5
 72
6
 73
8
 74
7
 0
VERTEX
 8
CUBE_2_5
 10
0
 20
0
 30
0
 70
128
 71
14
 72
1
 73
7
 74
16
 0
VERTEX
 8
CUBE_2_5
 10
0
 20
0
 30
0
 70
128
 71
2
 72
1
 73
14
 74
13
 0
VERTEX
 8
CUBE_2_5
 10
0
 20
0
 30
0
 70
128
 71
8
 72
2
 73
13
 74
15
 0
VERTEX
 8
CUBE_2_5
 10
0
 20
0
 30
0
 70
128
 71
15
 72
16
 73
7
 74
8
 0
VERTEX
 8
CUBE_2_5
 10
0
 20
0
 30
0
 70
128
 71
2
 72
8
 73
6
 74
4
 0
VERTEX
 8
CUBE_2_5
 10
0
 20
0
 30
0
 70
128
 71
7
 72
1
 73
3
 74
5
 0
SEQEND
 0
POLYLINE
 8
CUBE_1_5
 66
1
 10
0.0
 20
0.0
 30
0.0
 70
64
 71
8
 72
4
 0
VERTEX
 8
CUBE_1_5
 10
-0.9761
 20
-0.2086
 30
0.2046
 70
192
 0
VERTEX
 8
CUBE_1_5
 10
-0.9761
 20
-0.2086
 30
-0.0008
 70
192
 0
VERTEX
 8
CUBE_1_5
 10
-0.9761
 20
0.2086
 30
0.2046
 70
192
 0
VERTEX
 8
CUBE_1_5
 10
-0.9761
 20
0.2086
 30
-0.0008
 70
192
 0
VERTEX
 8
CUBE_1_5
 10
-1.0011
 20
-0.2086
 30
0.2046
 70
192
 0
VERTEX
 8
CUBE_1_5
 10
-1.0011
 20
-0.2086
 30
-0.0008
 70
192
 0
VERTEX
 8
CUBE_1_5
 10
-1.0011
 20
0.2086
 30
0.2046
 70
192
 0
VERTEX
 8
CUBE_1_5
 10
-1.0011
 20
0.2086
 30
-0.0008
 70
192
 0
VERTEX
 8
CUBE_1_5
 10
0
 20
0
 30
0
 70
128
 71
1
 72
5
 73
6
 74
2
 0
VERTEX
 8
CUBE_1_5
 10
0
 20
0
 30
0
 70
128
 71
4
 72
8
 73
7
 74
3
 0
VERTEX
 8
CUBE_1_5
 10
0
 20
0
 30
0
 70
128
 71
5
 72
1
 73
3
 74
7
 0
VERTEX
 8
CUBE_1_5
 10
0
 20
0
 30
0
 70
128
 71
2
 72
6
 73
8
 74
4
 0
SEQEND
 0
POLYLINE
 8
CUBE_1_6
 66
1
 10
0.0
 20
0.0
 30
0.0
 70
64
 71
16
 72
12
 0
VERTEX
 8
CUBE_1_6
 10
-1
 20
-0.225
 30
0.2062
 70
192
 0
VERTEX
 8
CUBE_1_6
 10
-1
 20
-0.225
 30
0.2312
 70
192
 0
VERTEX
 8
CUBE_1_6
 10
1
 20
-0.225
 30
0.2062
 70
192
 0
VERTEX
 8
CUBE_1_6
 10
1
 20
-0.225
 30
0.2312
 70
192
 0
VERTEX
 8
CUBE_1_6
 10
1
 20
0.225
 30
0.2062
 70
192
 0
VERTEX
 8
CUBE_1_6
 10
1
 20
0.225
 30
0.2312
 70
192
 0
VERTEX
 8
CUBE_1_6
 10
-1
 20
0.225
 30
0.2062
 70
192
 0
VERTEX
 8
CUBE_1_6
 10
-1
 20
0.225
 30
0.2312
 70
192
 0
VERTEX
 8
CUBE_1_6
 10
-0.962
 20
-0.2065
 30
0.2312
 70
192
 0
VERTEX
 8
CUBE_1_6
 10
0.962
 20
-0.2065
 30
0.2312
 70
192
 0
VERTEX
 8
CUBE_1_6
 10
0.962
 20
0.2065
 30
0.2312
 70
192
 0
VERTEX
 8
CUBE_1_6
 10
-0.962
 20
0.2065
 30
0.2312
 70
192
 0
VERTEX
 8
CUBE_1_6
 10
-0.962
 20
-0.2065
 30
0.2062
 70
192
 0
VERTEX
 8
CUBE_1_6
 10
0.962
 20
-0.2065
 30
0.2062
 70
192
 0
VERTEX
 8
CUBE_1_6
 10
0.962
 20
0.2065
 30
0.2062
 70
192
 0
VERTEX
 8
CUBE_1_6
 10
-0.962
 20
0.2065
 30
0.2062
 70
192
 0
VERTEX
 8
CUBE_1_6
 10
0
 20
0
 30
0
 70
128
 71
1
 72
2
 73
4
 74
3
 0
VERTEX
 8
CUBE_1_6
 10
0
 20
0
 30
0
 70
128
 71
3
 72
4
 73
6
 74
5
 0
VERTEX
 8
CUBE_1_6
 10
0
 20
0
 30
0
 70
128
 71
5
 72
6
 73
8
 74
7
 0
VERTEX
 8
CUBE_1_6
 10
0
 20
0
 30
0
 70
128
 71
7
 72
8
 73
2
 74
1
 0
VERTEX
 8
CUBE_1_6
 10
0
 20
0
 30
0
 70
128
 71
6
 72
4
 73
10
 74
11
 0
VERTEX
 8
CUBE_1_6
 10
0
 20
0
 30
0
 70
128
 71
9
 72
10
 73
4
 74
2
 0
VERTEX
 8
CUBE_1_6
 10
0
 20
0
 30
0
 70
128
 71
12
 72
9
 73
2
 74
8
 0
VERTEX
 8
CUBE_1_6
 10
0
 20
0
 30
0
 70
128
 71
6
 72
11
 73
12
 74
8
 0
VERTEX
 8
CUBE_1_6
 10
0
 20
0
 30
0
 70
128
 71
7
 72
1
 73
13
 74
16
 0
VERTEX
 8
CUBE_1_6
 10
0
 20
0
 30
0
 70
128
 71
14
 72
13
 73
1
 74
3
 0
VERTEX
 8
CUBE_1_6
 10
0
 20
0
 30
0
 70
128
 71
15
 72
14
 73
3
 74
5
 0
VERTEX
 8
CUBE_1_6
 10
0
 20
0
 30
0
 70
128
 71
7
 72
16
 73
15
 74
5
 0
SEQEND
 0
POLYLINE
 8
CUBE_3_1
 66
1
 10
0.0
 20
0.0
 30
0.0
 70
64
 71
8
 72
4
 0
VERTEX
 8
CUBE_3_1
 10
-0.962
 20
-0.2065
 30
0.2312
 70
192
 0
VERTEX
 8
CUBE_3_1
 10
0.962
 20
-0.2065
 30
0.2312
 70
192
 0
VERTEX
 8
CUBE_3_1
 10
0.962
 20
0.2065
 30
0.2312
 70
192
 0
VERTEX
 8
CUBE_3_1
 10
-0.962
 20
0.2065
 30
0.2312
 70
192
 0
VERTEX
 8
CUBE_3_1
 10
-0.962
 20
-0.2065
 30
0.2062
 70
192
 0
VERTEX
 8
CUBE_3_1
 10
0.962
 20
-0.2065
 30
0.2062
 70
192
 0
VERTEX
 8
CUBE_3_1
 10
0.962
 20
0.2065
 30
0.2062
 70
192
 0
VERTEX
 8
CUBE_3_1
 10
-0.962
 20
0.2065
 30
0.2062
 70
192
 0
VERTEX
 8
CUBE_3_1
 10
0
 20
0
 30
0
 70
128
 71
1
 72
5
 73
6
 74
2
 0
VERTEX
 8
CUBE_3_1
 10
0
 20
0
 30
0
 70
128
 71
2
 72
6
 73
7
 74
3
 0
VERTEX
 8
CUBE_3_1
 10
0
 20
0
 30
0
 70
128
 71
8
 72
4
 73
3
 74
7
 0
VERTEX
 8
CUBE_3_1
 10
0
 20
0
 30
0
 70
128
 71
4
 72
8
 73
5
 74
1
 0
SEQEND
 0
ENDSEC
 0
EOF
