 0
SECTION
 2
HEADER
 9
$ACADVER
 1
AC1009
 0
ENDSEC
 0
SECTION
 2
TABLES
 0
TABLE
 2
LTYPE
 70
1
 0
LTYPE
 2
CONTINUOUS
 70
64
 3
solid line
 72
65
 73
0
 40
0.0
 0
ENDTAB
 0
TABLE
 2
LAYER
 70
6
 0
LAYER
 2
0
 70
0
 62
7
 6
CONTINUOUS
 0
LAYER
 2
CUBE_10
 70
64
 62
27
 6
CONTINUOUS
 0
LAYER
 2
CUBE_9
 70
64
 62
27
 6
CONTINUOUS
 0
LAYER
 2
CUBE_8
 70
64
 62
251
 6
CONTINUOUS
 0
LAYER
 2
CUBE_7
 70
64
 62
27
 6
CONTINUOUS
 0
LAYER
 2
CUBE_5
 70
64
 62
27
 6
CONTINUOUS
 0
LAYER
 2
CUBE_4
 70
64
 62
27
 6
CONTINUOUS
 0
LAYER
 2
CUBE_3
 70
64
 62
250
 6
CONTINUOUS
 0
LAYER
 2
CUBE_2
 70
64
 62
250
 6
CONTINUOUS
 0
LAYER
 2
CUBE_1
 70
64
 62
251
 6
CONTINUOUS
 0
LAYER
 2
CUBE
 70
64
 62
251
 6
CONTINUOUS
 0
ENDTAB
 0
ENDSEC
 0
SECTION
 2
BLOCKS
 0
ENDSEC
 0
SECTION
 2
ENTITIES
 0
POLYLINE
 8
CUBE_10
 66
1
 10
0.0
 20
0.0
 30
0.0
 70
64
 71
8
 72
6
 0
VERTEX
 8
CUBE_10
 10
0.2976
 20
0.1851
 30
0.0053
 70
192
 0
VERTEX
 8
CUBE_10
 10
0.2976
 20
0.1851
 30
0.1772
 70
192
 0
VERTEX
 8
CUBE_10
 10
0.3376
 20
0.1851
 30
0.0053
 70
192
 0
VERTEX
 8
CUBE_10
 10
0.3376
 20
0.1851
 30
0.1772
 70
192
 0
VERTEX
 8
CUBE_10
 10
0.3376
 20
0.2251
 30
0.0053
 70
192
 0
VERTEX
 8
CUBE_10
 10
0.3376
 20
0.2251
 30
0.1772
 70
192
 0
VERTEX
 8
CUBE_10
 10
0.2976
 20
0.2251
 30
0.0053
 70
192
 0
VERTEX
 8
CUBE_10
 10
0.2976
 20
0.2251
 30
0.1772
 70
192
 0
VERTEX
 8
CUBE_10
 10
0
 20
0
 30
0
 70
128
 71
1
 72
2
 73
4
 74
3
 0
VERTEX
 8
CUBE_10
 10
0
 20
0
 30
0
 70
128
 71
3
 72
4
 73
6
 74
5
 0
VERTEX
 8
CUBE_10
 10
0
 20
0
 30
0
 70
128
 71
5
 72
6
 73
8
 74
7
 0
VERTEX
 8
CUBE_10
 10
0
 20
0
 30
0
 70
128
 71
7
 72
8
 73
2
 74
1
 0
VERTEX
 8
CUBE_10
 10
0
 20
0
 30
0
 70
128
 71
2
 72
8
 73
6
 74
4
 0
VERTEX
 8
CUBE_10
 10
0
 20
0
 30
0
 70
128
 71
7
 72
1
 73
3
 74
5
 0
SEQEND
 0
POLYLINE
 8
CUBE_9
 66
1
 10
0.0
 20
0.0
 30
0.0
 70
64
 71
8
 72
6
 0
VERTEX
 8
CUBE_9
 10
-0.3253
 20
0.1851
 30
0.0053
 70
192
 0
VERTEX
 8
CUBE_9
 10
-0.3253
 20
0.1851
 30
0.1772
 70
192
 0
VERTEX
 8
CUBE_9
 10
-0.2853
 20
0.1851
 30
0.0053
 70
192
 0
VERTEX
 8
CUBE_9
 10
-0.2853
 20
0.1851
 30
0.1772
 70
192
 0
VERTEX
 8
CUBE_9
 10
-0.2853
 20
0.2251
 30
0.0053
 70
192
 0
VERTEX
 8
CUBE_9
 10
-0.2853
 20
0.2251
 30
0.1772
 70
192
 0
VERTEX
 8
CUBE_9
 10
-0.3253
 20
0.2251
 30
0.0053
 70
192
 0
VERTEX
 8
CUBE_9
 10
-0.3253
 20
0.2251
 30
0.1772
 70
192
 0
VERTEX
 8
CUBE_9
 10
0
 20
0
 30
0
 70
128
 71
1
 72
2
 73
4
 74
3
 0
VERTEX
 8
CUBE_9
 10
0
 20
0
 30
0
 70
128
 71
3
 72
4
 73
6
 74
5
 0
VERTEX
 8
CUBE_9
 10
0
 20
0
 30
0
 70
128
 71
5
 72
6
 73
8
 74
7
 0
VERTEX
 8
CUBE_9
 10
0
 20
0
 30
0
 70
128
 71
7
 72
8
 73
2
 74
1
 0
VERTEX
 8
CUBE_9
 10
0
 20
0
 30
0
 70
128
 71
2
 72
8
 73
6
 74
4
 0
VERTEX
 8
CUBE_9
 10
0
 20
0
 30
0
 70
128
 71
7
 72
1
 73
3
 74
5
 0
SEQEND
 0
POLYLINE
 8
CUBE_8
 66
1
 10
0.0
 20
0.0
 30
0.0
 70
64
 71
8
 72
6
 0
VERTEX
 8
CUBE_8
 10
-0.3253
 20
-0.2243
 30
0.0053
 70
192
 0
VERTEX
 8
CUBE_8
 10
-0.3253
 20
-0.2243
 30
0.1772
 70
192
 0
VERTEX
 8
CUBE_8
 10
-0.2853
 20
-0.2243
 30
0.0053
 70
192
 0
VERTEX
 8
CUBE_8
 10
-0.2853
 20
-0.2243
 30
0.1772
 70
192
 0
VERTEX
 8
CUBE_8
 10
-0.2853
 20
-0.1843
 30
0.0053
 70
192
 0
VERTEX
 8
CUBE_8
 10
-0.2853
 20
-0.1843
 30
0.1772
 70
192
 0
VERTEX
 8
CUBE_8
 10
-0.3253
 20
-0.1843
 30
0.0053
 70
192
 0
VERTEX
 8
CUBE_8
 10
-0.3253
 20
-0.1843
 30
0.1772
 70
192
 0
VERTEX
 8
CUBE_8
 10
0
 20
0
 30
0
 70
128
 71
1
 72
2
 73
4
 74
3
 0
VERTEX
 8
CUBE_8
 10
0
 20
0
 30
0
 70
128
 71
3
 72
4
 73
6
 74
5
 0
VERTEX
 8
CUBE_8
 10
0
 20
0
 30
0
 70
128
 71
5
 72
6
 73
8
 74
7
 0
VERTEX
 8
CUBE_8
 10
0
 20
0
 30
0
 70
128
 71
7
 72
8
 73
2
 74
1
 0
VERTEX
 8
CUBE_8
 10
0
 20
0
 30
0
 70
128
 71
2
 72
8
 73
6
 74
4
 0
VERTEX
 8
CUBE_8
 10
0
 20
0
 30
0
 70
128
 71
7
 72
1
 73
3
 74
5
 0
SEQEND
 0
POLYLINE
 8
CUBE_7
 66
1
 10
0.0
 20
0.0
 30
0.0
 70
64
 71
8
 72
6
 0
VERTEX
 8
CUBE_7
 10
0.2976
 20
-0.2243
 30
0.0053
 70
192
 0
VERTEX
 8
CUBE_7
 10
0.2976
 20
-0.2243
 30
0.1772
 70
192
 0
VERTEX
 8
CUBE_7
 10
0.3376
 20
-0.2243
 30
0.0053
 70
192
 0
VERTEX
 8
CUBE_7
 10
0.3376
 20
-0.2243
 30
0.1772
 70
192
 0
VERTEX
 8
CUBE_7
 10
0.3376
 20
-0.1843
 30
0.0053
 70
192
 0
VERTEX
 8
CUBE_7
 10
0.3376
 20
-0.1843
 30
0.1772
 70
192
 0
VERTEX
 8
CUBE_7
 10
0.2976
 20
-0.1843
 30
0.0053
 70
192
 0
VERTEX
 8
CUBE_7
 10
0.2976
 20
-0.1843
 30
0.1772
 70
192
 0
VERTEX
 8
CUBE_7
 10
0
 20
0
 30
0
 70
128
 71
1
 72
2
 73
4
 74
3
 0
VERTEX
 8
CUBE_7
 10
0
 20
0
 30
0
 70
128
 71
3
 72
4
 73
6
 74
5
 0
VERTEX
 8
CUBE_7
 10
0
 20
0
 30
0
 70
128
 71
5
 72
6
 73
8
 74
7
 0
VERTEX
 8
CUBE_7
 10
0
 20
0
 30
0
 70
128
 71
7
 72
8
 73
2
 74
1
 0
VERTEX
 8
CUBE_7
 10
0
 20
0
 30
0
 70
128
 71
2
 72
8
 73
6
 74
4
 0
VERTEX
 8
CUBE_7
 10
0
 20
0
 30
0
 70
128
 71
7
 72
1
 73
3
 74
5
 0
SEQEND
 0
POLYLINE
 8
CUBE_5
 66
1
 10
0.0
 20
0.0
 30
0.0
 70
64
 71
8
 72
6
 0
VERTEX
 8
CUBE_5
 10
-0.2829
 20
-0.2233
 30
0.1931
 70
192
 0
VERTEX
 8
CUBE_5
 10
-0.2829
 20
-0.2233
 30
2.0692
 70
192
 0
VERTEX
 8
CUBE_5
 10
0.294
 20
-0.2233
 30
0.1931
 70
192
 0
VERTEX
 8
CUBE_5
 10
0.294
 20
-0.2233
 30
2.0692
 70
192
 0
VERTEX
 8
CUBE_5
 10
0.294
 20
-0.2033
 30
0.1931
 70
192
 0
VERTEX
 8
CUBE_5
 10
0.294
 20
-0.2033
 30
2.0692
 70
192
 0
VERTEX
 8
CUBE_5
 10
-0.2829
 20
-0.2033
 30
0.1931
 70
192
 0
VERTEX
 8
CUBE_5
 10
-0.2829
 20
-0.2033
 30
2.0692
 70
192
 0
VERTEX
 8
CUBE_5
 10
0
 20
0
 30
0
 70
128
 71
1
 72
2
 73
4
 74
3
 0
VERTEX
 8
CUBE_5
 10
0
 20
0
 30
0
 70
128
 71
3
 72
4
 73
6
 74
5
 0
VERTEX
 8
CUBE_5
 10
0
 20
0
 30
0
 70
128
 71
5
 72
6
 73
8
 74
7
 0
VERTEX
 8
CUBE_5
 10
0
 20
0
 30
0
 70
128
 71
7
 72
8
 73
2
 74
1
 0
VERTEX
 8
CUBE_5
 10
0
 20
0
 30
0
 70
128
 71
2
 72
8
 73
6
 74
4
 0
VERTEX
 8
CUBE_5
 10
0
 20
0
 30
0
 70
128
 71
7
 72
1
 73
3
 74
5
 0
SEQEND
 0
POLYLINE
 8
CUBE_4
 66
1
 10
0.0
 20
0.0
 30
0.0
 70
64
 71
8
 72
6
 0
VERTEX
 8
CUBE_4
 10
-0.3285
 20
0.1967
 30
0.1481
 70
192
 0
VERTEX
 8
CUBE_4
 10
-0.3285
 20
0.1967
 30
2.1141
 70
192
 0
VERTEX
 8
CUBE_4
 10
0.337
 20
0.1967
 30
0.1481
 70
192
 0
VERTEX
 8
CUBE_4
 10
0.337
 20
0.1967
 30
2.1141
 70
192
 0
VERTEX
 8
CUBE_4
 10
0.337
 20
0.2267
 30
0.1481
 70
192
 0
VERTEX
 8
CUBE_4
 10
0.337
 20
0.2267
 30
2.1141
 70
192
 0
VERTEX
 8
CUBE_4
 10
-0.3285
 20
0.2267
 30
0.1481
 70
192
 0
VERTEX
 8
CUBE_4
 10
-0.3285
 20
0.2267
 30
2.1141
 70
192
 0
VERTEX
 8
CUBE_4
 10
0
 20
0
 30
0
 70
128
 71
1
 72
2
 73
4
 74
3
 0
VERTEX
 8
CUBE_4
 10
0
 20
0
 30
0
 70
128
 71
3
 72
4
 73
6
 74
5
 0
VERTEX
 8
CUBE_4
 10
0
 20
0
 30
0
 70
128
 71
5
 72
6
 73
8
 74
7
 0
VERTEX
 8
CUBE_4
 10
0
 20
0
 30
0
 70
128
 71
7
 72
8
 73
2
 74
1
 0
VERTEX
 8
CUBE_4
 10
0
 20
0
 30
0
 70
128
 71
2
 72
8
 73
6
 74
4
 0
VERTEX
 8
CUBE_4
 10
0
 20
0
 30
0
 70
128
 71
7
 72
1
 73
3
 74
5
 0
SEQEND
 0
POLYLINE
 8
CUBE_3
 66
1
 10
0.0
 20
0.0
 30
0.0
 70
64
 71
8
 72
6
 0
VERTEX
 8
CUBE_3
 10
-0.2843
 20
-0.225
 30
0.15
 70
192
 0
VERTEX
 8
CUBE_3
 10
-0.2843
 20
-0.225
 30
0.19
 70
192
 0
VERTEX
 8
CUBE_3
 10
0.2948
 20
-0.225
 30
0.15
 70
192
 0
VERTEX
 8
CUBE_3
 10
0.2948
 20
-0.225
 30
0.19
 70
192
 0
VERTEX
 8
CUBE_3
 10
0.2948
 20
0.225
 30
0.15
 70
192
 0
VERTEX
 8
CUBE_3
 10
0.2948
 20
0.225
 30
0.19
 70
192
 0
VERTEX
 8
CUBE_3
 10
-0.2843
 20
0.225
 30
0.15
 70
192
 0
VERTEX
 8
CUBE_3
 10
-0.2843
 20
0.225
 30
0.19
 70
192
 0
VERTEX
 8
CUBE_3
 10
0
 20
0
 30
0
 70
128
 71
1
 72
2
 73
4
 74
3
 0
VERTEX
 8
CUBE_3
 10
0
 20
0
 30
0
 70
128
 71
3
 72
4
 73
6
 74
5
 0
VERTEX
 8
CUBE_3
 10
0
 20
0
 30
0
 70
128
 71
5
 72
6
 73
8
 74
7
 0
VERTEX
 8
CUBE_3
 10
0
 20
0
 30
0
 70
128
 71
7
 72
8
 73
2
 74
1
 0
VERTEX
 8
CUBE_3
 10
0
 20
0
 30
0
 70
128
 71
2
 72
8
 73
6
 74
4
 0
VERTEX
 8
CUBE_3
 10
0
 20
0
 30
0
 70
128
 71
7
 72
1
 73
3
 74
5
 0
SEQEND
 0
POLYLINE
 8
CUBE_2
 66
1
 10
0.0
 20
0.0
 30
0.0
 70
64
 71
8
 72
6
 0
VERTEX
 8
CUBE_2
 10
-0.3241
 20
-0.225
 30
2.0721
 70
192
 0
VERTEX
 8
CUBE_2
 10
-0.3241
 20
-0.225
 30
2.1121
 70
192
 0
VERTEX
 8
CUBE_2
 10
0.3346
 20
-0.225
 30
2.0721
 70
192
 0
VERTEX
 8
CUBE_2
 10
0.3346
 20
-0.225
 30
2.1121
 70
192
 0
VERTEX
 8
CUBE_2
 10
0.3346
 20
0.225
 30
2.0721
 70
192
 0
VERTEX
 8
CUBE_2
 10
0.3346
 20
0.225
 30
2.1121
 70
192
 0
VERTEX
 8
CUBE_2
 10
-0.3241
 20
0.225
 30
2.0721
 70
192
 0
VERTEX
 8
CUBE_2
 10
-0.3241
 20
0.225
 30
2.1121
 70
192
 0
VERTEX
 8
CUBE_2
 10
0
 20
0
 30
0
 70
128
 71
1
 72
2
 73
4
 74
3
 0
VERTEX
 8
CUBE_2
 10
0
 20
0
 30
0
 70
128
 71
3
 72
4
 73
6
 74
5
 0
VERTEX
 8
CUBE_2
 10
0
 20
0
 30
0
 70
128
 71
5
 72
6
 73
8
 74
7
 0
VERTEX
 8
CUBE_2
 10
0
 20
0
 30
0
 70
128
 71
7
 72
8
 73
2
 74
1
 0
VERTEX
 8
CUBE_2
 10
0
 20
0
 30
0
 70
128
 71
2
 72
8
 73
6
 74
4
 0
VERTEX
 8
CUBE_2
 10
0
 20
0
 30
0
 70
128
 71
7
 72
1
 73
3
 74
5
 0
SEQEND
 0
POLYLINE
 8
CUBE_1
 66
1
 10
0.0
 20
0.0
 30
0.0
 70
64
 71
8
 72
6
 0
VERTEX
 8
CUBE_1
 10
0.2962
 20
-0.225
 30
0.1481
 70
192
 0
VERTEX
 8
CUBE_1
 10
0.2962
 20
-0.225
 30
2.1141
 70
192
 0
VERTEX
 8
CUBE_1
 10
0.3362
 20
-0.225
 30
0.1481
 70
192
 0
VERTEX
 8
CUBE_1
 10
0.3362
 20
-0.225
 30
2.1141
 70
192
 0
VERTEX
 8
CUBE_1
 10
0.3362
 20
0.225
 30
0.1481
 70
192
 0
VERTEX
 8
CUBE_1
 10
0.3362
 20
0.225
 30
2.1141
 70
192
 0
VERTEX
 8
CUBE_1
 10
0.2962
 20
0.225
 30
0.1481
 70
192
 0
VERTEX
 8
CUBE_1
 10
0.2962
 20
0.225
 30
2.1141
 70
192
 0
VERTEX
 8
CUBE_1
 10
0
 20
0
 30
0
 70
128
 71
1
 72
2
 73
4
 74
3
 0
VERTEX
 8
CUBE_1
 10
0
 20
0
 30
0
 70
128
 71
3
 72
4
 73
6
 74
5
 0
VERTEX
 8
CUBE_1
 10
0
 20
0
 30
0
 70
128
 71
5
 72
6
 73
8
 74
7
 0
VERTEX
 8
CUBE_1
 10
0
 20
0
 30
0
 70
128
 71
7
 72
8
 73
2
 74
1
 0
VERTEX
 8
CUBE_1
 10
0
 20
0
 30
0
 70
128
 71
2
 72
8
 73
6
 74
4
 0
VERTEX
 8
CUBE_1
 10
0
 20
0
 30
0
 70
128
 71
7
 72
1
 73
3
 74
5
 0
SEQEND
 0
POLYLINE
 8
CUBE
 66
1
 10
0.0
 20
0.0
 30
0.0
 70
64
 71
8
 72
6
 0
VERTEX
 8
CUBE
 10
-0.3259
 20
-0.225
 30
0.1481
 70
192
 0
VERTEX
 8
CUBE
 10
-0.3259
 20
-0.225
 30
2.1141
 70
192
 0
VERTEX
 8
CUBE
 10
-0.2859
 20
-0.225
 30
0.1481
 70
192
 0
VERTEX
 8
CUBE
 10
-0.2859
 20
-0.225
 30
2.1141
 70
192
 0
VERTEX
 8
CUBE
 10
-0.2859
 20
0.225
 30
0.1481
 70
192
 0
VERTEX
 8
CUBE
 10
-0.2859
 20
0.225
 30
2.1141
 70
192
 0
VERTEX
 8
CUBE
 10
-0.3259
 20
0.225
 30
0.1481
 70
192
 0
VERTEX
 8
CUBE
 10
-0.3259
 20
0.225
 30
2.1141
 70
192
 0
VERTEX
 8
CUBE
 10
0
 20
0
 30
0
 70
128
 71
1
 72
2
 73
4
 74
3
 0
VERTEX
 8
CUBE
 10
0
 20
0
 30
0
 70
128
 71
3
 72
4
 73
6
 74
5
 0
VERTEX
 8
CUBE
 10
0
 20
0
 30
0
 70
128
 71
5
 72
6
 73
8
 74
7
 0
VERTEX
 8
CUBE
 10
0
 20
0
 30
0
 70
128
 71
7
 72
8
 73
2
 74
1
 0
VERTEX
 8
CUBE
 10
0
 20
0
 30
0
 70
128
 71
2
 72
8
 73
6
 74
4
 0
VERTEX
 8
CUBE
 10
0
 20
0
 30
0
 70
128
 71
7
 72
1
 73
3
 74
5
 0
SEQEND
 0
ENDSEC
 0
EOF
