 0
SECTION
 2
HEADER
 9
$ACADVER
 1
AC1009
 0
ENDSEC
 0
SECTION
 2
TABLES
 0
TABLE
 2
LTYPE
 70
1
 0
LTYPE
 2
CONTINUOUS
 70
64
 3
solid line
 72
65
 73
0
 40
0.0
 0
ENDTAB
 0
TABLE
 2
LAYER
 70
6
 0
LAYER
 2
0
 70
0
 62
7
 6
CONTINUOUS
 0
LAYER
 2
EXTRUDE_11
 70
64
 62
43
 6
CONTINUOUS
 0
LAYER
 2
TAPA_1
 70
64
 62
43
 6
CONTINUOUS
 0
LAYER
 2
TAPA_2
 70
64
 62
43
 6
CONTINUOUS
 0
LAYER
 2
EXTRUDE_10
 70
64
 62
43
 6
CONTINUOUS
 0
LAYER
 2
TAPA_1_1
 70
64
 62
43
 6
CONTINUOUS
 0
LAYER
 2
TAPA_2_1
 70
64
 62
43
 6
CONTINUOUS
 0
LAYER
 2
EXTRUDE_9
 70
64
 62
43
 6
CONTINUOUS
 0
LAYER
 2
TAPA_1_2
 70
64
 62
43
 6
CONTINUOUS
 0
LAYER
 2
TAPA_2_2
 70
64
 62
43
 6
CONTINUOUS
 0
LAYER
 2
EXTRUDE_8
 70
64
 62
43
 6
CONTINUOUS
 0
LAYER
 2
TAPA_1_3
 70
64
 62
43
 6
CONTINUOUS
 0
LAYER
 2
TAPA_2_3
 70
64
 62
43
 6
CONTINUOUS
 0
LAYER
 2
EXTRUDE_7
 70
64
 62
43
 6
CONTINUOUS
 0
LAYER
 2
TAPA_1_4
 70
64
 62
43
 6
CONTINUOUS
 0
LAYER
 2
TAPA_2_4
 70
64
 62
43
 6
CONTINUOUS
 0
LAYER
 2
EXTRUDE_6
 70
64
 62
43
 6
CONTINUOUS
 0
LAYER
 2
TAPA_1_5
 70
64
 62
43
 6
CONTINUOUS
 0
LAYER
 2
TAPA_2_5
 70
64
 62
43
 6
CONTINUOUS
 0
LAYER
 2
EXTRUDE_5
 70
64
 62
43
 6
CONTINUOUS
 0
LAYER
 2
TAPA_1_6
 70
64
 62
43
 6
CONTINUOUS
 0
LAYER
 2
TAPA_2_6
 70
64
 62
43
 6
CONTINUOUS
 0
LAYER
 2
EXTRUDE_4
 70
64
 62
43
 6
CONTINUOUS
 0
LAYER
 2
TAPA_1_7
 70
64
 62
43
 6
CONTINUOUS
 0
LAYER
 2
TAPA_2_7
 70
64
 62
43
 6
CONTINUOUS
 0
LAYER
 2
EXTRUDE_3
 70
64
 62
43
 6
CONTINUOUS
 0
LAYER
 2
TAPA_1_8
 70
64
 62
43
 6
CONTINUOUS
 0
LAYER
 2
TAPA_2_8
 70
64
 62
43
 6
CONTINUOUS
 0
LAYER
 2
EXTRUDE_2
 70
64
 62
43
 6
CONTINUOUS
 0
LAYER
 2
CAP_1
 70
64
 62
43
 6
CONTINUOUS
 0
LAYER
 2
CAP_2
 70
64
 62
43
 6
CONTINUOUS
 0
LAYER
 2
EXTRUDE_1
 70
64
 62
43
 6
CONTINUOUS
 0
LAYER
 2
TAPA_1_9
 70
64
 62
43
 6
CONTINUOUS
 0
LAYER
 2
TAPA_2_9
 70
64
 62
43
 6
CONTINUOUS
 0
LAYER
 2
EXTRUDE
 70
64
 62
43
 6
CONTINUOUS
 0
LAYER
 2
TAPA_1_10
 70
64
 62
43
 6
CONTINUOUS
 0
LAYER
 2
TAPA_2_10
 70
64
 62
43
 6
CONTINUOUS
 0
LAYER
 2
CUBE
 70
64
 62
27
 6
CONTINUOUS
 0
ENDTAB
 0
ENDSEC
 0
SECTION
 2
BLOCKS
 0
ENDSEC
 0
SECTION
 2
ENTITIES
 0
POLYLINE
 8
EXTRUDE_11
 66
1
 10
0.0
 20
0.0
 30
0.0
 70
64
 71
8
 72
4
 0
VERTEX
 8
EXTRUDE_11
 10
0.6183
 20
-0.1358
 30
0.6248
 70
192
 0
VERTEX
 8
EXTRUDE_11
 10
0.6183
 20
-0.1955
 30
0.6781
 70
192
 0
VERTEX
 8
EXTRUDE_11
 10
0.6183
 20
0.1937
 30
0.6751
 70
192
 0
VERTEX
 8
EXTRUDE_11
 10
0.6183
 20
0.1354
 30
0.6239
 70
192
 0
VERTEX
 8
EXTRUDE_11
 10
0.5583
 20
-0.1358
 30
0.6248
 70
192
 0
VERTEX
 8
EXTRUDE_11
 10
0.5583
 20
-0.1955
 30
0.6781
 70
192
 0
VERTEX
 8
EXTRUDE_11
 10
0.5583
 20
0.1937
 30
0.6751
 70
192
 0
VERTEX
 8
EXTRUDE_11
 10
0.5583
 20
0.1354
 30
0.6239
 70
192
 0
VERTEX
 8
EXTRUDE_11
 10
0
 20
0
 30
0
 70
128
 71
1
 72
5
 73
6
 74
2
 0
VERTEX
 8
EXTRUDE_11
 10
0
 20
0
 30
0
 70
128
 71
2
 72
6
 73
7
 74
3
 0
VERTEX
 8
EXTRUDE_11
 10
0
 20
0
 30
0
 70
128
 71
3
 72
7
 73
8
 74
4
 0
VERTEX
 8
EXTRUDE_11
 10
0
 20
0
 30
0
 70
128
 71
4
 72
8
 73
5
 74
1
 0
SEQEND
 0
POLYLINE
 8
TAPA_1
 66
1
 10
0.0
 20
0.0
 30
0.0
 70
64
 71
4
 72
1
 0
VERTEX
 8
TAPA_1
 10
0.6183
 20
-0.1358
 30
0.6248
 70
192
 0
VERTEX
 8
TAPA_1
 10
0.6183
 20
-0.1955
 30
0.6781
 70
192
 0
VERTEX
 8
TAPA_1
 10
0.6183
 20
0.1937
 30
0.6751
 70
192
 0
VERTEX
 8
TAPA_1
 10
0.6183
 20
0.1354
 30
0.6239
 70
192
 0
VERTEX
 8
TAPA_1
 10
0
 20
0
 30
0
 70
128
 71
3
 72
4
 73
1
 74
2
 0
SEQEND
 0
POLYLINE
 8
TAPA_2
 66
1
 10
0.0
 20
0.0
 30
0.0
 70
64
 71
4
 72
1
 0
VERTEX
 8
TAPA_2
 10
0.5583
 20
-0.1358
 30
0.6248
 70
192
 0
VERTEX
 8
TAPA_2
 10
0.5583
 20
-0.1955
 30
0.6781
 70
192
 0
VERTEX
 8
TAPA_2
 10
0.5583
 20
0.1937
 30
0.6751
 70
192
 0
VERTEX
 8
TAPA_2
 10
0.5583
 20
0.1354
 30
0.6239
 70
192
 0
VERTEX
 8
TAPA_2
 10
0
 20
0
 30
0
 70
128
 71
1
 72
4
 73
3
 74
2
 0
SEQEND
 0
POLYLINE
 8
EXTRUDE_10
 66
1
 10
0.0
 20
0.0
 30
0.0
 70
64
 71
8
 72
4
 0
VERTEX
 8
EXTRUDE_10
 10
0.6183
 20
-0.1358
 30
0.0845
 70
192
 0
VERTEX
 8
EXTRUDE_10
 10
0.6183
 20
-0.1955
 30
0.0312
 70
192
 0
VERTEX
 8
EXTRUDE_10
 10
0.6183
 20
0.1937
 30
0.0342
 70
192
 0
VERTEX
 8
EXTRUDE_10
 10
0.6183
 20
0.1354
 30
0.0855
 70
192
 0
VERTEX
 8
EXTRUDE_10
 10
0.5583
 20
-0.1358
 30
0.0845
 70
192
 0
VERTEX
 8
EXTRUDE_10
 10
0.5583
 20
-0.1955
 30
0.0312
 70
192
 0
VERTEX
 8
EXTRUDE_10
 10
0.5583
 20
0.1937
 30
0.0342
 70
192
 0
VERTEX
 8
EXTRUDE_10
 10
0.5583
 20
0.1354
 30
0.0855
 70
192
 0
VERTEX
 8
EXTRUDE_10
 10
0
 20
0
 30
0
 70
128
 71
1
 72
2
 73
6
 74
5
 0
VERTEX
 8
EXTRUDE_10
 10
0
 20
0
 30
0
 70
128
 71
2
 72
3
 73
7
 74
6
 0
VERTEX
 8
EXTRUDE_10
 10
0
 20
0
 30
0
 70
128
 71
3
 72
4
 73
8
 74
7
 0
VERTEX
 8
EXTRUDE_10
 10
0
 20
0
 30
0
 70
128
 71
4
 72
1
 73
5
 74
8
 0
SEQEND
 0
POLYLINE
 8
TAPA_1_1
 66
1
 10
0.0
 20
0.0
 30
0.0
 70
64
 71
4
 72
1
 0
VERTEX
 8
TAPA_1_1
 10
0.6183
 20
-0.1358
 30
0.0845
 70
192
 0
VERTEX
 8
TAPA_1_1
 10
0.6183
 20
-0.1955
 30
0.0312
 70
192
 0
VERTEX
 8
TAPA_1_1
 10
0.6183
 20
0.1937
 30
0.0342
 70
192
 0
VERTEX
 8
TAPA_1_1
 10
0.6183
 20
0.1354
 30
0.0855
 70
192
 0
VERTEX
 8
TAPA_1_1
 10
0
 20
0
 30
0
 70
128
 71
1
 72
4
 73
3
 74
2
 0
SEQEND
 0
POLYLINE
 8
TAPA_2_1
 66
1
 10
0.0
 20
0.0
 30
0.0
 70
64
 71
4
 72
1
 0
VERTEX
 8
TAPA_2_1
 10
0.5583
 20
-0.1358
 30
0.0845
 70
192
 0
VERTEX
 8
TAPA_2_1
 10
0.5583
 20
-0.1955
 30
0.0312
 70
192
 0
VERTEX
 8
TAPA_2_1
 10
0.5583
 20
0.1937
 30
0.0342
 70
192
 0
VERTEX
 8
TAPA_2_1
 10
0.5583
 20
0.1354
 30
0.0855
 70
192
 0
VERTEX
 8
TAPA_2_1
 10
0
 20
0
 30
0
 70
128
 71
3
 72
4
 73
1
 74
2
 0
SEQEND
 0
POLYLINE
 8
EXTRUDE_9
 66
1
 10
0.0
 20
0.0
 30
0.0
 70
64
 71
24
 72
12
 0
VERTEX
 8
EXTRUDE_9
 10
0.5595
 20
0.193
 30
0.6743
 70
192
 0
VERTEX
 8
EXTRUDE_9
 10
0.5595
 20
0.1352
 30
0.624
 70
192
 0
VERTEX
 8
EXTRUDE_9
 10
0.5595
 20
0.1355
 30
0.0855
 70
192
 0
VERTEX
 8
EXTRUDE_9
 10
0.5595
 20
0.186
 30
0.0399
 70
192
 0
VERTEX
 8
EXTRUDE_9
 10
0.5595
 20
0.1913
 30
0.036
 70
192
 0
VERTEX
 8
EXTRUDE_9
 10
0.5595
 20
0.1928
 30
0.0351
 70
192
 0
VERTEX
 8
EXTRUDE_9
 10
0.5595
 20
0.1934
 30
0.0348
 70
192
 0
VERTEX
 8
EXTRUDE_9
 10
0.5595
 20
0.1939
 30
0.0347
 70
192
 0
VERTEX
 8
EXTRUDE_9
 10
0.5595
 20
0.1943
 30
0.0346
 70
192
 0
VERTEX
 8
EXTRUDE_9
 10
0.5595
 20
0.1946
 30
0.0347
 70
192
 0
VERTEX
 8
EXTRUDE_9
 10
0.5595
 20
0.1947
 30
0.0357
 70
192
 0
VERTEX
 8
EXTRUDE_9
 10
0.5595
 20
0.195
 30
0.3556
 70
192
 0
VERTEX
 8
EXTRUDE_9
 10
0.6195
 20
0.193
 30
0.6743
 70
192
 0
VERTEX
 8
EXTRUDE_9
 10
0.6195
 20
0.1352
 30
0.624
 70
192
 0
VERTEX
 8
EXTRUDE_9
 10
0.6195
 20
0.1355
 30
0.0855
 70
192
 0
VERTEX
 8
EXTRUDE_9
 10
0.6195
 20
0.186
 30
0.0399
 70
192
 0
VERTEX
 8
EXTRUDE_9
 10
0.6195
 20
0.1913
 30
0.036
 70
192
 0
VERTEX
 8
EXTRUDE_9
 10
0.6195
 20
0.1928
 30
0.0351
 70
192
 0
VERTEX
 8
EXTRUDE_9
 10
0.6195
 20
0.1934
 30
0.0348
 70
192
 0
VERTEX
 8
EXTRUDE_9
 10
0.6195
 20
0.1939
 30
0.0347
 70
192
 0
VERTEX
 8
EXTRUDE_9
 10
0.6195
 20
0.1943
 30
0.0346
 70
192
 0
VERTEX
 8
EXTRUDE_9
 10
0.6195
 20
0.1946
 30
0.0347
 70
192
 0
VERTEX
 8
EXTRUDE_9
 10
0.6195
 20
0.1947
 30
0.0357
 70
192
 0
VERTEX
 8
EXTRUDE_9
 10
0.6195
 20
0.195
 30
0.3556
 70
192
 0
VERTEX
 8
EXTRUDE_9
 10
0
 20
0
 30
0
 70
128
 71
1
 72
13
 73
14
 74
2
 0
VERTEX
 8
EXTRUDE_9
 10
0
 20
0
 30
0
 70
128
 71
2
 72
14
 73
15
 74
3
 0
VERTEX
 8
EXTRUDE_9
 10
0
 20
0
 30
0
 70
128
 71
3
 72
15
 73
16
 74
4
 0
VERTEX
 8
EXTRUDE_9
 10
0
 20
0
 30
0
 70
128
 71
4
 72
16
 73
17
 74
5
 0
VERTEX
 8
EXTRUDE_9
 10
0
 20
0
 30
0
 70
128
 71
5
 72
17
 73
18
 74
6
 0
VERTEX
 8
EXTRUDE_9
 10
0
 20
0
 30
0
 70
128
 71
6
 72
18
 73
19
 74
7
 0
VERTEX
 8
EXTRUDE_9
 10
0
 20
0
 30
0
 70
128
 71
7
 72
19
 73
20
 74
8
 0
VERTEX
 8
EXTRUDE_9
 10
0
 20
0
 30
0
 70
128
 71
8
 72
20
 73
21
 74
9
 0
VERTEX
 8
EXTRUDE_9
 10
0
 20
0
 30
0
 70
128
 71
9
 72
21
 73
22
 74
10
 0
VERTEX
 8
EXTRUDE_9
 10
0
 20
0
 30
0
 70
128
 71
10
 72
22
 73
23
 74
11
 0
VERTEX
 8
EXTRUDE_9
 10
0
 20
0
 30
0
 70
128
 71
11
 72
23
 73
24
 74
12
 0
VERTEX
 8
EXTRUDE_9
 10
0
 20
0
 30
0
 70
128
 71
12
 72
24
 73
13
 74
1
 0
SEQEND
 0
POLYLINE
 8
TAPA_1_2
 66
1
 10
0.0
 20
0.0
 30
0.0
 70
64
 71
12
 72
6
 0
VERTEX
 8
TAPA_1_2
 10
0.5595
 20
0.193
 30
0.6743
 70
192
 0
VERTEX
 8
TAPA_1_2
 10
0.5595
 20
0.1352
 30
0.624
 70
192
 0
VERTEX
 8
TAPA_1_2
 10
0.5595
 20
0.1355
 30
0.0855
 70
192
 0
VERTEX
 8
TAPA_1_2
 10
0.5595
 20
0.186
 30
0.0399
 70
192
 0
VERTEX
 8
TAPA_1_2
 10
0.5595
 20
0.1913
 30
0.036
 70
192
 0
VERTEX
 8
TAPA_1_2
 10
0.5595
 20
0.1928
 30
0.0351
 70
192
 0
VERTEX
 8
TAPA_1_2
 10
0.5595
 20
0.1934
 30
0.0348
 70
192
 0
VERTEX
 8
TAPA_1_2
 10
0.5595
 20
0.1939
 30
0.0347
 70
192
 0
VERTEX
 8
TAPA_1_2
 10
0.5595
 20
0.1943
 30
0.0346
 70
192
 0
VERTEX
 8
TAPA_1_2
 10
0.5595
 20
0.1946
 30
0.0347
 70
192
 0
VERTEX
 8
TAPA_1_2
 10
0.5595
 20
0.1947
 30
0.0357
 70
192
 0
VERTEX
 8
TAPA_1_2
 10
0.5595
 20
0.195
 30
0.3556
 70
192
 0
VERTEX
 8
TAPA_1_2
 10
0
 20
0
 30
0
 70
128
 71
1
 72
2
 73
12
 74
12
 0
VERTEX
 8
TAPA_1_2
 10
0
 20
0
 30
0
 70
128
 71
12
 72
2
 73
3
 74
11
 0
VERTEX
 8
TAPA_1_2
 10
0
 20
0
 30
0
 70
128
 71
11
 72
3
 73
4
 74
5
 0
VERTEX
 8
TAPA_1_2
 10
0
 20
0
 30
0
 70
128
 71
11
 72
5
 73
6
 74
7
 0
VERTEX
 8
TAPA_1_2
 10
0
 20
0
 30
0
 70
128
 71
11
 72
7
 73
8
 74
9
 0
VERTEX
 8
TAPA_1_2
 10
0
 20
0
 30
0
 70
128
 71
9
 72
10
 73
11
 74
11
 0
SEQEND
 0
POLYLINE
 8
TAPA_2_2
 66
1
 10
0.0
 20
0.0
 30
0.0
 70
64
 71
12
 72
6
 0
VERTEX
 8
TAPA_2_2
 10
0.6195
 20
0.193
 30
0.6743
 70
192
 0
VERTEX
 8
TAPA_2_2
 10
0.6195
 20
0.1352
 30
0.624
 70
192
 0
VERTEX
 8
TAPA_2_2
 10
0.6195
 20
0.1355
 30
0.0855
 70
192
 0
VERTEX
 8
TAPA_2_2
 10
0.6195
 20
0.186
 30
0.0399
 70
192
 0
VERTEX
 8
TAPA_2_2
 10
0.6195
 20
0.1913
 30
0.036
 70
192
 0
VERTEX
 8
TAPA_2_2
 10
0.6195
 20
0.1928
 30
0.0351
 70
192
 0
VERTEX
 8
TAPA_2_2
 10
0.6195
 20
0.1934
 30
0.0348
 70
192
 0
VERTEX
 8
TAPA_2_2
 10
0.6195
 20
0.1939
 30
0.0347
 70
192
 0
VERTEX
 8
TAPA_2_2
 10
0.6195
 20
0.1943
 30
0.0346
 70
192
 0
VERTEX
 8
TAPA_2_2
 10
0.6195
 20
0.1946
 30
0.0347
 70
192
 0
VERTEX
 8
TAPA_2_2
 10
0.6195
 20
0.1947
 30
0.0357
 70
192
 0
VERTEX
 8
TAPA_2_2
 10
0.6195
 20
0.195
 30
0.3556
 70
192
 0
VERTEX
 8
TAPA_2_2
 10
0
 20
0
 30
0
 70
128
 71
12
 72
11
 73
3
 74
2
 0
VERTEX
 8
TAPA_2_2
 10
0
 20
0
 30
0
 70
128
 71
12
 72
2
 73
1
 74
1
 0
VERTEX
 8
TAPA_2_2
 10
0
 20
0
 30
0
 70
128
 71
11
 72
10
 73
9
 74
9
 0
VERTEX
 8
TAPA_2_2
 10
0
 20
0
 30
0
 70
128
 71
11
 72
9
 73
8
 74
7
 0
VERTEX
 8
TAPA_2_2
 10
0
 20
0
 30
0
 70
128
 71
11
 72
7
 73
6
 74
5
 0
VERTEX
 8
TAPA_2_2
 10
0
 20
0
 30
0
 70
128
 71
11
 72
5
 73
4
 74
3
 0
SEQEND
 0
POLYLINE
 8
EXTRUDE_8
 66
1
 10
0.0
 20
0.0
 30
0.0
 70
64
 71
24
 72
12
 0
VERTEX
 8
EXTRUDE_8
 10
0.5595
 20
-0.1902
 30
0.6743
 70
192
 0
VERTEX
 8
EXTRUDE_8
 10
0.5595
 20
-0.1324
 30
0.624
 70
192
 0
VERTEX
 8
EXTRUDE_8
 10
0.5595
 20
-0.1327
 30
0.0855
 70
192
 0
VERTEX
 8
EXTRUDE_8
 10
0.5595
 20
-0.1832
 30
0.0399
 70
192
 0
VERTEX
 8
EXTRUDE_8
 10
0.5595
 20
-0.1885
 30
0.036
 70
192
 0
VERTEX
 8
EXTRUDE_8
 10
0.5595
 20
-0.19
 30
0.0351
 70
192
 0
VERTEX
 8
EXTRUDE_8
 10
0.5595
 20
-0.1906
 30
0.0348
 70
192
 0
VERTEX
 8
EXTRUDE_8
 10
0.5595
 20
-0.1911
 30
0.0347
 70
192
 0
VERTEX
 8
EXTRUDE_8
 10
0.5595
 20
-0.1915
 30
0.0346
 70
192
 0
VERTEX
 8
EXTRUDE_8
 10
0.5595
 20
-0.1917
 30
0.0347
 70
192
 0
VERTEX
 8
EXTRUDE_8
 10
0.5595
 20
-0.1919
 30
0.0357
 70
192
 0
VERTEX
 8
EXTRUDE_8
 10
0.5595
 20
-0.1921
 30
0.3556
 70
192
 0
VERTEX
 8
EXTRUDE_8
 10
0.6195
 20
-0.1902
 30
0.6743
 70
192
 0
VERTEX
 8
EXTRUDE_8
 10
0.6195
 20
-0.1324
 30
0.624
 70
192
 0
VERTEX
 8
EXTRUDE_8
 10
0.6195
 20
-0.1327
 30
0.0855
 70
192
 0
VERTEX
 8
EXTRUDE_8
 10
0.6195
 20
-0.1832
 30
0.0399
 70
192
 0
VERTEX
 8
EXTRUDE_8
 10
0.6195
 20
-0.1885
 30
0.036
 70
192
 0
VERTEX
 8
EXTRUDE_8
 10
0.6195
 20
-0.19
 30
0.0351
 70
192
 0
VERTEX
 8
EXTRUDE_8
 10
0.6195
 20
-0.1906
 30
0.0348
 70
192
 0
VERTEX
 8
EXTRUDE_8
 10
0.6195
 20
-0.1911
 30
0.0347
 70
192
 0
VERTEX
 8
EXTRUDE_8
 10
0.6195
 20
-0.1915
 30
0.0346
 70
192
 0
VERTEX
 8
EXTRUDE_8
 10
0.6195
 20
-0.1917
 30
0.0347
 70
192
 0
VERTEX
 8
EXTRUDE_8
 10
0.6195
 20
-0.1919
 30
0.0357
 70
192
 0
VERTEX
 8
EXTRUDE_8
 10
0.6195
 20
-0.1921
 30
0.3556
 70
192
 0
VERTEX
 8
EXTRUDE_8
 10
0
 20
0
 30
0
 70
128
 71
1
 72
2
 73
14
 74
13
 0
VERTEX
 8
EXTRUDE_8
 10
0
 20
0
 30
0
 70
128
 71
2
 72
3
 73
15
 74
14
 0
VERTEX
 8
EXTRUDE_8
 10
0
 20
0
 30
0
 70
128
 71
3
 72
4
 73
16
 74
15
 0
VERTEX
 8
EXTRUDE_8
 10
0
 20
0
 30
0
 70
128
 71
4
 72
5
 73
17
 74
16
 0
VERTEX
 8
EXTRUDE_8
 10
0
 20
0
 30
0
 70
128
 71
5
 72
6
 73
18
 74
17
 0
VERTEX
 8
EXTRUDE_8
 10
0
 20
0
 30
0
 70
128
 71
6
 72
7
 73
19
 74
18
 0
VERTEX
 8
EXTRUDE_8
 10
0
 20
0
 30
0
 70
128
 71
7
 72
8
 73
20
 74
19
 0
VERTEX
 8
EXTRUDE_8
 10
0
 20
0
 30
0
 70
128
 71
8
 72
9
 73
21
 74
20
 0
VERTEX
 8
EXTRUDE_8
 10
0
 20
0
 30
0
 70
128
 71
9
 72
10
 73
22
 74
21
 0
VERTEX
 8
EXTRUDE_8
 10
0
 20
0
 30
0
 70
128
 71
10
 72
11
 73
23
 74
22
 0
VERTEX
 8
EXTRUDE_8
 10
0
 20
0
 30
0
 70
128
 71
11
 72
12
 73
24
 74
23
 0
VERTEX
 8
EXTRUDE_8
 10
0
 20
0
 30
0
 70
128
 71
12
 72
1
 73
13
 74
24
 0
SEQEND
 0
POLYLINE
 8
TAPA_1_3
 66
1
 10
0.0
 20
0.0
 30
0.0
 70
64
 71
12
 72
6
 0
VERTEX
 8
TAPA_1_3
 10
0.5595
 20
-0.1902
 30
0.6743
 70
192
 0
VERTEX
 8
TAPA_1_3
 10
0.5595
 20
-0.1324
 30
0.624
 70
192
 0
VERTEX
 8
TAPA_1_3
 10
0.5595
 20
-0.1327
 30
0.0855
 70
192
 0
VERTEX
 8
TAPA_1_3
 10
0.5595
 20
-0.1832
 30
0.0399
 70
192
 0
VERTEX
 8
TAPA_1_3
 10
0.5595
 20
-0.1885
 30
0.036
 70
192
 0
VERTEX
 8
TAPA_1_3
 10
0.5595
 20
-0.19
 30
0.0351
 70
192
 0
VERTEX
 8
TAPA_1_3
 10
0.5595
 20
-0.1906
 30
0.0348
 70
192
 0
VERTEX
 8
TAPA_1_3
 10
0.5595
 20
-0.1911
 30
0.0347
 70
192
 0
VERTEX
 8
TAPA_1_3
 10
0.5595
 20
-0.1915
 30
0.0346
 70
192
 0
VERTEX
 8
TAPA_1_3
 10
0.5595
 20
-0.1917
 30
0.0347
 70
192
 0
VERTEX
 8
TAPA_1_3
 10
0.5595
 20
-0.1919
 30
0.0357
 70
192
 0
VERTEX
 8
TAPA_1_3
 10
0.5595
 20
-0.1921
 30
0.3556
 70
192
 0
VERTEX
 8
TAPA_1_3
 10
0
 20
0
 30
0
 70
128
 71
12
 72
11
 73
3
 74
2
 0
VERTEX
 8
TAPA_1_3
 10
0
 20
0
 30
0
 70
128
 71
12
 72
2
 73
1
 74
1
 0
VERTEX
 8
TAPA_1_3
 10
0
 20
0
 30
0
 70
128
 71
11
 72
10
 73
9
 74
9
 0
VERTEX
 8
TAPA_1_3
 10
0
 20
0
 30
0
 70
128
 71
11
 72
9
 73
8
 74
7
 0
VERTEX
 8
TAPA_1_3
 10
0
 20
0
 30
0
 70
128
 71
11
 72
7
 73
6
 74
5
 0
VERTEX
 8
TAPA_1_3
 10
0
 20
0
 30
0
 70
128
 71
11
 72
5
 73
4
 74
3
 0
SEQEND
 0
POLYLINE
 8
TAPA_2_3
 66
1
 10
0.0
 20
0.0
 30
0.0
 70
64
 71
12
 72
6
 0
VERTEX
 8
TAPA_2_3
 10
0.6195
 20
-0.1902
 30
0.6743
 70
192
 0
VERTEX
 8
TAPA_2_3
 10
0.6195
 20
-0.1324
 30
0.624
 70
192
 0
VERTEX
 8
TAPA_2_3
 10
0.6195
 20
-0.1327
 30
0.0855
 70
192
 0
VERTEX
 8
TAPA_2_3
 10
0.6195
 20
-0.1832
 30
0.0399
 70
192
 0
VERTEX
 8
TAPA_2_3
 10
0.6195
 20
-0.1885
 30
0.036
 70
192
 0
VERTEX
 8
TAPA_2_3
 10
0.6195
 20
-0.19
 30
0.0351
 70
192
 0
VERTEX
 8
TAPA_2_3
 10
0.6195
 20
-0.1906
 30
0.0348
 70
192
 0
VERTEX
 8
TAPA_2_3
 10
0.6195
 20
-0.1911
 30
0.0347
 70
192
 0
VERTEX
 8
TAPA_2_3
 10
0.6195
 20
-0.1915
 30
0.0346
 70
192
 0
VERTEX
 8
TAPA_2_3
 10
0.6195
 20
-0.1917
 30
0.0347
 70
192
 0
VERTEX
 8
TAPA_2_3
 10
0.6195
 20
-0.1919
 30
0.0357
 70
192
 0
VERTEX
 8
TAPA_2_3
 10
0.6195
 20
-0.1921
 30
0.3556
 70
192
 0
VERTEX
 8
TAPA_2_3
 10
0
 20
0
 30
0
 70
128
 71
1
 72
2
 73
12
 74
12
 0
VERTEX
 8
TAPA_2_3
 10
0
 20
0
 30
0
 70
128
 71
12
 72
2
 73
3
 74
11
 0
VERTEX
 8
TAPA_2_3
 10
0
 20
0
 30
0
 70
128
 71
11
 72
3
 73
4
 74
5
 0
VERTEX
 8
TAPA_2_3
 10
0
 20
0
 30
0
 70
128
 71
11
 72
5
 73
6
 74
7
 0
VERTEX
 8
TAPA_2_3
 10
0
 20
0
 30
0
 70
128
 71
11
 72
7
 73
8
 74
9
 0
VERTEX
 8
TAPA_2_3
 10
0
 20
0
 30
0
 70
128
 71
9
 72
10
 73
11
 74
11
 0
SEQEND
 0
POLYLINE
 8
EXTRUDE_7
 66
1
 10
0.0
 20
0.0
 30
0.0
 70
64
 71
24
 72
12
 0
VERTEX
 8
EXTRUDE_7
 10
-0.6613
 20
-0.1902
 30
0.6743
 70
192
 0
VERTEX
 8
EXTRUDE_7
 10
-0.6613
 20
-0.1324
 30
0.624
 70
192
 0
VERTEX
 8
EXTRUDE_7
 10
-0.6613
 20
-0.1327
 30
0.0855
 70
192
 0
VERTEX
 8
EXTRUDE_7
 10
-0.6613
 20
-0.1832
 30
0.0399
 70
192
 0
VERTEX
 8
EXTRUDE_7
 10
-0.6613
 20
-0.1885
 30
0.036
 70
192
 0
VERTEX
 8
EXTRUDE_7
 10
-0.6613
 20
-0.19
 30
0.0351
 70
192
 0
VERTEX
 8
EXTRUDE_7
 10
-0.6613
 20
-0.1906
 30
0.0348
 70
192
 0
VERTEX
 8
EXTRUDE_7
 10
-0.6613
 20
-0.1911
 30
0.0347
 70
192
 0
VERTEX
 8
EXTRUDE_7
 10
-0.6613
 20
-0.1915
 30
0.0346
 70
192
 0
VERTEX
 8
EXTRUDE_7
 10
-0.6613
 20
-0.1917
 30
0.0347
 70
192
 0
VERTEX
 8
EXTRUDE_7
 10
-0.6613
 20
-0.1919
 30
0.0357
 70
192
 0
VERTEX
 8
EXTRUDE_7
 10
-0.6613
 20
-0.1921
 30
0.3556
 70
192
 0
VERTEX
 8
EXTRUDE_7
 10
-0.6013
 20
-0.1902
 30
0.6743
 70
192
 0
VERTEX
 8
EXTRUDE_7
 10
-0.6013
 20
-0.1324
 30
0.624
 70
192
 0
VERTEX
 8
EXTRUDE_7
 10
-0.6013
 20
-0.1327
 30
0.0855
 70
192
 0
VERTEX
 8
EXTRUDE_7
 10
-0.6013
 20
-0.1832
 30
0.0399
 70
192
 0
VERTEX
 8
EXTRUDE_7
 10
-0.6013
 20
-0.1885
 30
0.036
 70
192
 0
VERTEX
 8
EXTRUDE_7
 10
-0.6013
 20
-0.19
 30
0.0351
 70
192
 0
VERTEX
 8
EXTRUDE_7
 10
-0.6013
 20
-0.1906
 30
0.0348
 70
192
 0
VERTEX
 8
EXTRUDE_7
 10
-0.6013
 20
-0.1911
 30
0.0347
 70
192
 0
VERTEX
 8
EXTRUDE_7
 10
-0.6013
 20
-0.1915
 30
0.0346
 70
192
 0
VERTEX
 8
EXTRUDE_7
 10
-0.6013
 20
-0.1917
 30
0.0347
 70
192
 0
VERTEX
 8
EXTRUDE_7
 10
-0.6013
 20
-0.1919
 30
0.0357
 70
192
 0
VERTEX
 8
EXTRUDE_7
 10
-0.6013
 20
-0.1921
 30
0.3556
 70
192
 0
VERTEX
 8
EXTRUDE_7
 10
0
 20
0
 30
0
 70
128
 71
1
 72
2
 73
14
 74
13
 0
VERTEX
 8
EXTRUDE_7
 10
0
 20
0
 30
0
 70
128
 71
2
 72
3
 73
15
 74
14
 0
VERTEX
 8
EXTRUDE_7
 10
0
 20
0
 30
0
 70
128
 71
3
 72
4
 73
16
 74
15
 0
VERTEX
 8
EXTRUDE_7
 10
0
 20
0
 30
0
 70
128
 71
4
 72
5
 73
17
 74
16
 0
VERTEX
 8
EXTRUDE_7
 10
0
 20
0
 30
0
 70
128
 71
5
 72
6
 73
18
 74
17
 0
VERTEX
 8
EXTRUDE_7
 10
0
 20
0
 30
0
 70
128
 71
6
 72
7
 73
19
 74
18
 0
VERTEX
 8
EXTRUDE_7
 10
0
 20
0
 30
0
 70
128
 71
7
 72
8
 73
20
 74
19
 0
VERTEX
 8
EXTRUDE_7
 10
0
 20
0
 30
0
 70
128
 71
8
 72
9
 73
21
 74
20
 0
VERTEX
 8
EXTRUDE_7
 10
0
 20
0
 30
0
 70
128
 71
9
 72
10
 73
22
 74
21
 0
VERTEX
 8
EXTRUDE_7
 10
0
 20
0
 30
0
 70
128
 71
10
 72
11
 73
23
 74
22
 0
VERTEX
 8
EXTRUDE_7
 10
0
 20
0
 30
0
 70
128
 71
11
 72
12
 73
24
 74
23
 0
VERTEX
 8
EXTRUDE_7
 10
0
 20
0
 30
0
 70
128
 71
12
 72
1
 73
13
 74
24
 0
SEQEND
 0
POLYLINE
 8
TAPA_1_4
 66
1
 10
0.0
 20
0.0
 30
0.0
 70
64
 71
12
 72
6
 0
VERTEX
 8
TAPA_1_4
 10
-0.6613
 20
-0.1902
 30
0.6743
 70
192
 0
VERTEX
 8
TAPA_1_4
 10
-0.6613
 20
-0.1324
 30
0.624
 70
192
 0
VERTEX
 8
TAPA_1_4
 10
-0.6613
 20
-0.1327
 30
0.0855
 70
192
 0
VERTEX
 8
TAPA_1_4
 10
-0.6613
 20
-0.1832
 30
0.0399
 70
192
 0
VERTEX
 8
TAPA_1_4
 10
-0.6613
 20
-0.1885
 30
0.036
 70
192
 0
VERTEX
 8
TAPA_1_4
 10
-0.6613
 20
-0.19
 30
0.0351
 70
192
 0
VERTEX
 8
TAPA_1_4
 10
-0.6613
 20
-0.1906
 30
0.0348
 70
192
 0
VERTEX
 8
TAPA_1_4
 10
-0.6613
 20
-0.1911
 30
0.0347
 70
192
 0
VERTEX
 8
TAPA_1_4
 10
-0.6613
 20
-0.1915
 30
0.0346
 70
192
 0
VERTEX
 8
TAPA_1_4
 10
-0.6613
 20
-0.1917
 30
0.0347
 70
192
 0
VERTEX
 8
TAPA_1_4
 10
-0.6613
 20
-0.1919
 30
0.0357
 70
192
 0
VERTEX
 8
TAPA_1_4
 10
-0.6613
 20
-0.1921
 30
0.3556
 70
192
 0
VERTEX
 8
TAPA_1_4
 10
0
 20
0
 30
0
 70
128
 71
12
 72
11
 73
3
 74
2
 0
VERTEX
 8
TAPA_1_4
 10
0
 20
0
 30
0
 70
128
 71
12
 72
2
 73
1
 74
1
 0
VERTEX
 8
TAPA_1_4
 10
0
 20
0
 30
0
 70
128
 71
11
 72
10
 73
9
 74
9
 0
VERTEX
 8
TAPA_1_4
 10
0
 20
0
 30
0
 70
128
 71
11
 72
9
 73
8
 74
7
 0
VERTEX
 8
TAPA_1_4
 10
0
 20
0
 30
0
 70
128
 71
11
 72
7
 73
6
 74
5
 0
VERTEX
 8
TAPA_1_4
 10
0
 20
0
 30
0
 70
128
 71
11
 72
5
 73
4
 74
3
 0
SEQEND
 0
POLYLINE
 8
TAPA_2_4
 66
1
 10
0.0
 20
0.0
 30
0.0
 70
64
 71
12
 72
6
 0
VERTEX
 8
TAPA_2_4
 10
-0.6013
 20
-0.1902
 30
0.6743
 70
192
 0
VERTEX
 8
TAPA_2_4
 10
-0.6013
 20
-0.1324
 30
0.624
 70
192
 0
VERTEX
 8
TAPA_2_4
 10
-0.6013
 20
-0.1327
 30
0.0855
 70
192
 0
VERTEX
 8
TAPA_2_4
 10
-0.6013
 20
-0.1832
 30
0.0399
 70
192
 0
VERTEX
 8
TAPA_2_4
 10
-0.6013
 20
-0.1885
 30
0.036
 70
192
 0
VERTEX
 8
TAPA_2_4
 10
-0.6013
 20
-0.19
 30
0.0351
 70
192
 0
VERTEX
 8
TAPA_2_4
 10
-0.6013
 20
-0.1906
 30
0.0348
 70
192
 0
VERTEX
 8
TAPA_2_4
 10
-0.6013
 20
-0.1911
 30
0.0347
 70
192
 0
VERTEX
 8
TAPA_2_4
 10
-0.6013
 20
-0.1915
 30
0.0346
 70
192
 0
VERTEX
 8
TAPA_2_4
 10
-0.6013
 20
-0.1917
 30
0.0347
 70
192
 0
VERTEX
 8
TAPA_2_4
 10
-0.6013
 20
-0.1919
 30
0.0357
 70
192
 0
VERTEX
 8
TAPA_2_4
 10
-0.6013
 20
-0.1921
 30
0.3556
 70
192
 0
VERTEX
 8
TAPA_2_4
 10
0
 20
0
 30
0
 70
128
 71
1
 72
2
 73
12
 74
12
 0
VERTEX
 8
TAPA_2_4
 10
0
 20
0
 30
0
 70
128
 71
12
 72
2
 73
3
 74
11
 0
VERTEX
 8
TAPA_2_4
 10
0
 20
0
 30
0
 70
128
 71
11
 72
3
 73
4
 74
5
 0
VERTEX
 8
TAPA_2_4
 10
0
 20
0
 30
0
 70
128
 71
11
 72
5
 73
6
 74
7
 0
VERTEX
 8
TAPA_2_4
 10
0
 20
0
 30
0
 70
128
 71
11
 72
7
 73
8
 74
9
 0
VERTEX
 8
TAPA_2_4
 10
0
 20
0
 30
0
 70
128
 71
9
 72
10
 73
11
 74
11
 0
SEQEND
 0
POLYLINE
 8
EXTRUDE_6
 66
1
 10
0.0
 20
0.0
 30
0.0
 70
64
 71
24
 72
12
 0
VERTEX
 8
EXTRUDE_6
 10
-0.6613
 20
0.193
 30
0.6743
 70
192
 0
VERTEX
 8
EXTRUDE_6
 10
-0.6613
 20
0.1352
 30
0.624
 70
192
 0
VERTEX
 8
EXTRUDE_6
 10
-0.6613
 20
0.1355
 30
0.0855
 70
192
 0
VERTEX
 8
EXTRUDE_6
 10
-0.6613
 20
0.186
 30
0.0399
 70
192
 0
VERTEX
 8
EXTRUDE_6
 10
-0.6613
 20
0.1913
 30
0.036
 70
192
 0
VERTEX
 8
EXTRUDE_6
 10
-0.6613
 20
0.1928
 30
0.0351
 70
192
 0
VERTEX
 8
EXTRUDE_6
 10
-0.6613
 20
0.1934
 30
0.0348
 70
192
 0
VERTEX
 8
EXTRUDE_6
 10
-0.6613
 20
0.1939
 30
0.0347
 70
192
 0
VERTEX
 8
EXTRUDE_6
 10
-0.6613
 20
0.1943
 30
0.0346
 70
192
 0
VERTEX
 8
EXTRUDE_6
 10
-0.6613
 20
0.1946
 30
0.0347
 70
192
 0
VERTEX
 8
EXTRUDE_6
 10
-0.6613
 20
0.1947
 30
0.0357
 70
192
 0
VERTEX
 8
EXTRUDE_6
 10
-0.6613
 20
0.195
 30
0.3556
 70
192
 0
VERTEX
 8
EXTRUDE_6
 10
-0.6013
 20
0.193
 30
0.6743
 70
192
 0
VERTEX
 8
EXTRUDE_6
 10
-0.6013
 20
0.1352
 30
0.624
 70
192
 0
VERTEX
 8
EXTRUDE_6
 10
-0.6013
 20
0.1355
 30
0.0855
 70
192
 0
VERTEX
 8
EXTRUDE_6
 10
-0.6013
 20
0.186
 30
0.0399
 70
192
 0
VERTEX
 8
EXTRUDE_6
 10
-0.6013
 20
0.1913
 30
0.036
 70
192
 0
VERTEX
 8
EXTRUDE_6
 10
-0.6013
 20
0.1928
 30
0.0351
 70
192
 0
VERTEX
 8
EXTRUDE_6
 10
-0.6013
 20
0.1934
 30
0.0348
 70
192
 0
VERTEX
 8
EXTRUDE_6
 10
-0.6013
 20
0.1939
 30
0.0347
 70
192
 0
VERTEX
 8
EXTRUDE_6
 10
-0.6013
 20
0.1943
 30
0.0346
 70
192
 0
VERTEX
 8
EXTRUDE_6
 10
-0.6013
 20
0.1946
 30
0.0347
 70
192
 0
VERTEX
 8
EXTRUDE_6
 10
-0.6013
 20
0.1947
 30
0.0357
 70
192
 0
VERTEX
 8
EXTRUDE_6
 10
-0.6013
 20
0.195
 30
0.3556
 70
192
 0
VERTEX
 8
EXTRUDE_6
 10
0
 20
0
 30
0
 70
128
 71
1
 72
13
 73
14
 74
2
 0
VERTEX
 8
EXTRUDE_6
 10
0
 20
0
 30
0
 70
128
 71
2
 72
14
 73
15
 74
3
 0
VERTEX
 8
EXTRUDE_6
 10
0
 20
0
 30
0
 70
128
 71
3
 72
15
 73
16
 74
4
 0
VERTEX
 8
EXTRUDE_6
 10
0
 20
0
 30
0
 70
128
 71
4
 72
16
 73
17
 74
5
 0
VERTEX
 8
EXTRUDE_6
 10
0
 20
0
 30
0
 70
128
 71
5
 72
17
 73
18
 74
6
 0
VERTEX
 8
EXTRUDE_6
 10
0
 20
0
 30
0
 70
128
 71
6
 72
18
 73
19
 74
7
 0
VERTEX
 8
EXTRUDE_6
 10
0
 20
0
 30
0
 70
128
 71
7
 72
19
 73
20
 74
8
 0
VERTEX
 8
EXTRUDE_6
 10
0
 20
0
 30
0
 70
128
 71
8
 72
20
 73
21
 74
9
 0
VERTEX
 8
EXTRUDE_6
 10
0
 20
0
 30
0
 70
128
 71
9
 72
21
 73
22
 74
10
 0
VERTEX
 8
EXTRUDE_6
 10
0
 20
0
 30
0
 70
128
 71
10
 72
22
 73
23
 74
11
 0
VERTEX
 8
EXTRUDE_6
 10
0
 20
0
 30
0
 70
128
 71
11
 72
23
 73
24
 74
12
 0
VERTEX
 8
EXTRUDE_6
 10
0
 20
0
 30
0
 70
128
 71
12
 72
24
 73
13
 74
1
 0
SEQEND
 0
POLYLINE
 8
TAPA_1_5
 66
1
 10
0.0
 20
0.0
 30
0.0
 70
64
 71
12
 72
6
 0
VERTEX
 8
TAPA_1_5
 10
-0.6613
 20
0.193
 30
0.6743
 70
192
 0
VERTEX
 8
TAPA_1_5
 10
-0.6613
 20
0.1352
 30
0.624
 70
192
 0
VERTEX
 8
TAPA_1_5
 10
-0.6613
 20
0.1355
 30
0.0855
 70
192
 0
VERTEX
 8
TAPA_1_5
 10
-0.6613
 20
0.186
 30
0.0399
 70
192
 0
VERTEX
 8
TAPA_1_5
 10
-0.6613
 20
0.1913
 30
0.036
 70
192
 0
VERTEX
 8
TAPA_1_5
 10
-0.6613
 20
0.1928
 30
0.0351
 70
192
 0
VERTEX
 8
TAPA_1_5
 10
-0.6613
 20
0.1934
 30
0.0348
 70
192
 0
VERTEX
 8
TAPA_1_5
 10
-0.6613
 20
0.1939
 30
0.0347
 70
192
 0
VERTEX
 8
TAPA_1_5
 10
-0.6613
 20
0.1943
 30
0.0346
 70
192
 0
VERTEX
 8
TAPA_1_5
 10
-0.6613
 20
0.1946
 30
0.0347
 70
192
 0
VERTEX
 8
TAPA_1_5
 10
-0.6613
 20
0.1947
 30
0.0357
 70
192
 0
VERTEX
 8
TAPA_1_5
 10
-0.6613
 20
0.195
 30
0.3556
 70
192
 0
VERTEX
 8
TAPA_1_5
 10
0
 20
0
 30
0
 70
128
 71
1
 72
2
 73
12
 74
12
 0
VERTEX
 8
TAPA_1_5
 10
0
 20
0
 30
0
 70
128
 71
12
 72
2
 73
3
 74
11
 0
VERTEX
 8
TAPA_1_5
 10
0
 20
0
 30
0
 70
128
 71
11
 72
3
 73
4
 74
5
 0
VERTEX
 8
TAPA_1_5
 10
0
 20
0
 30
0
 70
128
 71
11
 72
5
 73
6
 74
7
 0
VERTEX
 8
TAPA_1_5
 10
0
 20
0
 30
0
 70
128
 71
11
 72
7
 73
8
 74
9
 0
VERTEX
 8
TAPA_1_5
 10
0
 20
0
 30
0
 70
128
 71
9
 72
10
 73
11
 74
11
 0
SEQEND
 0
POLYLINE
 8
TAPA_2_5
 66
1
 10
0.0
 20
0.0
 30
0.0
 70
64
 71
12
 72
6
 0
VERTEX
 8
TAPA_2_5
 10
-0.6013
 20
0.193
 30
0.6743
 70
192
 0
VERTEX
 8
TAPA_2_5
 10
-0.6013
 20
0.1352
 30
0.624
 70
192
 0
VERTEX
 8
TAPA_2_5
 10
-0.6013
 20
0.1355
 30
0.0855
 70
192
 0
VERTEX
 8
TAPA_2_5
 10
-0.6013
 20
0.186
 30
0.0399
 70
192
 0
VERTEX
 8
TAPA_2_5
 10
-0.6013
 20
0.1913
 30
0.036
 70
192
 0
VERTEX
 8
TAPA_2_5
 10
-0.6013
 20
0.1928
 30
0.0351
 70
192
 0
VERTEX
 8
TAPA_2_5
 10
-0.6013
 20
0.1934
 30
0.0348
 70
192
 0
VERTEX
 8
TAPA_2_5
 10
-0.6013
 20
0.1939
 30
0.0347
 70
192
 0
VERTEX
 8
TAPA_2_5
 10
-0.6013
 20
0.1943
 30
0.0346
 70
192
 0
VERTEX
 8
TAPA_2_5
 10
-0.6013
 20
0.1946
 30
0.0347
 70
192
 0
VERTEX
 8
TAPA_2_5
 10
-0.6013
 20
0.1947
 30
0.0357
 70
192
 0
VERTEX
 8
TAPA_2_5
 10
-0.6013
 20
0.195
 30
0.3556
 70
192
 0
VERTEX
 8
TAPA_2_5
 10
0
 20
0
 30
0
 70
128
 71
12
 72
11
 73
3
 74
2
 0
VERTEX
 8
TAPA_2_5
 10
0
 20
0
 30
0
 70
128
 71
12
 72
2
 73
1
 74
1
 0
VERTEX
 8
TAPA_2_5
 10
0
 20
0
 30
0
 70
128
 71
11
 72
10
 73
9
 74
9
 0
VERTEX
 8
TAPA_2_5
 10
0
 20
0
 30
0
 70
128
 71
11
 72
9
 73
8
 74
7
 0
VERTEX
 8
TAPA_2_5
 10
0
 20
0
 30
0
 70
128
 71
11
 72
7
 73
6
 74
5
 0
VERTEX
 8
TAPA_2_5
 10
0
 20
0
 30
0
 70
128
 71
11
 72
5
 73
4
 74
3
 0
SEQEND
 0
POLYLINE
 8
EXTRUDE_5
 66
1
 10
0.0
 20
0.0
 30
0.0
 70
64
 71
8
 72
4
 0
VERTEX
 8
EXTRUDE_5
 10
-0.6025
 20
-0.1358
 30
0.0845
 70
192
 0
VERTEX
 8
EXTRUDE_5
 10
-0.6025
 20
-0.1955
 30
0.0312
 70
192
 0
VERTEX
 8
EXTRUDE_5
 10
-0.6025
 20
0.1937
 30
0.0342
 70
192
 0
VERTEX
 8
EXTRUDE_5
 10
-0.6025
 20
0.1354
 30
0.0855
 70
192
 0
VERTEX
 8
EXTRUDE_5
 10
-0.6625
 20
-0.1358
 30
0.0845
 70
192
 0
VERTEX
 8
EXTRUDE_5
 10
-0.6625
 20
-0.1955
 30
0.0312
 70
192
 0
VERTEX
 8
EXTRUDE_5
 10
-0.6625
 20
0.1937
 30
0.0342
 70
192
 0
VERTEX
 8
EXTRUDE_5
 10
-0.6625
 20
0.1354
 30
0.0855
 70
192
 0
VERTEX
 8
EXTRUDE_5
 10
0
 20
0
 30
0
 70
128
 71
1
 72
2
 73
6
 74
5
 0
VERTEX
 8
EXTRUDE_5
 10
0
 20
0
 30
0
 70
128
 71
2
 72
3
 73
7
 74
6
 0
VERTEX
 8
EXTRUDE_5
 10
0
 20
0
 30
0
 70
128
 71
3
 72
4
 73
8
 74
7
 0
VERTEX
 8
EXTRUDE_5
 10
0
 20
0
 30
0
 70
128
 71
4
 72
1
 73
5
 74
8
 0
SEQEND
 0
POLYLINE
 8
TAPA_1_6
 66
1
 10
0.0
 20
0.0
 30
0.0
 70
64
 71
4
 72
1
 0
VERTEX
 8
TAPA_1_6
 10
-0.6025
 20
-0.1358
 30
0.0845
 70
192
 0
VERTEX
 8
TAPA_1_6
 10
-0.6025
 20
-0.1955
 30
0.0312
 70
192
 0
VERTEX
 8
TAPA_1_6
 10
-0.6025
 20
0.1937
 30
0.0342
 70
192
 0
VERTEX
 8
TAPA_1_6
 10
-0.6025
 20
0.1354
 30
0.0855
 70
192
 0
VERTEX
 8
TAPA_1_6
 10
0
 20
0
 30
0
 70
128
 71
1
 72
4
 73
3
 74
2
 0
SEQEND
 0
POLYLINE
 8
TAPA_2_6
 66
1
 10
0.0
 20
0.0
 30
0.0
 70
64
 71
4
 72
1
 0
VERTEX
 8
TAPA_2_6
 10
-0.6625
 20
-0.1358
 30
0.0845
 70
192
 0
VERTEX
 8
TAPA_2_6
 10
-0.6625
 20
-0.1955
 30
0.0312
 70
192
 0
VERTEX
 8
TAPA_2_6
 10
-0.6625
 20
0.1937
 30
0.0342
 70
192
 0
VERTEX
 8
TAPA_2_6
 10
-0.6625
 20
0.1354
 30
0.0855
 70
192
 0
VERTEX
 8
TAPA_2_6
 10
0
 20
0
 30
0
 70
128
 71
3
 72
4
 73
1
 74
2
 0
SEQEND
 0
POLYLINE
 8
EXTRUDE_4
 66
1
 10
0.0
 20
0.0
 30
0.0
 70
64
 71
8
 72
4
 0
VERTEX
 8
EXTRUDE_4
 10
-0.6025
 20
-0.1358
 30
0.6248
 70
192
 0
VERTEX
 8
EXTRUDE_4
 10
-0.6025
 20
-0.1955
 30
0.6781
 70
192
 0
VERTEX
 8
EXTRUDE_4
 10
-0.6025
 20
0.1937
 30
0.6751
 70
192
 0
VERTEX
 8
EXTRUDE_4
 10
-0.6025
 20
0.1354
 30
0.6239
 70
192
 0
VERTEX
 8
EXTRUDE_4
 10
-0.6625
 20
-0.1358
 30
0.6248
 70
192
 0
VERTEX
 8
EXTRUDE_4
 10
-0.6625
 20
-0.1955
 30
0.6781
 70
192
 0
VERTEX
 8
EXTRUDE_4
 10
-0.6625
 20
0.1937
 30
0.6751
 70
192
 0
VERTEX
 8
EXTRUDE_4
 10
-0.6625
 20
0.1354
 30
0.6239
 70
192
 0
VERTEX
 8
EXTRUDE_4
 10
0
 20
0
 30
0
 70
128
 71
1
 72
5
 73
6
 74
2
 0
VERTEX
 8
EXTRUDE_4
 10
0
 20
0
 30
0
 70
128
 71
2
 72
6
 73
7
 74
3
 0
VERTEX
 8
EXTRUDE_4
 10
0
 20
0
 30
0
 70
128
 71
3
 72
7
 73
8
 74
4
 0
VERTEX
 8
EXTRUDE_4
 10
0
 20
0
 30
0
 70
128
 71
4
 72
8
 73
5
 74
1
 0
SEQEND
 0
POLYLINE
 8
TAPA_1_7
 66
1
 10
0.0
 20
0.0
 30
0.0
 70
64
 71
4
 72
1
 0
VERTEX
 8
TAPA_1_7
 10
-0.6025
 20
-0.1358
 30
0.6248
 70
192
 0
VERTEX
 8
TAPA_1_7
 10
-0.6025
 20
-0.1955
 30
0.6781
 70
192
 0
VERTEX
 8
TAPA_1_7
 10
-0.6025
 20
0.1937
 30
0.6751
 70
192
 0
VERTEX
 8
TAPA_1_7
 10
-0.6025
 20
0.1354
 30
0.6239
 70
192
 0
VERTEX
 8
TAPA_1_7
 10
0
 20
0
 30
0
 70
128
 71
3
 72
4
 73
1
 74
2
 0
SEQEND
 0
POLYLINE
 8
TAPA_2_7
 66
1
 10
0.0
 20
0.0
 30
0.0
 70
64
 71
4
 72
1
 0
VERTEX
 8
TAPA_2_7
 10
-0.6625
 20
-0.1358
 30
0.6248
 70
192
 0
VERTEX
 8
TAPA_2_7
 10
-0.6625
 20
-0.1955
 30
0.6781
 70
192
 0
VERTEX
 8
TAPA_2_7
 10
-0.6625
 20
0.1937
 30
0.6751
 70
192
 0
VERTEX
 8
TAPA_2_7
 10
-0.6625
 20
0.1354
 30
0.6239
 70
192
 0
VERTEX
 8
TAPA_2_7
 10
0
 20
0
 30
0
 70
128
 71
1
 72
4
 73
3
 74
2
 0
SEQEND
 0
POLYLINE
 8
EXTRUDE_3
 66
1
 10
0.0
 20
0.0
 30
0.0
 70
64
 71
24
 72
12
 0
VERTEX
 8
EXTRUDE_3
 10
-0.798
 20
-0.0332
 30
0.6242
 70
192
 0
VERTEX
 8
EXTRUDE_3
 10
-0.7408
 20
-0.0332
 30
0.5727
 70
192
 0
VERTEX
 8
EXTRUDE_3
 10
-0.7392
 20
-0.0332
 30
0.1314
 70
192
 0
VERTEX
 8
EXTRUDE_3
 10
-0.7906
 20
-0.0332
 30
0.0836
 70
192
 0
VERTEX
 8
EXTRUDE_3
 10
-0.796
 20
-0.0332
 30
0.0795
 70
192
 0
VERTEX
 8
EXTRUDE_3
 10
-0.7975
 20
-0.0332
 30
0.0785
 70
192
 0
VERTEX
 8
EXTRUDE_3
 10
-0.7982
 20
-0.0332
 30
0.0782
 70
192
 0
VERTEX
 8
EXTRUDE_3
 10
-0.7986
 20
-0.0332
 30
0.0781
 70
192
 0
VERTEX
 8
EXTRUDE_3
 10
-0.799
 20
-0.0332
 30
0.078
 70
192
 0
VERTEX
 8
EXTRUDE_3
 10
-0.7993
 20
-0.0332
 30
0.0781
 70
192
 0
VERTEX
 8
EXTRUDE_3
 10
-0.7995
 20
-0.0332
 30
0.079
 70
192
 0
VERTEX
 8
EXTRUDE_3
 10
-0.7998
 20
-0.0332
 30
0.3522
 70
192
 0
VERTEX
 8
EXTRUDE_3
 10
-0.798
 20
0.0268
 30
0.6242
 70
192
 0
VERTEX
 8
EXTRUDE_3
 10
-0.7408
 20
0.0268
 30
0.5727
 70
192
 0
VERTEX
 8
EXTRUDE_3
 10
-0.7392
 20
0.0268
 30
0.1314
 70
192
 0
VERTEX
 8
EXTRUDE_3
 10
-0.7906
 20
0.0268
 30
0.0836
 70
192
 0
VERTEX
 8
EXTRUDE_3
 10
-0.796
 20
0.0268
 30
0.0795
 70
192
 0
VERTEX
 8
EXTRUDE_3
 10
-0.7975
 20
0.0268
 30
0.0785
 70
192
 0
VERTEX
 8
EXTRUDE_3
 10
-0.7982
 20
0.0268
 30
0.0782
 70
192
 0
VERTEX
 8
EXTRUDE_3
 10
-0.7986
 20
0.0268
 30
0.0781
 70
192
 0
VERTEX
 8
EXTRUDE_3
 10
-0.799
 20
0.0268
 30
0.078
 70
192
 0
VERTEX
 8
EXTRUDE_3
 10
-0.7993
 20
0.0268
 30
0.0781
 70
192
 0
VERTEX
 8
EXTRUDE_3
 10
-0.7995
 20
0.0268
 30
0.079
 70
192
 0
VERTEX
 8
EXTRUDE_3
 10
-0.7998
 20
0.0268
 30
0.3522
 70
192
 0
VERTEX
 8
EXTRUDE_3
 10
0
 20
0
 30
0
 70
128
 71
1
 72
13
 73
14
 74
2
 0
VERTEX
 8
EXTRUDE_3
 10
0
 20
0
 30
0
 70
128
 71
2
 72
14
 73
15
 74
3
 0
VERTEX
 8
EXTRUDE_3
 10
0
 20
0
 30
0
 70
128
 71
3
 72
15
 73
16
 74
4
 0
VERTEX
 8
EXTRUDE_3
 10
0
 20
0
 30
0
 70
128
 71
4
 72
16
 73
17
 74
5
 0
VERTEX
 8
EXTRUDE_3
 10
0
 20
0
 30
0
 70
128
 71
5
 72
17
 73
18
 74
6
 0
VERTEX
 8
EXTRUDE_3
 10
0
 20
0
 30
0
 70
128
 71
6
 72
18
 73
19
 74
7
 0
VERTEX
 8
EXTRUDE_3
 10
0
 20
0
 30
0
 70
128
 71
7
 72
19
 73
20
 74
8
 0
VERTEX
 8
EXTRUDE_3
 10
0
 20
0
 30
0
 70
128
 71
8
 72
20
 73
21
 74
9
 0
VERTEX
 8
EXTRUDE_3
 10
0
 20
0
 30
0
 70
128
 71
9
 72
21
 73
22
 74
10
 0
VERTEX
 8
EXTRUDE_3
 10
0
 20
0
 30
0
 70
128
 71
10
 72
22
 73
23
 74
11
 0
VERTEX
 8
EXTRUDE_3
 10
0
 20
0
 30
0
 70
128
 71
11
 72
23
 73
24
 74
12
 0
VERTEX
 8
EXTRUDE_3
 10
0
 20
0
 30
0
 70
128
 71
12
 72
24
 73
13
 74
1
 0
SEQEND
 0
POLYLINE
 8
TAPA_1_8
 66
1
 10
0.0
 20
0.0
 30
0.0
 70
64
 71
12
 72
5
 0
VERTEX
 8
TAPA_1_8
 10
-0.798
 20
-0.0332
 30
0.6242
 70
192
 0
VERTEX
 8
TAPA_1_8
 10
-0.7408
 20
-0.0332
 30
0.5727
 70
192
 0
VERTEX
 8
TAPA_1_8
 10
-0.7392
 20
-0.0332
 30
0.1314
 70
192
 0
VERTEX
 8
TAPA_1_8
 10
-0.7906
 20
-0.0332
 30
0.0836
 70
192
 0
VERTEX
 8
TAPA_1_8
 10
-0.796
 20
-0.0332
 30
0.0795
 70
192
 0
VERTEX
 8
TAPA_1_8
 10
-0.7975
 20
-0.0332
 30
0.0785
 70
192
 0
VERTEX
 8
TAPA_1_8
 10
-0.7982
 20
-0.0332
 30
0.0782
 70
192
 0
VERTEX
 8
TAPA_1_8
 10
-0.7986
 20
-0.0332
 30
0.0781
 70
192
 0
VERTEX
 8
TAPA_1_8
 10
-0.799
 20
-0.0332
 30
0.078
 70
192
 0
VERTEX
 8
TAPA_1_8
 10
-0.7993
 20
-0.0332
 30
0.0781
 70
192
 0
VERTEX
 8
TAPA_1_8
 10
-0.7995
 20
-0.0332
 30
0.079
 70
192
 0
VERTEX
 8
TAPA_1_8
 10
-0.7998
 20
-0.0332
 30
0.3522
 70
192
 0
VERTEX
 8
TAPA_1_8
 10
0
 20
0
 30
0
 70
128
 71
12
 72
1
 73
2
 74
3
 0
VERTEX
 8
TAPA_1_8
 10
0
 20
0
 30
0
 70
128
 71
12
 72
3
 73
4
 74
11
 0
VERTEX
 8
TAPA_1_8
 10
0
 20
0
 30
0
 70
128
 71
11
 72
4
 73
5
 74
6
 0
VERTEX
 8
TAPA_1_8
 10
0
 20
0
 30
0
 70
128
 71
11
 72
6
 73
7
 74
8
 0
VERTEX
 8
TAPA_1_8
 10
0
 20
0
 30
0
 70
128
 71
11
 72
8
 73
9
 74
10
 0
SEQEND
 0
POLYLINE
 8
TAPA_2_8
 66
1
 10
0.0
 20
0.0
 30
0.0
 70
64
 71
12
 72
5
 0
VERTEX
 8
TAPA_2_8
 10
-0.798
 20
0.0268
 30
0.6242
 70
192
 0
VERTEX
 8
TAPA_2_8
 10
-0.7408
 20
0.0268
 30
0.5727
 70
192
 0
VERTEX
 8
TAPA_2_8
 10
-0.7392
 20
0.0268
 30
0.1314
 70
192
 0
VERTEX
 8
TAPA_2_8
 10
-0.7906
 20
0.0268
 30
0.0836
 70
192
 0
VERTEX
 8
TAPA_2_8
 10
-0.796
 20
0.0268
 30
0.0795
 70
192
 0
VERTEX
 8
TAPA_2_8
 10
-0.7975
 20
0.0268
 30
0.0785
 70
192
 0
VERTEX
 8
TAPA_2_8
 10
-0.7982
 20
0.0268
 30
0.0782
 70
192
 0
VERTEX
 8
TAPA_2_8
 10
-0.7986
 20
0.0268
 30
0.0781
 70
192
 0
VERTEX
 8
TAPA_2_8
 10
-0.799
 20
0.0268
 30
0.078
 70
192
 0
VERTEX
 8
TAPA_2_8
 10
-0.7993
 20
0.0268
 30
0.0781
 70
192
 0
VERTEX
 8
TAPA_2_8
 10
-0.7995
 20
0.0268
 30
0.079
 70
192
 0
VERTEX
 8
TAPA_2_8
 10
-0.7998
 20
0.0268
 30
0.3522
 70
192
 0
VERTEX
 8
TAPA_2_8
 10
0
 20
0
 30
0
 70
128
 71
12
 72
11
 73
4
 74
3
 0
VERTEX
 8
TAPA_2_8
 10
0
 20
0
 30
0
 70
128
 71
12
 72
3
 73
2
 74
1
 0
VERTEX
 8
TAPA_2_8
 10
0
 20
0
 30
0
 70
128
 71
11
 72
10
 73
9
 74
8
 0
VERTEX
 8
TAPA_2_8
 10
0
 20
0
 30
0
 70
128
 71
11
 72
8
 73
7
 74
6
 0
VERTEX
 8
TAPA_2_8
 10
0
 20
0
 30
0
 70
128
 71
11
 72
6
 73
5
 74
4
 0
SEQEND
 0
POLYLINE
 8
EXTRUDE_2
 66
1
 10
0.0
 20
0.0
 30
0.0
 70
64
 71
8
 72
4
 0
VERTEX
 8
EXTRUDE_2
 10
-0.7402
 20
-0.0332
 30
0.1319
 70
192
 0
VERTEX
 8
EXTRUDE_2
 10
-0.8
 20
-0.0332
 30
0.0786
 70
192
 0
VERTEX
 8
EXTRUDE_2
 10
0.762
 20
-0.0332
 30
0.0816
 70
192
 0
VERTEX
 8
EXTRUDE_2
 10
0.7037
 20
-0.0332
 30
0.1399
 70
192
 0
VERTEX
 8
EXTRUDE_2
 10
-0.7402
 20
0.0268
 30
0.1319
 70
192
 0
VERTEX
 8
EXTRUDE_2
 10
-0.8
 20
0.0268
 30
0.0786
 70
192
 0
VERTEX
 8
EXTRUDE_2
 10
0.762
 20
0.0268
 30
0.0816
 70
192
 0
VERTEX
 8
EXTRUDE_2
 10
0.7037
 20
0.0268
 30
0.1399
 70
192
 0
VERTEX
 8
EXTRUDE_2
 10
0
 20
0
 30
0
 70
128
 71
1
 72
2
 73
6
 74
5
 0
VERTEX
 8
EXTRUDE_2
 10
0
 20
0
 30
0
 70
128
 71
2
 72
3
 73
7
 74
6
 0
VERTEX
 8
EXTRUDE_2
 10
0
 20
0
 30
0
 70
128
 71
3
 72
4
 73
8
 74
7
 0
VERTEX
 8
EXTRUDE_2
 10
0
 20
0
 30
0
 70
128
 71
4
 72
1
 73
5
 74
8
 0
SEQEND
 0
POLYLINE
 8
CAP_1
 66
1
 10
0.0
 20
0.0
 30
0.0
 70
64
 71
4
 72
1
 0
VERTEX
 8
CAP_1
 10
-0.7402
 20
-0.0332
 30
0.1319
 70
192
 0
VERTEX
 8
CAP_1
 10
-0.8
 20
-0.0332
 30
0.0786
 70
192
 0
VERTEX
 8
CAP_1
 10
0.762
 20
-0.0332
 30
0.0816
 70
192
 0
VERTEX
 8
CAP_1
 10
0.7037
 20
-0.0332
 30
0.1399
 70
192
 0
VERTEX
 8
CAP_1
 10
0
 20
0
 30
0
 70
128
 71
1
 72
4
 73
3
 74
2
 0
SEQEND
 0
POLYLINE
 8
CAP_2
 66
1
 10
0.0
 20
0.0
 30
0.0
 70
64
 71
4
 72
1
 0
VERTEX
 8
CAP_2
 10
-0.7402
 20
0.0268
 30
0.1319
 70
192
 0
VERTEX
 8
CAP_2
 10
-0.8
 20
0.0268
 30
0.0786
 70
192
 0
VERTEX
 8
CAP_2
 10
0.762
 20
0.0268
 30
0.0816
 70
192
 0
VERTEX
 8
CAP_2
 10
0.7037
 20
0.0268
 30
0.1399
 70
192
 0
VERTEX
 8
CAP_2
 10
0
 20
0
 30
0
 70
128
 71
3
 72
4
 73
1
 74
2
 0
SEQEND
 0
POLYLINE
 8
EXTRUDE_1
 66
1
 10
0.0
 20
0.0
 30
0.0
 70
64
 71
24
 72
12
 0
VERTEX
 8
EXTRUDE_1
 10
0.7621
 20
-0.0332
 30
0.6242
 70
192
 0
VERTEX
 8
EXTRUDE_1
 10
0.7024
 20
-0.0332
 30
0.564
 70
192
 0
VERTEX
 8
EXTRUDE_1
 10
0.7033
 20
-0.0332
 30
0.1409
 70
192
 0
VERTEX
 8
EXTRUDE_1
 10
0.7524
 20
-0.0332
 30
0.0893
 70
192
 0
VERTEX
 8
EXTRUDE_1
 10
0.7576
 20
-0.0332
 30
0.0848
 70
192
 0
VERTEX
 8
EXTRUDE_1
 10
0.7591
 20
-0.0332
 30
0.0838
 70
192
 0
VERTEX
 8
EXTRUDE_1
 10
0.7597
 20
-0.0332
 30
0.0835
 70
192
 0
VERTEX
 8
EXTRUDE_1
 10
0.7602
 20
-0.0332
 30
0.0833
 70
192
 0
VERTEX
 8
EXTRUDE_1
 10
0.7605
 20
-0.0332
 30
0.0832
 70
192
 0
VERTEX
 8
EXTRUDE_1
 10
0.7608
 20
-0.0332
 30
0.0833
 70
192
 0
VERTEX
 8
EXTRUDE_1
 10
0.761
 20
-0.0332
 30
0.0841
 70
192
 0
VERTEX
 8
EXTRUDE_1
 10
0.7626
 20
-0.0332
 30
0.3548
 70
192
 0
VERTEX
 8
EXTRUDE_1
 10
0.7621
 20
0.0205
 30
0.6242
 70
192
 0
VERTEX
 8
EXTRUDE_1
 10
0.7024
 20
0.0205
 30
0.564
 70
192
 0
VERTEX
 8
EXTRUDE_1
 10
0.7033
 20
0.0205
 30
0.1409
 70
192
 0
VERTEX
 8
EXTRUDE_1
 10
0.7524
 20
0.0205
 30
0.0893
 70
192
 0
VERTEX
 8
EXTRUDE_1
 10
0.7576
 20
0.0205
 30
0.0848
 70
192
 0
VERTEX
 8
EXTRUDE_1
 10
0.7591
 20
0.0205
 30
0.0838
 70
192
 0
VERTEX
 8
EXTRUDE_1
 10
0.7597
 20
0.0205
 30
0.0835
 70
192
 0
VERTEX
 8
EXTRUDE_1
 10
0.7602
 20
0.0205
 30
0.0833
 70
192
 0
VERTEX
 8
EXTRUDE_1
 10
0.7605
 20
0.0205
 30
0.0832
 70
192
 0
VERTEX
 8
EXTRUDE_1
 10
0.7608
 20
0.0205
 30
0.0833
 70
192
 0
VERTEX
 8
EXTRUDE_1
 10
0.761
 20
0.0205
 30
0.0841
 70
192
 0
VERTEX
 8
EXTRUDE_1
 10
0.7626
 20
0.0205
 30
0.3548
 70
192
 0
VERTEX
 8
EXTRUDE_1
 10
0
 20
0
 30
0
 70
128
 71
1
 72
2
 73
14
 74
13
 0
VERTEX
 8
EXTRUDE_1
 10
0
 20
0
 30
0
 70
128
 71
2
 72
3
 73
15
 74
14
 0
VERTEX
 8
EXTRUDE_1
 10
0
 20
0
 30
0
 70
128
 71
3
 72
4
 73
16
 74
15
 0
VERTEX
 8
EXTRUDE_1
 10
0
 20
0
 30
0
 70
128
 71
4
 72
5
 73
17
 74
16
 0
VERTEX
 8
EXTRUDE_1
 10
0
 20
0
 30
0
 70
128
 71
5
 72
6
 73
18
 74
17
 0
VERTEX
 8
EXTRUDE_1
 10
0
 20
0
 30
0
 70
128
 71
6
 72
7
 73
19
 74
18
 0
VERTEX
 8
EXTRUDE_1
 10
0
 20
0
 30
0
 70
128
 71
7
 72
8
 73
20
 74
19
 0
VERTEX
 8
EXTRUDE_1
 10
0
 20
0
 30
0
 70
128
 71
8
 72
9
 73
21
 74
20
 0
VERTEX
 8
EXTRUDE_1
 10
0
 20
0
 30
0
 70
128
 71
9
 72
10
 73
22
 74
21
 0
VERTEX
 8
EXTRUDE_1
 10
0
 20
0
 30
0
 70
128
 71
10
 72
11
 73
23
 74
22
 0
VERTEX
 8
EXTRUDE_1
 10
0
 20
0
 30
0
 70
128
 71
11
 72
12
 73
24
 74
23
 0
VERTEX
 8
EXTRUDE_1
 10
0
 20
0
 30
0
 70
128
 71
12
 72
1
 73
13
 74
24
 0
SEQEND
 0
POLYLINE
 8
TAPA_1_9
 66
1
 10
0.0
 20
0.0
 30
0.0
 70
64
 71
12
 72
6
 0
VERTEX
 8
TAPA_1_9
 10
0.7621
 20
-0.0332
 30
0.6242
 70
192
 0
VERTEX
 8
TAPA_1_9
 10
0.7024
 20
-0.0332
 30
0.564
 70
192
 0
VERTEX
 8
TAPA_1_9
 10
0.7033
 20
-0.0332
 30
0.1409
 70
192
 0
VERTEX
 8
TAPA_1_9
 10
0.7524
 20
-0.0332
 30
0.0893
 70
192
 0
VERTEX
 8
TAPA_1_9
 10
0.7576
 20
-0.0332
 30
0.0848
 70
192
 0
VERTEX
 8
TAPA_1_9
 10
0.7591
 20
-0.0332
 30
0.0838
 70
192
 0
VERTEX
 8
TAPA_1_9
 10
0.7597
 20
-0.0332
 30
0.0835
 70
192
 0
VERTEX
 8
TAPA_1_9
 10
0.7602
 20
-0.0332
 30
0.0833
 70
192
 0
VERTEX
 8
TAPA_1_9
 10
0.7605
 20
-0.0332
 30
0.0832
 70
192
 0
VERTEX
 8
TAPA_1_9
 10
0.7608
 20
-0.0332
 30
0.0833
 70
192
 0
VERTEX
 8
TAPA_1_9
 10
0.761
 20
-0.0332
 30
0.0841
 70
192
 0
VERTEX
 8
TAPA_1_9
 10
0.7626
 20
-0.0332
 30
0.3548
 70
192
 0
VERTEX
 8
TAPA_1_9
 10
0
 20
0
 30
0
 70
128
 71
12
 72
11
 73
3
 74
2
 0
VERTEX
 8
TAPA_1_9
 10
0
 20
0
 30
0
 70
128
 71
12
 72
2
 73
1
 74
1
 0
VERTEX
 8
TAPA_1_9
 10
0
 20
0
 30
0
 70
128
 71
11
 72
10
 73
9
 74
9
 0
VERTEX
 8
TAPA_1_9
 10
0
 20
0
 30
0
 70
128
 71
11
 72
9
 73
8
 74
7
 0
VERTEX
 8
TAPA_1_9
 10
0
 20
0
 30
0
 70
128
 71
11
 72
7
 73
6
 74
5
 0
VERTEX
 8
TAPA_1_9
 10
0
 20
0
 30
0
 70
128
 71
11
 72
5
 73
4
 74
3
 0
SEQEND
 0
POLYLINE
 8
TAPA_2_9
 66
1
 10
0.0
 20
0.0
 30
0.0
 70
64
 71
12
 72
6
 0
VERTEX
 8
TAPA_2_9
 10
0.7621
 20
0.0205
 30
0.6242
 70
192
 0
VERTEX
 8
TAPA_2_9
 10
0.7024
 20
0.0205
 30
0.564
 70
192
 0
VERTEX
 8
TAPA_2_9
 10
0.7033
 20
0.0205
 30
0.1409
 70
192
 0
VERTEX
 8
TAPA_2_9
 10
0.7524
 20
0.0205
 30
0.0893
 70
192
 0
VERTEX
 8
TAPA_2_9
 10
0.7576
 20
0.0205
 30
0.0848
 70
192
 0
VERTEX
 8
TAPA_2_9
 10
0.7591
 20
0.0205
 30
0.0838
 70
192
 0
VERTEX
 8
TAPA_2_9
 10
0.7597
 20
0.0205
 30
0.0835
 70
192
 0
VERTEX
 8
TAPA_2_9
 10
0.7602
 20
0.0205
 30
0.0833
 70
192
 0
VERTEX
 8
TAPA_2_9
 10
0.7605
 20
0.0205
 30
0.0832
 70
192
 0
VERTEX
 8
TAPA_2_9
 10
0.7608
 20
0.0205
 30
0.0833
 70
192
 0
VERTEX
 8
TAPA_2_9
 10
0.761
 20
0.0205
 30
0.0841
 70
192
 0
VERTEX
 8
TAPA_2_9
 10
0.7626
 20
0.0205
 30
0.3548
 70
192
 0
VERTEX
 8
TAPA_2_9
 10
0
 20
0
 30
0
 70
128
 71
1
 72
2
 73
12
 74
12
 0
VERTEX
 8
TAPA_2_9
 10
0
 20
0
 30
0
 70
128
 71
12
 72
2
 73
3
 74
11
 0
VERTEX
 8
TAPA_2_9
 10
0
 20
0
 30
0
 70
128
 71
11
 72
3
 73
4
 74
5
 0
VERTEX
 8
TAPA_2_9
 10
0
 20
0
 30
0
 70
128
 71
11
 72
5
 73
6
 74
7
 0
VERTEX
 8
TAPA_2_9
 10
0
 20
0
 30
0
 70
128
 71
11
 72
7
 73
8
 74
9
 0
VERTEX
 8
TAPA_2_9
 10
0
 20
0
 30
0
 70
128
 71
9
 72
10
 73
11
 74
11
 0
SEQEND
 0
POLYLINE
 8
EXTRUDE
 66
1
 10
0.0
 20
0.0
 30
0.0
 70
64
 71
8
 72
4
 0
VERTEX
 8
EXTRUDE
 10
-0.7402
 20
-0.0332
 30
0.5727
 70
192
 0
VERTEX
 8
EXTRUDE
 10
-0.8
 20
-0.0332
 30
0.626
 70
192
 0
VERTEX
 8
EXTRUDE
 10
0.762
 20
-0.0332
 30
0.6229
 70
192
 0
VERTEX
 8
EXTRUDE
 10
0.7037
 20
-0.0332
 30
0.5647
 70
192
 0
VERTEX
 8
EXTRUDE
 10
-0.7402
 20
0.0234
 30
0.5727
 70
192
 0
VERTEX
 8
EXTRUDE
 10
-0.8
 20
0.0234
 30
0.626
 70
192
 0
VERTEX
 8
EXTRUDE
 10
0.762
 20
0.0234
 30
0.6229
 70
192
 0
VERTEX
 8
EXTRUDE
 10
0.7037
 20
0.0234
 30
0.5647
 70
192
 0
VERTEX
 8
EXTRUDE
 10
0
 20
0
 30
0
 70
128
 71
1
 72
5
 73
6
 74
2
 0
VERTEX
 8
EXTRUDE
 10
0
 20
0
 30
0
 70
128
 71
2
 72
6
 73
7
 74
3
 0
VERTEX
 8
EXTRUDE
 10
0
 20
0
 30
0
 70
128
 71
3
 72
7
 73
8
 74
4
 0
VERTEX
 8
EXTRUDE
 10
0
 20
0
 30
0
 70
128
 71
4
 72
8
 73
5
 74
1
 0
SEQEND
 0
POLYLINE
 8
TAPA_1_10
 66
1
 10
0.0
 20
0.0
 30
0.0
 70
64
 71
4
 72
1
 0
VERTEX
 8
TAPA_1_10
 10
-0.7402
 20
-0.0332
 30
0.5727
 70
192
 0
VERTEX
 8
TAPA_1_10
 10
-0.8
 20
-0.0332
 30
0.626
 70
192
 0
VERTEX
 8
TAPA_1_10
 10
0.762
 20
-0.0332
 30
0.6229
 70
192
 0
VERTEX
 8
TAPA_1_10
 10
0.7037
 20
-0.0332
 30
0.5647
 70
192
 0
VERTEX
 8
TAPA_1_10
 10
0
 20
0
 30
0
 70
128
 71
3
 72
4
 73
1
 74
2
 0
SEQEND
 0
POLYLINE
 8
TAPA_2_10
 66
1
 10
0.0
 20
0.0
 30
0.0
 70
64
 71
4
 72
1
 0
VERTEX
 8
TAPA_2_10
 10
-0.7402
 20
0.0234
 30
0.5727
 70
192
 0
VERTEX
 8
TAPA_2_10
 10
-0.8
 20
0.0234
 30
0.626
 70
192
 0
VERTEX
 8
TAPA_2_10
 10
0.762
 20
0.0234
 30
0.6229
 70
192
 0
VERTEX
 8
TAPA_2_10
 10
0.7037
 20
0.0234
 30
0.5647
 70
192
 0
VERTEX
 8
TAPA_2_10
 10
0
 20
0
 30
0
 70
128
 71
1
 72
4
 73
3
 74
2
 0
SEQEND
 0
POLYLINE
 8
CUBE
 66
1
 10
0.0
 20
0.0
 30
0.0
 70
64
 71
8
 72
6
 0
VERTEX
 8
CUBE
 10
-1
 20
-0.2
 30
0.6768
 70
192
 0
VERTEX
 8
CUBE
 10
-1
 20
-0.2
 30
0.7368
 70
192
 0
VERTEX
 8
CUBE
 10
1
 20
-0.2
 30
0.6768
 70
192
 0
VERTEX
 8
CUBE
 10
1
 20
-0.2
 30
0.7368
 70
192
 0
VERTEX
 8
CUBE
 10
1
 20
0.2
 30
0.6768
 70
192
 0
VERTEX
 8
CUBE
 10
1
 20
0.2
 30
0.7368
 70
192
 0
VERTEX
 8
CUBE
 10
-1
 20
0.2
 30
0.6768
 70
192
 0
VERTEX
 8
CUBE
 10
-1
 20
0.2
 30
0.7368
 70
192
 0
VERTEX
 8
CUBE
 10
0
 20
0
 30
0
 70
128
 71
1
 72
2
 73
4
 74
3
 0
VERTEX
 8
CUBE
 10
0
 20
0
 30
0
 70
128
 71
3
 72
4
 73
6
 74
5
 0
VERTEX
 8
CUBE
 10
0
 20
0
 30
0
 70
128
 71
5
 72
6
 73
8
 74
7
 0
VERTEX
 8
CUBE
 10
0
 20
0
 30
0
 70
128
 71
7
 72
8
 73
2
 74
1
 0
VERTEX
 8
CUBE
 10
0
 20
0
 30
0
 70
128
 71
2
 72
8
 73
6
 74
4
 0
VERTEX
 8
CUBE
 10
0
 20
0
 30
0
 70
128
 71
7
 72
1
 73
3
 74
5
 0
SEQEND
 0
ENDSEC
 0
EOF
