 0
SECTION
 2
HEADER
 9
$ACADVER
 1
AC1009
 0
ENDSEC
 0
SECTION
 2
TABLES
 0
TABLE
 2
LTYPE
 70
1
 0
LTYPE
 2
CONTINUOUS
 70
64
 3
solid line
 72
65
 73
0
 40
0.0
 0
ENDTAB
 0
TABLE
 2
LAYER
 70
6
 0
LAYER
 2
0
 70
0
 62
7
 6
CONTINUOUS
 0
LAYER
 2
EXTRUDE_1
 70
64
 62
179
 6
CONTINUOUS
 0
LAYER
 2
EXTRUDE
 70
64
 62
179
 6
CONTINUOUS
 0
LAYER
 2
CAP_1
 70
64
 62
179
 6
CONTINUOUS
 0
LAYER
 2
CAP_2
 70
64
 62
179
 6
CONTINUOUS
 0
LAYER
 2
NULL
 70
64
 62
179
 6
CONTINUOUS
 0
LAYER
 2
CYLINDER_6
 70
64
 62
179
 6
CONTINUOUS
 0
LAYER
 2
CYLINDER_5
 70
64
 62
179
 6
CONTINUOUS
 0
LAYER
 2
CYLINDER_4
 70
64
 62
179
 6
CONTINUOUS
 0
LAYER
 2
CYLINDER_3
 70
64
 62
179
 6
CONTINUOUS
 0
LAYER
 2
CYLINDER_2
 70
64
 62
179
 6
CONTINUOUS
 0
LAYER
 2
CYLINDER_1
 70
64
 62
179
 6
CONTINUOUS
 0
LAYER
 2
CYLINDER
 70
64
 62
179
 6
CONTINUOUS
 0
LAYER
 2
CUBE_11
 70
64
 62
179
 6
CONTINUOUS
 0
LAYER
 2
CUBE_10
 70
64
 62
179
 6
CONTINUOUS
 0
LAYER
 2
CYLINDER_7
 70
64
 62
179
 6
CONTINUOUS
 0
LAYER
 2
CUBE_9
 70
64
 62
179
 6
CONTINUOUS
 0
LAYER
 2
CUBE_8
 70
64
 62
179
 6
CONTINUOUS
 0
LAYER
 2
BOOLE_12
 70
64
 62
7
 6
CONTINUOUS
 0
LAYER
 2
CUBE
 70
64
 62
37
 6
CONTINUOUS
 0
LAYER
 2
EXTRUDE_2
 70
64
 62
37
 6
CONTINUOUS
 0
LAYER
 2
CAP_1_1
 70
64
 62
37
 6
CONTINUOUS
 0
LAYER
 2
CAP_2_1
 70
64
 62
37
 6
CONTINUOUS
 0
LAYER
 2
BOOLE_10
 70
64
 62
7
 6
CONTINUOUS
 0
LAYER
 2
CUBE_1
 70
64
 62
37
 6
CONTINUOUS
 0
LAYER
 2
EXTRUDE_3
 70
64
 62
37
 6
CONTINUOUS
 0
LAYER
 2
CAP_1_2
 70
64
 62
37
 6
CONTINUOUS
 0
LAYER
 2
CAP_2_2
 70
64
 62
37
 6
CONTINUOUS
 0
LAYER
 2
BOOLE_9
 70
64
 62
7
 6
CONTINUOUS
 0
LAYER
 2
CUBE_2
 70
64
 62
37
 6
CONTINUOUS
 0
LAYER
 2
EXTRUDE_4
 70
64
 62
37
 6
CONTINUOUS
 0
LAYER
 2
CAP_1_3
 70
64
 62
37
 6
CONTINUOUS
 0
LAYER
 2
CAP_2_3
 70
64
 62
37
 6
CONTINUOUS
 0
LAYER
 2
BOOLE_8
 70
64
 62
7
 6
CONTINUOUS
 0
LAYER
 2
CUBE_3
 70
64
 62
37
 6
CONTINUOUS
 0
LAYER
 2
EXTRUDE_5
 70
64
 62
37
 6
CONTINUOUS
 0
LAYER
 2
CAP_1_4
 70
64
 62
37
 6
CONTINUOUS
 0
LAYER
 2
CAP_2_4
 70
64
 62
37
 6
CONTINUOUS
 0
LAYER
 2
CUBE_7
 70
64
 62
37
 6
CONTINUOUS
 0
LAYER
 2
BOOLE_11
 70
64
 62
7
 6
CONTINUOUS
 0
LAYER
 2
BOOLE_10_1
 70
64
 62
7
 6
CONTINUOUS
 0
LAYER
 2
BOOLE_8_1
 70
64
 62
179
 6
CONTINUOUS
 0
LAYER
 2
BOOLE_9_1
 70
64
 62
179
 6
CONTINUOUS
 0
LAYER
 2
BOOLE_8_2
 70
64
 62
179
 6
CONTINUOUS
 0
LAYER
 2
CUBE_7_1
 70
64
 62
179
 6
CONTINUOUS
 0
LAYER
 2
CUBE_8_1
 70
64
 62
179
 6
CONTINUOUS
 0
LAYER
 2
CUBE_9_1
 70
64
 62
179
 6
CONTINUOUS
 0
LAYER
 2
CUBE_4
 70
64
 62
179
 6
CONTINUOUS
 0
LAYER
 2
CUBE_1_1
 70
64
 62
7
 6
CONTINUOUS
 0
LAYER
 2
CUBE_8_2
 70
64
 62
179
 6
CONTINUOUS
 0
LAYER
 2
CUBE_6
 70
64
 62
179
 6
CONTINUOUS
 0
LAYER
 2
CUBE_5
 70
64
 62
37
 6
CONTINUOUS
 0
LAYER
 2
BOOLE_5
 70
64
 62
7
 6
CONTINUOUS
 0
LAYER
 2
CUBE_6_1
 70
64
 62
179
 6
CONTINUOUS
 0
LAYER
 2
CUBE_7_2
 70
64
 62
179
 6
CONTINUOUS
 0
LAYER
 2
BOOLE_4
 70
64
 62
7
 6
CONTINUOUS
 0
LAYER
 2
CUBE_6_2
 70
64
 62
179
 6
CONTINUOUS
 0
LAYER
 2
CUBE_7_3
 70
64
 62
179
 6
CONTINUOUS
 0
LAYER
 2
CUBE_4_1
 70
64
 62
37
 6
CONTINUOUS
 0
LAYER
 2
CUBE_3_1
 70
64
 62
37
 6
CONTINUOUS
 0
LAYER
 2
BOOLE_3
 70
64
 62
7
 6
CONTINUOUS
 0
LAYER
 2
CUBE_6_3
 70
64
 62
179
 6
CONTINUOUS
 0
LAYER
 2
CUBE_7_4
 70
64
 62
179
 6
CONTINUOUS
 0
LAYER
 2
BOOLE_2
 70
64
 62
7
 6
CONTINUOUS
 0
LAYER
 2
CUBE_6_4
 70
64
 62
179
 6
CONTINUOUS
 0
LAYER
 2
CUBE_7_5
 70
64
 62
179
 6
CONTINUOUS
 0
LAYER
 2
CUBE_2_1
 70
64
 62
37
 6
CONTINUOUS
 0
LAYER
 2
CUBE_1_2
 70
64
 62
37
 6
CONTINUOUS
 0
LAYER
 2
BOOLE_1
 70
64
 62
7
 6
CONTINUOUS
 0
LAYER
 2
CUBE_6_5
 70
64
 62
179
 6
CONTINUOUS
 0
LAYER
 2
CUBE_7_6
 70
64
 62
179
 6
CONTINUOUS
 0
LAYER
 2
BOOLE_7
 70
64
 62
7
 6
CONTINUOUS
 0
LAYER
 2
CUBE_6_6
 70
64
 62
179
 6
CONTINUOUS
 0
LAYER
 2
CUBE_7_7
 70
64
 62
179
 6
CONTINUOUS
 0
LAYER
 2
BOOLE_6
 70
64
 62
7
 6
CONTINUOUS
 0
LAYER
 2
CUBE_6_7
 70
64
 62
179
 6
CONTINUOUS
 0
LAYER
 2
CUBE_7_8
 70
64
 62
179
 6
CONTINUOUS
 0
LAYER
 2
BOOLE
 70
64
 62
7
 6
CONTINUOUS
 0
LAYER
 2
CUBE_6_8
 70
64
 62
179
 6
CONTINUOUS
 0
LAYER
 2
CUBE_7_9
 70
64
 62
179
 6
CONTINUOUS
 0
LAYER
 2
CUBE_12
 70
64
 62
37
 6
CONTINUOUS
 0
ENDTAB
 0
ENDSEC
 0
SECTION
 2
BLOCKS
 0
ENDSEC
 0
SECTION
 2
ENTITIES
 0
POLYLINE
 8
EXTRUDE_1
 66
1
 10
0.0
 20
0.0
 30
0.0
 70
64
 71
28
 72
22
 0
VERTEX
 8
EXTRUDE_1
 10
-0.6578
 20
-0.1903
 30
1.2919
 70
192
 0
VERTEX
 8
EXTRUDE_1
 10
-0.7989
 20
-0.1903
 30
1.292
 70
192
 0
VERTEX
 8
EXTRUDE_1
 10
-0.7994
 20
-0.1903
 30
1.292
 70
192
 0
VERTEX
 8
EXTRUDE_1
 10
-0.7995
 20
-0.1903
 30
1.2919
 70
192
 0
VERTEX
 8
EXTRUDE_1
 10
-0.8012
 20
-0.1903
 30
1.2012
 70
192
 0
VERTEX
 8
EXTRUDE_1
 10
-0.7732
 20
-0.1903
 30
1.2021
 70
192
 0
VERTEX
 8
EXTRUDE_1
 10
-0.773
 20
-0.1903
 30
1.2022
 70
192
 0
VERTEX
 8
EXTRUDE_1
 10
-0.7728
 20
-0.1903
 30
1.2024
 70
192
 0
VERTEX
 8
EXTRUDE_1
 10
-0.7507
 20
-0.1903
 30
1.2271
 70
192
 0
VERTEX
 8
EXTRUDE_1
 10
-0.7369
 20
-0.1903
 30
1.239
 70
192
 0
VERTEX
 8
EXTRUDE_1
 10
-0.7231
 20
-0.1903
 30
1.2487
 70
192
 0
VERTEX
 8
EXTRUDE_1
 10
-0.7106
 20
-0.1903
 30
1.2558
 70
192
 0
VERTEX
 8
EXTRUDE_1
 10
-0.6968
 20
-0.1903
 30
1.2618
 70
192
 0
VERTEX
 8
EXTRUDE_1
 10
-0.6856
 20
-0.1903
 30
1.2654
 70
192
 0
VERTEX
 8
EXTRUDE_1
 10
-0.6738
 20
-0.1903
 30
1.268
 70
192
 0
VERTEX
 8
EXTRUDE_1
 10
-0.6655
 20
-0.1903
 30
1.2691
 70
192
 0
VERTEX
 8
EXTRUDE_1
 10
-0.657
 20
-0.1903
 30
1.2697
 70
192
 0
VERTEX
 8
EXTRUDE_1
 10
-0.6571
 20
-0.1903
 30
1.2697
 70
192
 0
VERTEX
 8
EXTRUDE_1
 10
-0.6573
 20
-0.1903
 30
1.2698
 70
192
 0
VERTEX
 8
EXTRUDE_1
 10
-0.6575
 20
-0.1903
 30
1.2699
 70
192
 0
VERTEX
 8
EXTRUDE_1
 10
-0.6576
 20
-0.1903
 30
1.2701
 70
192
 0
VERTEX
 8
EXTRUDE_1
 10
-0.6578
 20
-0.1903
 30
1.2703
 70
192
 0
VERTEX
 8
EXTRUDE_1
 10
-0.6579
 20
-0.1903
 30
1.2705
 70
192
 0
VERTEX
 8
EXTRUDE_1
 10
-0.6581
 20
-0.1903
 30
1.2712
 70
192
 0
VERTEX
 8
EXTRUDE_1
 10
-0.6583
 20
-0.1903
 30
1.272
 70
192
 0
VERTEX
 8
EXTRUDE_1
 10
-0.6585
 20
-0.1903
 30
1.2739
 70
192
 0
VERTEX
 8
EXTRUDE_1
 10
-0.6587
 20
-0.1903
 30
1.2781
 70
192
 0
VERTEX
 8
EXTRUDE_1
 10
-0.6582
 20
-0.1903
 30
1.2871
 70
192
 0
VERTEX
 8
EXTRUDE_1
 10
0
 20
0
 30
0
 70
128
 71
13
 72
1
 73
2
 74
12
 0
VERTEX
 8
EXTRUDE_1
 10
0
 20
0
 30
0
 70
128
 71
1
 72
13
 73
14
 74
14
 0
VERTEX
 8
EXTRUDE_1
 10
0
 20
0
 30
0
 70
128
 71
1
 72
14
 73
15
 74
28
 0
VERTEX
 8
EXTRUDE_1
 10
0
 20
0
 30
0
 70
128
 71
2
 72
9
 73
10
 74
10
 0
VERTEX
 8
EXTRUDE_1
 10
0
 20
0
 30
0
 70
128
 71
2
 72
10
 73
11
 74
11
 0
VERTEX
 8
EXTRUDE_1
 10
0
 20
0
 30
0
 70
128
 71
2
 72
11
 73
12
 74
12
 0
VERTEX
 8
EXTRUDE_1
 10
0
 20
0
 30
0
 70
128
 71
2
 72
3
 73
4
 74
4
 0
VERTEX
 8
EXTRUDE_1
 10
0
 20
0
 30
0
 70
128
 71
9
 72
2
 73
4
 74
5
 0
VERTEX
 8
EXTRUDE_1
 10
0
 20
0
 30
0
 70
128
 71
5
 72
6
 73
8
 74
8
 0
VERTEX
 8
EXTRUDE_1
 10
0
 20
0
 30
0
 70
128
 71
5
 72
8
 73
9
 74
9
 0
VERTEX
 8
EXTRUDE_1
 10
0
 20
0
 30
0
 70
128
 71
6
 72
7
 73
8
 74
8
 0
VERTEX
 8
EXTRUDE_1
 10
0
 20
0
 30
0
 70
128
 71
15
 72
16
 73
27
 74
28
 0
VERTEX
 8
EXTRUDE_1
 10
0
 20
0
 30
0
 70
128
 71
16
 72
17
 73
18
 74
18
 0
VERTEX
 8
EXTRUDE_1
 10
0
 20
0
 30
0
 70
128
 71
16
 72
18
 73
19
 74
19
 0
VERTEX
 8
EXTRUDE_1
 10
0
 20
0
 30
0
 70
128
 71
16
 72
19
 73
20
 74
20
 0
VERTEX
 8
EXTRUDE_1
 10
0
 20
0
 30
0
 70
128
 71
16
 72
20
 73
21
 74
21
 0
VERTEX
 8
EXTRUDE_1
 10
0
 20
0
 30
0
 70
128
 71
16
 72
21
 73
22
 74
22
 0
VERTEX
 8
EXTRUDE_1
 10
0
 20
0
 30
0
 70
128
 71
16
 72
22
 73
23
 74
23
 0
VERTEX
 8
EXTRUDE_1
 10
0
 20
0
 30
0
 70
128
 71
16
 72
23
 73
24
 74
24
 0
VERTEX
 8
EXTRUDE_1
 10
0
 20
0
 30
0
 70
128
 71
16
 72
24
 73
25
 74
25
 0
VERTEX
 8
EXTRUDE_1
 10
0
 20
0
 30
0
 70
128
 71
16
 72
25
 73
26
 74
26
 0
VERTEX
 8
EXTRUDE_1
 10
0
 20
0
 30
0
 70
128
 71
16
 72
26
 73
27
 74
27
 0
SEQEND
 0
POLYLINE
 8
EXTRUDE
 66
1
 10
0.0
 20
0.0
 30
0.0
 70
64
 71
56
 72
28
 0
VERTEX
 8
EXTRUDE
 10
0.6518
 20
-0.1903
 30
1.2919
 70
192
 0
VERTEX
 8
EXTRUDE
 10
0.7929
 20
-0.1903
 30
1.292
 70
192
 0
VERTEX
 8
EXTRUDE
 10
0.7934
 20
-0.1903
 30
1.292
 70
192
 0
VERTEX
 8
EXTRUDE
 10
0.7936
 20
-0.1903
 30
1.2919
 70
192
 0
VERTEX
 8
EXTRUDE
 10
0.7952
 20
-0.1903
 30
1.2012
 70
192
 0
VERTEX
 8
EXTRUDE
 10
0.7672
 20
-0.1903
 30
1.2021
 70
192
 0
VERTEX
 8
EXTRUDE
 10
0.7671
 20
-0.1903
 30
1.2022
 70
192
 0
VERTEX
 8
EXTRUDE
 10
0.7669
 20
-0.1903
 30
1.2024
 70
192
 0
VERTEX
 8
EXTRUDE
 10
0.7447
 20
-0.1903
 30
1.2271
 70
192
 0
VERTEX
 8
EXTRUDE
 10
0.731
 20
-0.1903
 30
1.239
 70
192
 0
VERTEX
 8
EXTRUDE
 10
0.7172
 20
-0.1903
 30
1.2487
 70
192
 0
VERTEX
 8
EXTRUDE
 10
0.7046
 20
-0.1903
 30
1.2558
 70
192
 0
VERTEX
 8
EXTRUDE
 10
0.6908
 20
-0.1903
 30
1.2618
 70
192
 0
VERTEX
 8
EXTRUDE
 10
0.6797
 20
-0.1903
 30
1.2654
 70
192
 0
VERTEX
 8
EXTRUDE
 10
0.6678
 20
-0.1903
 30
1.268
 70
192
 0
VERTEX
 8
EXTRUDE
 10
0.6596
 20
-0.1903
 30
1.2691
 70
192
 0
VERTEX
 8
EXTRUDE
 10
0.651
 20
-0.1903
 30
1.2697
 70
192
 0
VERTEX
 8
EXTRUDE
 10
0.6512
 20
-0.1903
 30
1.2697
 70
192
 0
VERTEX
 8
EXTRUDE
 10
0.6514
 20
-0.1903
 30
1.2698
 70
192
 0
VERTEX
 8
EXTRUDE
 10
0.6515
 20
-0.1903
 30
1.2699
 70
192
 0
VERTEX
 8
EXTRUDE
 10
0.6517
 20
-0.1903
 30
1.2701
 70
192
 0
VERTEX
 8
EXTRUDE
 10
0.6518
 20
-0.1903
 30
1.2703
 70
192
 0
VERTEX
 8
EXTRUDE
 10
0.652
 20
-0.1903
 30
1.2705
 70
192
 0
VERTEX
 8
EXTRUDE
 10
0.6522
 20
-0.1903
 30
1.2712
 70
192
 0
VERTEX
 8
EXTRUDE
 10
0.6524
 20
-0.1903
 30
1.272
 70
192
 0
VERTEX
 8
EXTRUDE
 10
0.6526
 20
-0.1903
 30
1.2739
 70
192
 0
VERTEX
 8
EXTRUDE
 10
0.6527
 20
-0.1903
 30
1.2781
 70
192
 0
VERTEX
 8
EXTRUDE
 10
0.6523
 20
-0.1903
 30
1.2871
 70
192
 0
VERTEX
 8
EXTRUDE
 10
0.6518
 20
-0.1703
 30
1.2919
 70
192
 0
VERTEX
 8
EXTRUDE
 10
0.7929
 20
-0.1703
 30
1.292
 70
192
 0
VERTEX
 8
EXTRUDE
 10
0.7934
 20
-0.1703
 30
1.292
 70
192
 0
VERTEX
 8
EXTRUDE
 10
0.7936
 20
-0.1703
 30
1.2919
 70
192
 0
VERTEX
 8
EXTRUDE
 10
0.7952
 20
-0.1703
 30
1.2012
 70
192
 0
VERTEX
 8
EXTRUDE
 10
0.7672
 20
-0.1703
 30
1.2021
 70
192
 0
VERTEX
 8
EXTRUDE
 10
0.7671
 20
-0.1703
 30
1.2022
 70
192
 0
VERTEX
 8
EXTRUDE
 10
0.7669
 20
-0.1703
 30
1.2024
 70
192
 0
VERTEX
 8
EXTRUDE
 10
0.7447
 20
-0.1703
 30
1.2271
 70
192
 0
VERTEX
 8
EXTRUDE
 10
0.731
 20
-0.1703
 30
1.239
 70
192
 0
VERTEX
 8
EXTRUDE
 10
0.7172
 20
-0.1703
 30
1.2487
 70
192
 0
VERTEX
 8
EXTRUDE
 10
0.7046
 20
-0.1703
 30
1.2558
 70
192
 0
VERTEX
 8
EXTRUDE
 10
0.6908
 20
-0.1703
 30
1.2618
 70
192
 0
VERTEX
 8
EXTRUDE
 10
0.6797
 20
-0.1703
 30
1.2654
 70
192
 0
VERTEX
 8
EXTRUDE
 10
0.6678
 20
-0.1703
 30
1.268
 70
192
 0
VERTEX
 8
EXTRUDE
 10
0.6596
 20
-0.1703
 30
1.2691
 70
192
 0
VERTEX
 8
EXTRUDE
 10
0.651
 20
-0.1703
 30
1.2697
 70
192
 0
VERTEX
 8
EXTRUDE
 10
0.6512
 20
-0.1703
 30
1.2697
 70
192
 0
VERTEX
 8
EXTRUDE
 10
0.6514
 20
-0.1703
 30
1.2698
 70
192
 0
VERTEX
 8
EXTRUDE
 10
0.6515
 20
-0.1703
 30
1.2699
 70
192
 0
VERTEX
 8
EXTRUDE
 10
0.6517
 20
-0.1703
 30
1.2701
 70
192
 0
VERTEX
 8
EXTRUDE
 10
0.6518
 20
-0.1703
 30
1.2703
 70
192
 0
VERTEX
 8
EXTRUDE
 10
0.652
 20
-0.1703
 30
1.2705
 70
192
 0
VERTEX
 8
EXTRUDE
 10
0.6522
 20
-0.1703
 30
1.2712
 70
192
 0
VERTEX
 8
EXTRUDE
 10
0.6524
 20
-0.1703
 30
1.272
 70
192
 0
VERTEX
 8
EXTRUDE
 10
0.6526
 20
-0.1703
 30
1.2739
 70
192
 0
VERTEX
 8
EXTRUDE
 10
0.6527
 20
-0.1703
 30
1.2781
 70
192
 0
VERTEX
 8
EXTRUDE
 10
0.6523
 20
-0.1703
 30
1.2871
 70
192
 0
VERTEX
 8
EXTRUDE
 10
0
 20
0
 30
0
 70
128
 71
1
 72
29
 73
30
 74
2
 0
VERTEX
 8
EXTRUDE
 10
0
 20
0
 30
0
 70
128
 71
2
 72
30
 73
31
 74
3
 0
VERTEX
 8
EXTRUDE
 10
0
 20
0
 30
0
 70
128
 71
3
 72
31
 73
32
 74
4
 0
VERTEX
 8
EXTRUDE
 10
0
 20
0
 30
0
 70
128
 71
4
 72
32
 73
33
 74
5
 0
VERTEX
 8
EXTRUDE
 10
0
 20
0
 30
0
 70
128
 71
5
 72
33
 73
34
 74
6
 0
VERTEX
 8
EXTRUDE
 10
0
 20
0
 30
0
 70
128
 71
6
 72
34
 73
35
 74
7
 0
VERTEX
 8
EXTRUDE
 10
0
 20
0
 30
0
 70
128
 71
7
 72
35
 73
36
 74
8
 0
VERTEX
 8
EXTRUDE
 10
0
 20
0
 30
0
 70
128
 71
8
 72
36
 73
37
 74
9
 0
VERTEX
 8
EXTRUDE
 10
0
 20
0
 30
0
 70
128
 71
9
 72
37
 73
38
 74
10
 0
VERTEX
 8
EXTRUDE
 10
0
 20
0
 30
0
 70
128
 71
10
 72
38
 73
39
 74
11
 0
VERTEX
 8
EXTRUDE
 10
0
 20
0
 30
0
 70
128
 71
11
 72
39
 73
40
 74
12
 0
VERTEX
 8
EXTRUDE
 10
0
 20
0
 30
0
 70
128
 71
12
 72
40
 73
41
 74
13
 0
VERTEX
 8
EXTRUDE
 10
0
 20
0
 30
0
 70
128
 71
13
 72
41
 73
42
 74
14
 0
VERTEX
 8
EXTRUDE
 10
0
 20
0
 30
0
 70
128
 71
14
 72
42
 73
43
 74
15
 0
VERTEX
 8
EXTRUDE
 10
0
 20
0
 30
0
 70
128
 71
15
 72
43
 73
44
 74
16
 0
VERTEX
 8
EXTRUDE
 10
0
 20
0
 30
0
 70
128
 71
16
 72
44
 73
45
 74
17
 0
VERTEX
 8
EXTRUDE
 10
0
 20
0
 30
0
 70
128
 71
17
 72
45
 73
46
 74
18
 0
VERTEX
 8
EXTRUDE
 10
0
 20
0
 30
0
 70
128
 71
18
 72
46
 73
47
 74
19
 0
VERTEX
 8
EXTRUDE
 10
0
 20
0
 30
0
 70
128
 71
19
 72
47
 73
48
 74
20
 0
VERTEX
 8
EXTRUDE
 10
0
 20
0
 30
0
 70
128
 71
20
 72
48
 73
49
 74
21
 0
VERTEX
 8
EXTRUDE
 10
0
 20
0
 30
0
 70
128
 71
21
 72
49
 73
50
 74
22
 0
VERTEX
 8
EXTRUDE
 10
0
 20
0
 30
0
 70
128
 71
22
 72
50
 73
51
 74
23
 0
VERTEX
 8
EXTRUDE
 10
0
 20
0
 30
0
 70
128
 71
23
 72
51
 73
52
 74
24
 0
VERTEX
 8
EXTRUDE
 10
0
 20
0
 30
0
 70
128
 71
24
 72
52
 73
53
 74
25
 0
VERTEX
 8
EXTRUDE
 10
0
 20
0
 30
0
 70
128
 71
25
 72
53
 73
54
 74
26
 0
VERTEX
 8
EXTRUDE
 10
0
 20
0
 30
0
 70
128
 71
26
 72
54
 73
55
 74
27
 0
VERTEX
 8
EXTRUDE
 10
0
 20
0
 30
0
 70
128
 71
27
 72
55
 73
56
 74
28
 0
VERTEX
 8
EXTRUDE
 10
0
 20
0
 30
0
 70
128
 71
28
 72
56
 73
29
 74
1
 0
SEQEND
 0
POLYLINE
 8
CAP_1
 66
1
 10
0.0
 20
0.0
 30
0.0
 70
64
 71
28
 72
22
 0
VERTEX
 8
CAP_1
 10
0.6518
 20
-0.1903
 30
1.2919
 70
192
 0
VERTEX
 8
CAP_1
 10
0.7929
 20
-0.1903
 30
1.292
 70
192
 0
VERTEX
 8
CAP_1
 10
0.7934
 20
-0.1903
 30
1.292
 70
192
 0
VERTEX
 8
CAP_1
 10
0.7936
 20
-0.1903
 30
1.2919
 70
192
 0
VERTEX
 8
CAP_1
 10
0.7952
 20
-0.1903
 30
1.2012
 70
192
 0
VERTEX
 8
CAP_1
 10
0.7672
 20
-0.1903
 30
1.2021
 70
192
 0
VERTEX
 8
CAP_1
 10
0.7671
 20
-0.1903
 30
1.2022
 70
192
 0
VERTEX
 8
CAP_1
 10
0.7669
 20
-0.1903
 30
1.2024
 70
192
 0
VERTEX
 8
CAP_1
 10
0.7447
 20
-0.1903
 30
1.2271
 70
192
 0
VERTEX
 8
CAP_1
 10
0.731
 20
-0.1903
 30
1.239
 70
192
 0
VERTEX
 8
CAP_1
 10
0.7172
 20
-0.1903
 30
1.2487
 70
192
 0
VERTEX
 8
CAP_1
 10
0.7046
 20
-0.1903
 30
1.2558
 70
192
 0
VERTEX
 8
CAP_1
 10
0.6908
 20
-0.1903
 30
1.2618
 70
192
 0
VERTEX
 8
CAP_1
 10
0.6797
 20
-0.1903
 30
1.2654
 70
192
 0
VERTEX
 8
CAP_1
 10
0.6678
 20
-0.1903
 30
1.268
 70
192
 0
VERTEX
 8
CAP_1
 10
0.6596
 20
-0.1903
 30
1.2691
 70
192
 0
VERTEX
 8
CAP_1
 10
0.651
 20
-0.1903
 30
1.2697
 70
192
 0
VERTEX
 8
CAP_1
 10
0.6512
 20
-0.1903
 30
1.2697
 70
192
 0
VERTEX
 8
CAP_1
 10
0.6514
 20
-0.1903
 30
1.2698
 70
192
 0
VERTEX
 8
CAP_1
 10
0.6515
 20
-0.1903
 30
1.2699
 70
192
 0
VERTEX
 8
CAP_1
 10
0.6517
 20
-0.1903
 30
1.2701
 70
192
 0
VERTEX
 8
CAP_1
 10
0.6518
 20
-0.1903
 30
1.2703
 70
192
 0
VERTEX
 8
CAP_1
 10
0.652
 20
-0.1903
 30
1.2705
 70
192
 0
VERTEX
 8
CAP_1
 10
0.6522
 20
-0.1903
 30
1.2712
 70
192
 0
VERTEX
 8
CAP_1
 10
0.6524
 20
-0.1903
 30
1.272
 70
192
 0
VERTEX
 8
CAP_1
 10
0.6526
 20
-0.1903
 30
1.2739
 70
192
 0
VERTEX
 8
CAP_1
 10
0.6527
 20
-0.1903
 30
1.2781
 70
192
 0
VERTEX
 8
CAP_1
 10
0.6523
 20
-0.1903
 30
1.2871
 70
192
 0
VERTEX
 8
CAP_1
 10
0
 20
0
 30
0
 70
128
 71
13
 72
1
 73
2
 74
12
 0
VERTEX
 8
CAP_1
 10
0
 20
0
 30
0
 70
128
 71
1
 72
13
 73
14
 74
14
 0
VERTEX
 8
CAP_1
 10
0
 20
0
 30
0
 70
128
 71
1
 72
14
 73
15
 74
28
 0
VERTEX
 8
CAP_1
 10
0
 20
0
 30
0
 70
128
 71
2
 72
3
 73
4
 74
4
 0
VERTEX
 8
CAP_1
 10
0
 20
0
 30
0
 70
128
 71
9
 72
2
 73
4
 74
5
 0
VERTEX
 8
CAP_1
 10
0
 20
0
 30
0
 70
128
 71
2
 72
9
 73
10
 74
10
 0
VERTEX
 8
CAP_1
 10
0
 20
0
 30
0
 70
128
 71
2
 72
10
 73
11
 74
11
 0
VERTEX
 8
CAP_1
 10
0
 20
0
 30
0
 70
128
 71
2
 72
11
 73
12
 74
12
 0
VERTEX
 8
CAP_1
 10
0
 20
0
 30
0
 70
128
 71
5
 72
6
 73
8
 74
8
 0
VERTEX
 8
CAP_1
 10
0
 20
0
 30
0
 70
128
 71
5
 72
8
 73
9
 74
9
 0
VERTEX
 8
CAP_1
 10
0
 20
0
 30
0
 70
128
 71
6
 72
7
 73
8
 74
8
 0
VERTEX
 8
CAP_1
 10
0
 20
0
 30
0
 70
128
 71
15
 72
16
 73
27
 74
28
 0
VERTEX
 8
CAP_1
 10
0
 20
0
 30
0
 70
128
 71
16
 72
17
 73
18
 74
18
 0
VERTEX
 8
CAP_1
 10
0
 20
0
 30
0
 70
128
 71
16
 72
18
 73
19
 74
19
 0
VERTEX
 8
CAP_1
 10
0
 20
0
 30
0
 70
128
 71
16
 72
19
 73
20
 74
20
 0
VERTEX
 8
CAP_1
 10
0
 20
0
 30
0
 70
128
 71
16
 72
20
 73
21
 74
21
 0
VERTEX
 8
CAP_1
 10
0
 20
0
 30
0
 70
128
 71
16
 72
21
 73
22
 74
22
 0
VERTEX
 8
CAP_1
 10
0
 20
0
 30
0
 70
128
 71
16
 72
22
 73
23
 74
23
 0
VERTEX
 8
CAP_1
 10
0
 20
0
 30
0
 70
128
 71
16
 72
23
 73
24
 74
24
 0
VERTEX
 8
CAP_1
 10
0
 20
0
 30
0
 70
128
 71
16
 72
24
 73
25
 74
25
 0
VERTEX
 8
CAP_1
 10
0
 20
0
 30
0
 70
128
 71
16
 72
25
 73
26
 74
26
 0
VERTEX
 8
CAP_1
 10
0
 20
0
 30
0
 70
128
 71
16
 72
26
 73
27
 74
27
 0
SEQEND
 0
POLYLINE
 8
CAP_2
 66
1
 10
0.0
 20
0.0
 30
0.0
 70
64
 71
28
 72
22
 0
VERTEX
 8
CAP_2
 10
0.6518
 20
-0.1703
 30
1.2919
 70
192
 0
VERTEX
 8
CAP_2
 10
0.7929
 20
-0.1703
 30
1.292
 70
192
 0
VERTEX
 8
CAP_2
 10
0.7934
 20
-0.1703
 30
1.292
 70
192
 0
VERTEX
 8
CAP_2
 10
0.7936
 20
-0.1703
 30
1.2919
 70
192
 0
VERTEX
 8
CAP_2
 10
0.7952
 20
-0.1703
 30
1.2012
 70
192
 0
VERTEX
 8
CAP_2
 10
0.7672
 20
-0.1703
 30
1.2021
 70
192
 0
VERTEX
 8
CAP_2
 10
0.7671
 20
-0.1703
 30
1.2022
 70
192
 0
VERTEX
 8
CAP_2
 10
0.7669
 20
-0.1703
 30
1.2024
 70
192
 0
VERTEX
 8
CAP_2
 10
0.7447
 20
-0.1703
 30
1.2271
 70
192
 0
VERTEX
 8
CAP_2
 10
0.731
 20
-0.1703
 30
1.239
 70
192
 0
VERTEX
 8
CAP_2
 10
0.7172
 20
-0.1703
 30
1.2487
 70
192
 0
VERTEX
 8
CAP_2
 10
0.7046
 20
-0.1703
 30
1.2558
 70
192
 0
VERTEX
 8
CAP_2
 10
0.6908
 20
-0.1703
 30
1.2618
 70
192
 0
VERTEX
 8
CAP_2
 10
0.6797
 20
-0.1703
 30
1.2654
 70
192
 0
VERTEX
 8
CAP_2
 10
0.6678
 20
-0.1703
 30
1.268
 70
192
 0
VERTEX
 8
CAP_2
 10
0.6596
 20
-0.1703
 30
1.2691
 70
192
 0
VERTEX
 8
CAP_2
 10
0.651
 20
-0.1703
 30
1.2697
 70
192
 0
VERTEX
 8
CAP_2
 10
0.6512
 20
-0.1703
 30
1.2697
 70
192
 0
VERTEX
 8
CAP_2
 10
0.6514
 20
-0.1703
 30
1.2698
 70
192
 0
VERTEX
 8
CAP_2
 10
0.6515
 20
-0.1703
 30
1.2699
 70
192
 0
VERTEX
 8
CAP_2
 10
0.6517
 20
-0.1703
 30
1.2701
 70
192
 0
VERTEX
 8
CAP_2
 10
0.6518
 20
-0.1703
 30
1.2703
 70
192
 0
VERTEX
 8
CAP_2
 10
0.652
 20
-0.1703
 30
1.2705
 70
192
 0
VERTEX
 8
CAP_2
 10
0.6522
 20
-0.1703
 30
1.2712
 70
192
 0
VERTEX
 8
CAP_2
 10
0.6524
 20
-0.1703
 30
1.272
 70
192
 0
VERTEX
 8
CAP_2
 10
0.6526
 20
-0.1703
 30
1.2739
 70
192
 0
VERTEX
 8
CAP_2
 10
0.6527
 20
-0.1703
 30
1.2781
 70
192
 0
VERTEX
 8
CAP_2
 10
0.6523
 20
-0.1703
 30
1.2871
 70
192
 0
VERTEX
 8
CAP_2
 10
0
 20
0
 30
0
 70
128
 71
15
 72
28
 73
27
 74
16
 0
VERTEX
 8
CAP_2
 10
0
 20
0
 30
0
 70
128
 71
1
 72
28
 73
15
 74
14
 0
VERTEX
 8
CAP_2
 10
0
 20
0
 30
0
 70
128
 71
27
 72
26
 73
16
 74
16
 0
VERTEX
 8
CAP_2
 10
0
 20
0
 30
0
 70
128
 71
26
 72
25
 73
16
 74
16
 0
VERTEX
 8
CAP_2
 10
0
 20
0
 30
0
 70
128
 71
25
 72
24
 73
16
 74
16
 0
VERTEX
 8
CAP_2
 10
0
 20
0
 30
0
 70
128
 71
24
 72
23
 73
16
 74
16
 0
VERTEX
 8
CAP_2
 10
0
 20
0
 30
0
 70
128
 71
23
 72
22
 73
16
 74
16
 0
VERTEX
 8
CAP_2
 10
0
 20
0
 30
0
 70
128
 71
22
 72
21
 73
16
 74
16
 0
VERTEX
 8
CAP_2
 10
0
 20
0
 30
0
 70
128
 71
21
 72
20
 73
16
 74
16
 0
VERTEX
 8
CAP_2
 10
0
 20
0
 30
0
 70
128
 71
20
 72
19
 73
16
 74
16
 0
VERTEX
 8
CAP_2
 10
0
 20
0
 30
0
 70
128
 71
19
 72
18
 73
16
 74
16
 0
VERTEX
 8
CAP_2
 10
0
 20
0
 30
0
 70
128
 71
18
 72
17
 73
16
 74
16
 0
VERTEX
 8
CAP_2
 10
0
 20
0
 30
0
 70
128
 71
14
 72
13
 73
1
 74
1
 0
VERTEX
 8
CAP_2
 10
0
 20
0
 30
0
 70
128
 71
13
 72
12
 73
2
 74
1
 0
VERTEX
 8
CAP_2
 10
0
 20
0
 30
0
 70
128
 71
12
 72
11
 73
2
 74
2
 0
VERTEX
 8
CAP_2
 10
0
 20
0
 30
0
 70
128
 71
11
 72
10
 73
2
 74
2
 0
VERTEX
 8
CAP_2
 10
0
 20
0
 30
0
 70
128
 71
10
 72
9
 73
2
 74
2
 0
VERTEX
 8
CAP_2
 10
0
 20
0
 30
0
 70
128
 71
9
 72
8
 73
5
 74
5
 0
VERTEX
 8
CAP_2
 10
0
 20
0
 30
0
 70
128
 71
9
 72
5
 73
4
 74
2
 0
VERTEX
 8
CAP_2
 10
0
 20
0
 30
0
 70
128
 71
8
 72
7
 73
6
 74
6
 0
VERTEX
 8
CAP_2
 10
0
 20
0
 30
0
 70
128
 71
8
 72
6
 73
5
 74
5
 0
VERTEX
 8
CAP_2
 10
0
 20
0
 30
0
 70
128
 71
4
 72
3
 73
2
 74
2
 0
SEQEND
 0
POLYLINE
 8
CYLINDER_6
 66
1
 10
0.0
 20
0.0
 30
0.0
 70
64
 71
146
 72
108
 0
VERTEX
 8
CYLINDER_6
 10
-0.4546
 20
-0.611
 30
-1.0164
 70
192
 0
VERTEX
 8
CYLINDER_6
 10
-0.7889
 20
-0.611
 30
-1.0164
 70
192
 0
VERTEX
 8
CYLINDER_6
 10
-0.4546
 20
-0.6081
 30
-1.0015
 70
192
 0
VERTEX
 8
CYLINDER_6
 10
-0.4546
 20
-0.6081
 30
-1.0015
 70
192
 0
VERTEX
 8
CYLINDER_6
 10
-0.7889
 20
-0.6081
 30
-1.0015
 70
192
 0
VERTEX
 8
CYLINDER_6
 10
-0.7889
 20
-0.6081
 30
-1.0015
 70
192
 0
VERTEX
 8
CYLINDER_6
 10
-0.4546
 20
-0.6055
 30
-1.0022
 70
192
 0
VERTEX
 8
CYLINDER_6
 10
-0.4546
 20
-0.6055
 30
-1.0022
 70
192
 0
VERTEX
 8
CYLINDER_6
 10
-0.7889
 20
-0.6055
 30
-1.0022
 70
192
 0
VERTEX
 8
CYLINDER_6
 10
-0.7889
 20
-0.6055
 30
-1.0022
 70
192
 0
VERTEX
 8
CYLINDER_6
 10
-0.4546
 20
-0.6032
 30
-1.0034
 70
192
 0
VERTEX
 8
CYLINDER_6
 10
-0.4546
 20
-0.6032
 30
-1.0034
 70
192
 0
VERTEX
 8
CYLINDER_6
 10
-0.7889
 20
-0.6032
 30
-1.0034
 70
192
 0
VERTEX
 8
CYLINDER_6
 10
-0.7889
 20
-0.6032
 30
-1.0034
 70
192
 0
VERTEX
 8
CYLINDER_6
 10
-0.4546
 20
-0.601
 30
-1.005
 70
192
 0
VERTEX
 8
CYLINDER_6
 10
-0.4546
 20
-0.601
 30
-1.005
 70
192
 0
VERTEX
 8
CYLINDER_6
 10
-0.7889
 20
-0.601
 30
-1.005
 70
192
 0
VERTEX
 8
CYLINDER_6
 10
-0.7889
 20
-0.601
 30
-1.005
 70
192
 0
VERTEX
 8
CYLINDER_6
 10
-0.4546
 20
-0.5992
 30
-1.0069
 70
192
 0
VERTEX
 8
CYLINDER_6
 10
-0.4546
 20
-0.5992
 30
-1.0069
 70
192
 0
VERTEX
 8
CYLINDER_6
 10
-0.7889
 20
-0.5992
 30
-1.0069
 70
192
 0
VERTEX
 8
CYLINDER_6
 10
-0.7889
 20
-0.5992
 30
-1.0069
 70
192
 0
VERTEX
 8
CYLINDER_6
 10
-0.4546
 20
-0.5977
 30
-1.0091
 70
192
 0
VERTEX
 8
CYLINDER_6
 10
-0.4546
 20
-0.5977
 30
-1.0091
 70
192
 0
VERTEX
 8
CYLINDER_6
 10
-0.7889
 20
-0.5977
 30
-1.0091
 70
192
 0
VERTEX
 8
CYLINDER_6
 10
-0.7889
 20
-0.5977
 30
-1.0091
 70
192
 0
VERTEX
 8
CYLINDER_6
 10
-0.4546
 20
-0.5967
 30
-1.0115
 70
192
 0
VERTEX
 8
CYLINDER_6
 10
-0.4546
 20
-0.5967
 30
-1.0115
 70
192
 0
VERTEX
 8
CYLINDER_6
 10
-0.7889
 20
-0.5967
 30
-1.0115
 70
192
 0
VERTEX
 8
CYLINDER_6
 10
-0.7889
 20
-0.5967
 30
-1.0115
 70
192
 0
VERTEX
 8
CYLINDER_6
 10
-0.4546
 20
-0.596
 30
-1.0141
 70
192
 0
VERTEX
 8
CYLINDER_6
 10
-0.4546
 20
-0.596
 30
-1.0141
 70
192
 0
VERTEX
 8
CYLINDER_6
 10
-0.7889
 20
-0.596
 30
-1.0141
 70
192
 0
VERTEX
 8
CYLINDER_6
 10
-0.7889
 20
-0.596
 30
-1.0141
 70
192
 0
VERTEX
 8
CYLINDER_6
 10
-0.4546
 20
-0.5959
 30
-1.0167
 70
192
 0
VERTEX
 8
CYLINDER_6
 10
-0.4546
 20
-0.5959
 30
-1.0167
 70
192
 0
VERTEX
 8
CYLINDER_6
 10
-0.7889
 20
-0.5959
 30
-1.0167
 70
192
 0
VERTEX
 8
CYLINDER_6
 10
-0.7889
 20
-0.5959
 30
-1.0167
 70
192
 0
VERTEX
 8
CYLINDER_6
 10
-0.4546
 20
-0.5961
 30
-1.0193
 70
192
 0
VERTEX
 8
CYLINDER_6
 10
-0.4546
 20
-0.5961
 30
-1.0193
 70
192
 0
VERTEX
 8
CYLINDER_6
 10
-0.7889
 20
-0.5961
 30
-1.0193
 70
192
 0
VERTEX
 8
CYLINDER_6
 10
-0.7889
 20
-0.5961
 30
-1.0193
 70
192
 0
VERTEX
 8
CYLINDER_6
 10
-0.4546
 20
-0.5969
 30
-1.0219
 70
192
 0
VERTEX
 8
CYLINDER_6
 10
-0.4546
 20
-0.5969
 30
-1.0219
 70
192
 0
VERTEX
 8
CYLINDER_6
 10
-0.7889
 20
-0.5969
 30
-1.0219
 70
192
 0
VERTEX
 8
CYLINDER_6
 10
-0.7889
 20
-0.5969
 30
-1.0219
 70
192
 0
VERTEX
 8
CYLINDER_6
 10
-0.4546
 20
-0.5981
 30
-1.0242
 70
192
 0
VERTEX
 8
CYLINDER_6
 10
-0.4546
 20
-0.5981
 30
-1.0242
 70
192
 0
VERTEX
 8
CYLINDER_6
 10
-0.7889
 20
-0.5981
 30
-1.0242
 70
192
 0
VERTEX
 8
CYLINDER_6
 10
-0.7889
 20
-0.5981
 30
-1.0242
 70
192
 0
VERTEX
 8
CYLINDER_6
 10
-0.4546
 20
-0.5996
 30
-1.0264
 70
192
 0
VERTEX
 8
CYLINDER_6
 10
-0.4546
 20
-0.5996
 30
-1.0264
 70
192
 0
VERTEX
 8
CYLINDER_6
 10
-0.7889
 20
-0.5996
 30
-1.0264
 70
192
 0
VERTEX
 8
CYLINDER_6
 10
-0.7889
 20
-0.5996
 30
-1.0264
 70
192
 0
VERTEX
 8
CYLINDER_6
 10
-0.4546
 20
-0.6015
 30
-1.0282
 70
192
 0
VERTEX
 8
CYLINDER_6
 10
-0.4546
 20
-0.6015
 30
-1.0282
 70
192
 0
VERTEX
 8
CYLINDER_6
 10
-0.7889
 20
-0.6015
 30
-1.0282
 70
192
 0
VERTEX
 8
CYLINDER_6
 10
-0.7889
 20
-0.6015
 30
-1.0282
 70
192
 0
VERTEX
 8
CYLINDER_6
 10
-0.4546
 20
-0.6037
 30
-1.0297
 70
192
 0
VERTEX
 8
CYLINDER_6
 10
-0.4546
 20
-0.6037
 30
-1.0297
 70
192
 0
VERTEX
 8
CYLINDER_6
 10
-0.7889
 20
-0.6037
 30
-1.0297
 70
192
 0
VERTEX
 8
CYLINDER_6
 10
-0.7889
 20
-0.6037
 30
-1.0297
 70
192
 0
VERTEX
 8
CYLINDER_6
 10
-0.4546
 20
-0.6061
 30
-1.0307
 70
192
 0
VERTEX
 8
CYLINDER_6
 10
-0.4546
 20
-0.6061
 30
-1.0307
 70
192
 0
VERTEX
 8
CYLINDER_6
 10
-0.7889
 20
-0.6061
 30
-1.0307
 70
192
 0
VERTEX
 8
CYLINDER_6
 10
-0.7889
 20
-0.6061
 30
-1.0307
 70
192
 0
VERTEX
 8
CYLINDER_6
 10
-0.4546
 20
-0.6087
 30
-1.0313
 70
192
 0
VERTEX
 8
CYLINDER_6
 10
-0.4546
 20
-0.6087
 30
-1.0313
 70
192
 0
VERTEX
 8
CYLINDER_6
 10
-0.7889
 20
-0.6087
 30
-1.0313
 70
192
 0
VERTEX
 8
CYLINDER_6
 10
-0.7889
 20
-0.6087
 30
-1.0313
 70
192
 0
VERTEX
 8
CYLINDER_6
 10
-0.4546
 20
-0.6113
 30
-1.0315
 70
192
 0
VERTEX
 8
CYLINDER_6
 10
-0.4546
 20
-0.6113
 30
-1.0315
 70
192
 0
VERTEX
 8
CYLINDER_6
 10
-0.7889
 20
-0.6113
 30
-1.0315
 70
192
 0
VERTEX
 8
CYLINDER_6
 10
-0.7889
 20
-0.6113
 30
-1.0315
 70
192
 0
VERTEX
 8
CYLINDER_6
 10
-0.4546
 20
-0.614
 30
-1.0312
 70
192
 0
VERTEX
 8
CYLINDER_6
 10
-0.4546
 20
-0.614
 30
-1.0312
 70
192
 0
VERTEX
 8
CYLINDER_6
 10
-0.7889
 20
-0.614
 30
-1.0312
 70
192
 0
VERTEX
 8
CYLINDER_6
 10
-0.7889
 20
-0.614
 30
-1.0312
 70
192
 0
VERTEX
 8
CYLINDER_6
 10
-0.4546
 20
-0.6165
 30
-1.0305
 70
192
 0
VERTEX
 8
CYLINDER_6
 10
-0.4546
 20
-0.6165
 30
-1.0305
 70
192
 0
VERTEX
 8
CYLINDER_6
 10
-0.7889
 20
-0.6165
 30
-1.0305
 70
192
 0
VERTEX
 8
CYLINDER_6
 10
-0.7889
 20
-0.6165
 30
-1.0305
 70
192
 0
VERTEX
 8
CYLINDER_6
 10
-0.4546
 20
-0.6189
 30
-1.0293
 70
192
 0
VERTEX
 8
CYLINDER_6
 10
-0.4546
 20
-0.6189
 30
-1.0293
 70
192
 0
VERTEX
 8
CYLINDER_6
 10
-0.7889
 20
-0.6189
 30
-1.0293
 70
192
 0
VERTEX
 8
CYLINDER_6
 10
-0.7889
 20
-0.6189
 30
-1.0293
 70
192
 0
VERTEX
 8
CYLINDER_6
 10
-0.4546
 20
-0.621
 30
-1.0278
 70
192
 0
VERTEX
 8
CYLINDER_6
 10
-0.4546
 20
-0.621
 30
-1.0278
 70
192
 0
VERTEX
 8
CYLINDER_6
 10
-0.7889
 20
-0.621
 30
-1.0278
 70
192
 0
VERTEX
 8
CYLINDER_6
 10
-0.7889
 20
-0.621
 30
-1.0278
 70
192
 0
VERTEX
 8
CYLINDER_6
 10
-0.4546
 20
-0.6228
 30
-1.0259
 70
192
 0
VERTEX
 8
CYLINDER_6
 10
-0.4546
 20
-0.6228
 30
-1.0259
 70
192
 0
VERTEX
 8
CYLINDER_6
 10
-0.7889
 20
-0.6228
 30
-1.0259
 70
192
 0
VERTEX
 8
CYLINDER_6
 10
-0.7889
 20
-0.6228
 30
-1.0259
 70
192
 0
VERTEX
 8
CYLINDER_6
 10
-0.4546
 20
-0.6243
 30
-1.0237
 70
192
 0
VERTEX
 8
CYLINDER_6
 10
-0.4546
 20
-0.6243
 30
-1.0237
 70
192
 0
VERTEX
 8
CYLINDER_6
 10
-0.7889
 20
-0.6243
 30
-1.0237
 70
192
 0
VERTEX
 8
CYLINDER_6
 10
-0.7889
 20
-0.6243
 30
-1.0237
 70
192
 0
VERTEX
 8
CYLINDER_6
 10
-0.4546
 20
-0.6254
 30
-1.0212
 70
192
 0
VERTEX
 8
CYLINDER_6
 10
-0.4546
 20
-0.6254
 30
-1.0212
 70
192
 0
VERTEX
 8
CYLINDER_6
 10
-0.7889
 20
-0.6254
 30
-1.0212
 70
192
 0
VERTEX
 8
CYLINDER_6
 10
-0.7889
 20
-0.6254
 30
-1.0212
 70
192
 0
VERTEX
 8
CYLINDER_6
 10
-0.4546
 20
-0.626
 30
-1.0187
 70
192
 0
VERTEX
 8
CYLINDER_6
 10
-0.4546
 20
-0.626
 30
-1.0187
 70
192
 0
VERTEX
 8
CYLINDER_6
 10
-0.7889
 20
-0.626
 30
-1.0187
 70
192
 0
VERTEX
 8
CYLINDER_6
 10
-0.7889
 20
-0.626
 30
-1.0187
 70
192
 0
VERTEX
 8
CYLINDER_6
 10
-0.4546
 20
-0.6262
 30
-1.016
 70
192
 0
VERTEX
 8
CYLINDER_6
 10
-0.4546
 20
-0.6262
 30
-1.016
 70
192
 0
VERTEX
 8
CYLINDER_6
 10
-0.7889
 20
-0.6262
 30
-1.016
 70
192
 0
VERTEX
 8
CYLINDER_6
 10
-0.7889
 20
-0.6262
 30
-1.016
 70
192
 0
VERTEX
 8
CYLINDER_6
 10
-0.4546
 20
-0.6259
 30
-1.0134
 70
192
 0
VERTEX
 8
CYLINDER_6
 10
-0.4546
 20
-0.6259
 30
-1.0134
 70
192
 0
VERTEX
 8
CYLINDER_6
 10
-0.7889
 20
-0.6259
 30
-1.0134
 70
192
 0
VERTEX
 8
CYLINDER_6
 10
-0.7889
 20
-0.6259
 30
-1.0134
 70
192
 0
VERTEX
 8
CYLINDER_6
 10
-0.4546
 20
-0.6251
 30
-1.0109
 70
192
 0
VERTEX
 8
CYLINDER_6
 10
-0.4546
 20
-0.6251
 30
-1.0109
 70
192
 0
VERTEX
 8
CYLINDER_6
 10
-0.7889
 20
-0.6251
 30
-1.0109
 70
192
 0
VERTEX
 8
CYLINDER_6
 10
-0.7889
 20
-0.6251
 30
-1.0109
 70
192
 0
VERTEX
 8
CYLINDER_6
 10
-0.4546
 20
-0.624
 30
-1.0085
 70
192
 0
VERTEX
 8
CYLINDER_6
 10
-0.4546
 20
-0.624
 30
-1.0085
 70
192
 0
VERTEX
 8
CYLINDER_6
 10
-0.7889
 20
-0.624
 30
-1.0085
 70
192
 0
VERTEX
 8
CYLINDER_6
 10
-0.7889
 20
-0.624
 30
-1.0085
 70
192
 0
VERTEX
 8
CYLINDER_6
 10
-0.4546
 20
-0.6224
 30
-1.0064
 70
192
 0
VERTEX
 8
CYLINDER_6
 10
-0.4546
 20
-0.6224
 30
-1.0064
 70
192
 0
VERTEX
 8
CYLINDER_6
 10
-0.7889
 20
-0.6224
 30
-1.0064
 70
192
 0
VERTEX
 8
CYLINDER_6
 10
-0.7889
 20
-0.6224
 30
-1.0064
 70
192
 0
VERTEX
 8
CYLINDER_6
 10
-0.4546
 20
-0.6205
 30
-1.0046
 70
192
 0
VERTEX
 8
CYLINDER_6
 10
-0.4546
 20
-0.6205
 30
-1.0046
 70
192
 0
VERTEX
 8
CYLINDER_6
 10
-0.7889
 20
-0.6205
 30
-1.0046
 70
192
 0
VERTEX
 8
CYLINDER_6
 10
-0.7889
 20
-0.6205
 30
-1.0046
 70
192
 0
VERTEX
 8
CYLINDER_6
 10
-0.4546
 20
-0.6183
 30
-1.0031
 70
192
 0
VERTEX
 8
CYLINDER_6
 10
-0.4546
 20
-0.6183
 30
-1.0031
 70
192
 0
VERTEX
 8
CYLINDER_6
 10
-0.7889
 20
-0.6183
 30
-1.0031
 70
192
 0
VERTEX
 8
CYLINDER_6
 10
-0.7889
 20
-0.6183
 30
-1.0031
 70
192
 0
VERTEX
 8
CYLINDER_6
 10
-0.4546
 20
-0.6159
 30
-1.002
 70
192
 0
VERTEX
 8
CYLINDER_6
 10
-0.4546
 20
-0.6159
 30
-1.002
 70
192
 0
VERTEX
 8
CYLINDER_6
 10
-0.7889
 20
-0.6159
 30
-1.002
 70
192
 0
VERTEX
 8
CYLINDER_6
 10
-0.7889
 20
-0.6159
 30
-1.002
 70
192
 0
VERTEX
 8
CYLINDER_6
 10
-0.4546
 20
-0.6133
 30
-1.0014
 70
192
 0
VERTEX
 8
CYLINDER_6
 10
-0.4546
 20
-0.6133
 30
-1.0014
 70
192
 0
VERTEX
 8
CYLINDER_6
 10
-0.7889
 20
-0.6133
 30
-1.0014
 70
192
 0
VERTEX
 8
CYLINDER_6
 10
-0.7889
 20
-0.6133
 30
-1.0014
 70
192
 0
VERTEX
 8
CYLINDER_6
 10
-0.4546
 20
-0.6107
 30
-1.0012
 70
192
 0
VERTEX
 8
CYLINDER_6
 10
-0.4546
 20
-0.6107
 30
-1.0012
 70
192
 0
VERTEX
 8
CYLINDER_6
 10
-0.7889
 20
-0.6107
 30
-1.0012
 70
192
 0
VERTEX
 8
CYLINDER_6
 10
-0.7889
 20
-0.6107
 30
-1.0012
 70
192
 0
VERTEX
 8
CYLINDER_6
 10
0
 20
0
 30
0
 70
128
 71
1
 72
3
 73
7
 74
7
 0
VERTEX
 8
CYLINDER_6
 10
0
 20
0
 30
0
 70
128
 71
4
 72
5
 73
9
 74
8
 0
VERTEX
 8
CYLINDER_6
 10
0
 20
0
 30
0
 70
128
 71
6
 72
2
 73
10
 74
10
 0
VERTEX
 8
CYLINDER_6
 10
0
 20
0
 30
0
 70
128
 71
1
 72
7
 73
11
 74
11
 0
VERTEX
 8
CYLINDER_6
 10
0
 20
0
 30
0
 70
128
 71
8
 72
9
 73
13
 74
12
 0
VERTEX
 8
CYLINDER_6
 10
0
 20
0
 30
0
 70
128
 71
10
 72
2
 73
14
 74
14
 0
VERTEX
 8
CYLINDER_6
 10
0
 20
0
 30
0
 70
128
 71
1
 72
11
 73
15
 74
15
 0
VERTEX
 8
CYLINDER_6
 10
0
 20
0
 30
0
 70
128
 71
12
 72
13
 73
17
 74
16
 0
VERTEX
 8
CYLINDER_6
 10
0
 20
0
 30
0
 70
128
 71
14
 72
2
 73
18
 74
18
 0
VERTEX
 8
CYLINDER_6
 10
0
 20
0
 30
0
 70
128
 71
1
 72
15
 73
19
 74
19
 0
VERTEX
 8
CYLINDER_6
 10
0
 20
0
 30
0
 70
128
 71
16
 72
17
 73
21
 74
20
 0
VERTEX
 8
CYLINDER_6
 10
0
 20
0
 30
0
 70
128
 71
18
 72
2
 73
22
 74
22
 0
VERTEX
 8
CYLINDER_6
 10
0
 20
0
 30
0
 70
128
 71
1
 72
19
 73
23
 74
23
 0
VERTEX
 8
CYLINDER_6
 10
0
 20
0
 30
0
 70
128
 71
20
 72
21
 73
25
 74
24
 0
VERTEX
 8
CYLINDER_6
 10
0
 20
0
 30
0
 70
128
 71
22
 72
2
 73
26
 74
26
 0
VERTEX
 8
CYLINDER_6
 10
0
 20
0
 30
0
 70
128
 71
1
 72
23
 73
27
 74
27
 0
VERTEX
 8
CYLINDER_6
 10
0
 20
0
 30
0
 70
128
 71
24
 72
25
 73
29
 74
28
 0
VERTEX
 8
CYLINDER_6
 10
0
 20
0
 30
0
 70
128
 71
26
 72
2
 73
30
 74
30
 0
VERTEX
 8
CYLINDER_6
 10
0
 20
0
 30
0
 70
128
 71
1
 72
27
 73
31
 74
31
 0
VERTEX
 8
CYLINDER_6
 10
0
 20
0
 30
0
 70
128
 71
28
 72
29
 73
33
 74
32
 0
VERTEX
 8
CYLINDER_6
 10
0
 20
0
 30
0
 70
128
 71
30
 72
2
 73
34
 74
34
 0
VERTEX
 8
CYLINDER_6
 10
0
 20
0
 30
0
 70
128
 71
1
 72
31
 73
35
 74
35
 0
VERTEX
 8
CYLINDER_6
 10
0
 20
0
 30
0
 70
128
 71
32
 72
33
 73
37
 74
36
 0
VERTEX
 8
CYLINDER_6
 10
0
 20
0
 30
0
 70
128
 71
34
 72
2
 73
38
 74
38
 0
VERTEX
 8
CYLINDER_6
 10
0
 20
0
 30
0
 70
128
 71
1
 72
35
 73
39
 74
39
 0
VERTEX
 8
CYLINDER_6
 10
0
 20
0
 30
0
 70
128
 71
36
 72
37
 73
41
 74
40
 0
VERTEX
 8
CYLINDER_6
 10
0
 20
0
 30
0
 70
128
 71
38
 72
2
 73
42
 74
42
 0
VERTEX
 8
CYLINDER_6
 10
0
 20
0
 30
0
 70
128
 71
1
 72
39
 73
43
 74
43
 0
VERTEX
 8
CYLINDER_6
 10
0
 20
0
 30
0
 70
128
 71
40
 72
41
 73
45
 74
44
 0
VERTEX
 8
CYLINDER_6
 10
0
 20
0
 30
0
 70
128
 71
42
 72
2
 73
46
 74
46
 0
VERTEX
 8
CYLINDER_6
 10
0
 20
0
 30
0
 70
128
 71
1
 72
43
 73
47
 74
47
 0
VERTEX
 8
CYLINDER_6
 10
0
 20
0
 30
0
 70
128
 71
44
 72
45
 73
49
 74
48
 0
VERTEX
 8
CYLINDER_6
 10
0
 20
0
 30
0
 70
128
 71
46
 72
2
 73
50
 74
50
 0
VERTEX
 8
CYLINDER_6
 10
0
 20
0
 30
0
 70
128
 71
1
 72
47
 73
51
 74
51
 0
VERTEX
 8
CYLINDER_6
 10
0
 20
0
 30
0
 70
128
 71
48
 72
49
 73
53
 74
52
 0
VERTEX
 8
CYLINDER_6
 10
0
 20
0
 30
0
 70
128
 71
50
 72
2
 73
54
 74
54
 0
VERTEX
 8
CYLINDER_6
 10
0
 20
0
 30
0
 70
128
 71
1
 72
51
 73
55
 74
55
 0
VERTEX
 8
CYLINDER_6
 10
0
 20
0
 30
0
 70
128
 71
52
 72
53
 73
57
 74
56
 0
VERTEX
 8
CYLINDER_6
 10
0
 20
0
 30
0
 70
128
 71
54
 72
2
 73
58
 74
58
 0
VERTEX
 8
CYLINDER_6
 10
0
 20
0
 30
0
 70
128
 71
1
 72
55
 73
59
 74
59
 0
VERTEX
 8
CYLINDER_6
 10
0
 20
0
 30
0
 70
128
 71
56
 72
57
 73
61
 74
60
 0
VERTEX
 8
CYLINDER_6
 10
0
 20
0
 30
0
 70
128
 71
58
 72
2
 73
62
 74
62
 0
VERTEX
 8
CYLINDER_6
 10
0
 20
0
 30
0
 70
128
 71
1
 72
59
 73
63
 74
63
 0
VERTEX
 8
CYLINDER_6
 10
0
 20
0
 30
0
 70
128
 71
60
 72
61
 73
65
 74
64
 0
VERTEX
 8
CYLINDER_6
 10
0
 20
0
 30
0
 70
128
 71
62
 72
2
 73
66
 74
66
 0
VERTEX
 8
CYLINDER_6
 10
0
 20
0
 30
0
 70
128
 71
1
 72
63
 73
67
 74
67
 0
VERTEX
 8
CYLINDER_6
 10
0
 20
0
 30
0
 70
128
 71
64
 72
65
 73
69
 74
68
 0
VERTEX
 8
CYLINDER_6
 10
0
 20
0
 30
0
 70
128
 71
66
 72
2
 73
70
 74
70
 0
VERTEX
 8
CYLINDER_6
 10
0
 20
0
 30
0
 70
128
 71
1
 72
67
 73
71
 74
71
 0
VERTEX
 8
CYLINDER_6
 10
0
 20
0
 30
0
 70
128
 71
68
 72
69
 73
73
 74
72
 0
VERTEX
 8
CYLINDER_6
 10
0
 20
0
 30
0
 70
128
 71
70
 72
2
 73
74
 74
74
 0
VERTEX
 8
CYLINDER_6
 10
0
 20
0
 30
0
 70
128
 71
1
 72
71
 73
75
 74
75
 0
VERTEX
 8
CYLINDER_6
 10
0
 20
0
 30
0
 70
128
 71
72
 72
73
 73
77
 74
76
 0
VERTEX
 8
CYLINDER_6
 10
0
 20
0
 30
0
 70
128
 71
74
 72
2
 73
78
 74
78
 0
VERTEX
 8
CYLINDER_6
 10
0
 20
0
 30
0
 70
128
 71
1
 72
75
 73
79
 74
79
 0
VERTEX
 8
CYLINDER_6
 10
0
 20
0
 30
0
 70
128
 71
76
 72
77
 73
81
 74
80
 0
VERTEX
 8
CYLINDER_6
 10
0
 20
0
 30
0
 70
128
 71
78
 72
2
 73
82
 74
82
 0
VERTEX
 8
CYLINDER_6
 10
0
 20
0
 30
0
 70
128
 71
1
 72
79
 73
83
 74
83
 0
VERTEX
 8
CYLINDER_6
 10
0
 20
0
 30
0
 70
128
 71
80
 72
81
 73
85
 74
84
 0
VERTEX
 8
CYLINDER_6
 10
0
 20
0
 30
0
 70
128
 71
82
 72
2
 73
86
 74
86
 0
VERTEX
 8
CYLINDER_6
 10
0
 20
0
 30
0
 70
128
 71
1
 72
83
 73
87
 74
87
 0
VERTEX
 8
CYLINDER_6
 10
0
 20
0
 30
0
 70
128
 71
84
 72
85
 73
89
 74
88
 0
VERTEX
 8
CYLINDER_6
 10
0
 20
0
 30
0
 70
128
 71
86
 72
2
 73
90
 74
90
 0
VERTEX
 8
CYLINDER_6
 10
0
 20
0
 30
0
 70
128
 71
1
 72
87
 73
91
 74
91
 0
VERTEX
 8
CYLINDER_6
 10
0
 20
0
 30
0
 70
128
 71
88
 72
89
 73
93
 74
92
 0
VERTEX
 8
CYLINDER_6
 10
0
 20
0
 30
0
 70
128
 71
90
 72
2
 73
94
 74
94
 0
VERTEX
 8
CYLINDER_6
 10
0
 20
0
 30
0
 70
128
 71
1
 72
91
 73
95
 74
95
 0
VERTEX
 8
CYLINDER_6
 10
0
 20
0
 30
0
 70
128
 71
92
 72
93
 73
97
 74
96
 0
VERTEX
 8
CYLINDER_6
 10
0
 20
0
 30
0
 70
128
 71
94
 72
2
 73
98
 74
98
 0
VERTEX
 8
CYLINDER_6
 10
0
 20
0
 30
0
 70
128
 71
1
 72
95
 73
99
 74
99
 0
VERTEX
 8
CYLINDER_6
 10
0
 20
0
 30
0
 70
128
 71
96
 72
97
 73
101
 74
100
 0
VERTEX
 8
CYLINDER_6
 10
0
 20
0
 30
0
 70
128
 71
98
 72
2
 73
102
 74
102
 0
VERTEX
 8
CYLINDER_6
 10
0
 20
0
 30
0
 70
128
 71
1
 72
99
 73
103
 74
103
 0
VERTEX
 8
CYLINDER_6
 10
0
 20
0
 30
0
 70
128
 71
100
 72
101
 73
105
 74
104
 0
VERTEX
 8
CYLINDER_6
 10
0
 20
0
 30
0
 70
128
 71
102
 72
2
 73
106
 74
106
 0
VERTEX
 8
CYLINDER_6
 10
0
 20
0
 30
0
 70
128
 71
1
 72
103
 73
107
 74
107
 0
VERTEX
 8
CYLINDER_6
 10
0
 20
0
 30
0
 70
128
 71
104
 72
105
 73
109
 74
108
 0
VERTEX
 8
CYLINDER_6
 10
0
 20
0
 30
0
 70
128
 71
106
 72
2
 73
110
 74
110
 0
VERTEX
 8
CYLINDER_6
 10
0
 20
0
 30
0
 70
128
 71
1
 72
107
 73
111
 74
111
 0
VERTEX
 8
CYLINDER_6
 10
0
 20
0
 30
0
 70
128
 71
108
 72
109
 73
113
 74
112
 0
VERTEX
 8
CYLINDER_6
 10
0
 20
0
 30
0
 70
128
 71
110
 72
2
 73
114
 74
114
 0
VERTEX
 8
CYLINDER_6
 10
0
 20
0
 30
0
 70
128
 71
1
 72
111
 73
115
 74
115
 0
VERTEX
 8
CYLINDER_6
 10
0
 20
0
 30
0
 70
128
 71
112
 72
113
 73
117
 74
116
 0
VERTEX
 8
CYLINDER_6
 10
0
 20
0
 30
0
 70
128
 71
114
 72
2
 73
118
 74
118
 0
VERTEX
 8
CYLINDER_6
 10
0
 20
0
 30
0
 70
128
 71
1
 72
115
 73
119
 74
119
 0
VERTEX
 8
CYLINDER_6
 10
0
 20
0
 30
0
 70
128
 71
116
 72
117
 73
121
 74
120
 0
VERTEX
 8
CYLINDER_6
 10
0
 20
0
 30
0
 70
128
 71
118
 72
2
 73
122
 74
122
 0
VERTEX
 8
CYLINDER_6
 10
0
 20
0
 30
0
 70
128
 71
1
 72
119
 73
123
 74
123
 0
VERTEX
 8
CYLINDER_6
 10
0
 20
0
 30
0
 70
128
 71
120
 72
121
 73
125
 74
124
 0
VERTEX
 8
CYLINDER_6
 10
0
 20
0
 30
0
 70
128
 71
122
 72
2
 73
126
 74
126
 0
VERTEX
 8
CYLINDER_6
 10
0
 20
0
 30
0
 70
128
 71
1
 72
123
 73
127
 74
127
 0
VERTEX
 8
CYLINDER_6
 10
0
 20
0
 30
0
 70
128
 71
124
 72
125
 73
129
 74
128
 0
VERTEX
 8
CYLINDER_6
 10
0
 20
0
 30
0
 70
128
 71
126
 72
2
 73
130
 74
130
 0
VERTEX
 8
CYLINDER_6
 10
0
 20
0
 30
0
 70
128
 71
1
 72
127
 73
131
 74
131
 0
VERTEX
 8
CYLINDER_6
 10
0
 20
0
 30
0
 70
128
 71
128
 72
129
 73
133
 74
132
 0
VERTEX
 8
CYLINDER_6
 10
0
 20
0
 30
0
 70
128
 71
130
 72
2
 73
134
 74
134
 0
VERTEX
 8
CYLINDER_6
 10
0
 20
0
 30
0
 70
128
 71
1
 72
131
 73
135
 74
135
 0
VERTEX
 8
CYLINDER_6
 10
0
 20
0
 30
0
 70
128
 71
132
 72
133
 73
137
 74
136
 0
VERTEX
 8
CYLINDER_6
 10
0
 20
0
 30
0
 70
128
 71
134
 72
2
 73
138
 74
138
 0
VERTEX
 8
CYLINDER_6
 10
0
 20
0
 30
0
 70
128
 71
1
 72
135
 73
139
 74
139
 0
VERTEX
 8
CYLINDER_6
 10
0
 20
0
 30
0
 70
128
 71
136
 72
137
 73
141
 74
140
 0
VERTEX
 8
CYLINDER_6
 10
0
 20
0
 30
0
 70
128
 71
138
 72
2
 73
142
 74
142
 0
VERTEX
 8
CYLINDER_6
 10
0
 20
0
 30
0
 70
128
 71
1
 72
139
 73
143
 74
143
 0
VERTEX
 8
CYLINDER_6
 10
0
 20
0
 30
0
 70
128
 71
140
 72
141
 73
145
 74
144
 0
VERTEX
 8
CYLINDER_6
 10
0
 20
0
 30
0
 70
128
 71
142
 72
2
 73
146
 74
146
 0
VERTEX
 8
CYLINDER_6
 10
0
 20
0
 30
0
 70
128
 71
1
 72
143
 73
3
 74
3
 0
VERTEX
 8
CYLINDER_6
 10
0
 20
0
 30
0
 70
128
 71
144
 72
145
 73
5
 74
4
 0
VERTEX
 8
CYLINDER_6
 10
0
 20
0
 30
0
 70
128
 71
146
 72
2
 73
6
 74
6
 0
SEQEND
 0
POLYLINE
 8
CYLINDER_5
 66
1
 10
0.0
 20
0.0
 30
0.0
 70
64
 71
146
 72
108
 0
VERTEX
 8
CYLINDER_5
 10
-0.4546
 20
-0.5487
 30
-0.7025
 70
192
 0
VERTEX
 8
CYLINDER_5
 10
-0.7889
 20
-0.5487
 30
-0.7025
 70
192
 0
VERTEX
 8
CYLINDER_5
 10
-0.4546
 20
-0.5458
 30
-0.6877
 70
192
 0
VERTEX
 8
CYLINDER_5
 10
-0.4546
 20
-0.5458
 30
-0.6877
 70
192
 0
VERTEX
 8
CYLINDER_5
 10
-0.7889
 20
-0.5458
 30
-0.6877
 70
192
 0
VERTEX
 8
CYLINDER_5
 10
-0.7889
 20
-0.5458
 30
-0.6877
 70
192
 0
VERTEX
 8
CYLINDER_5
 10
-0.4546
 20
-0.5433
 30
-0.6884
 70
192
 0
VERTEX
 8
CYLINDER_5
 10
-0.4546
 20
-0.5433
 30
-0.6884
 70
192
 0
VERTEX
 8
CYLINDER_5
 10
-0.7889
 20
-0.5433
 30
-0.6884
 70
192
 0
VERTEX
 8
CYLINDER_5
 10
-0.7889
 20
-0.5433
 30
-0.6884
 70
192
 0
VERTEX
 8
CYLINDER_5
 10
-0.4546
 20
-0.5409
 30
-0.6896
 70
192
 0
VERTEX
 8
CYLINDER_5
 10
-0.4546
 20
-0.5409
 30
-0.6896
 70
192
 0
VERTEX
 8
CYLINDER_5
 10
-0.7889
 20
-0.5409
 30
-0.6896
 70
192
 0
VERTEX
 8
CYLINDER_5
 10
-0.7889
 20
-0.5409
 30
-0.6896
 70
192
 0
VERTEX
 8
CYLINDER_5
 10
-0.4546
 20
-0.5388
 30
-0.6911
 70
192
 0
VERTEX
 8
CYLINDER_5
 10
-0.4546
 20
-0.5388
 30
-0.6911
 70
192
 0
VERTEX
 8
CYLINDER_5
 10
-0.7889
 20
-0.5388
 30
-0.6911
 70
192
 0
VERTEX
 8
CYLINDER_5
 10
-0.7889
 20
-0.5388
 30
-0.6911
 70
192
 0
VERTEX
 8
CYLINDER_5
 10
-0.4546
 20
-0.5369
 30
-0.693
 70
192
 0
VERTEX
 8
CYLINDER_5
 10
-0.4546
 20
-0.5369
 30
-0.693
 70
192
 0
VERTEX
 8
CYLINDER_5
 10
-0.7889
 20
-0.5369
 30
-0.693
 70
192
 0
VERTEX
 8
CYLINDER_5
 10
-0.7889
 20
-0.5369
 30
-0.693
 70
192
 0
VERTEX
 8
CYLINDER_5
 10
-0.4546
 20
-0.5355
 30
-0.6952
 70
192
 0
VERTEX
 8
CYLINDER_5
 10
-0.4546
 20
-0.5355
 30
-0.6952
 70
192
 0
VERTEX
 8
CYLINDER_5
 10
-0.7889
 20
-0.5355
 30
-0.6952
 70
192
 0
VERTEX
 8
CYLINDER_5
 10
-0.7889
 20
-0.5355
 30
-0.6952
 70
192
 0
VERTEX
 8
CYLINDER_5
 10
-0.4546
 20
-0.5344
 30
-0.6977
 70
192
 0
VERTEX
 8
CYLINDER_5
 10
-0.4546
 20
-0.5344
 30
-0.6977
 70
192
 0
VERTEX
 8
CYLINDER_5
 10
-0.7889
 20
-0.5344
 30
-0.6977
 70
192
 0
VERTEX
 8
CYLINDER_5
 10
-0.7889
 20
-0.5344
 30
-0.6977
 70
192
 0
VERTEX
 8
CYLINDER_5
 10
-0.4546
 20
-0.5338
 30
-0.7002
 70
192
 0
VERTEX
 8
CYLINDER_5
 10
-0.4546
 20
-0.5338
 30
-0.7002
 70
192
 0
VERTEX
 8
CYLINDER_5
 10
-0.7889
 20
-0.5338
 30
-0.7002
 70
192
 0
VERTEX
 8
CYLINDER_5
 10
-0.7889
 20
-0.5338
 30
-0.7002
 70
192
 0
VERTEX
 8
CYLINDER_5
 10
-0.4546
 20
-0.5336
 30
-0.7029
 70
192
 0
VERTEX
 8
CYLINDER_5
 10
-0.4546
 20
-0.5336
 30
-0.7029
 70
192
 0
VERTEX
 8
CYLINDER_5
 10
-0.7889
 20
-0.5336
 30
-0.7029
 70
192
 0
VERTEX
 8
CYLINDER_5
 10
-0.7889
 20
-0.5336
 30
-0.7029
 70
192
 0
VERTEX
 8
CYLINDER_5
 10
-0.4546
 20
-0.5339
 30
-0.7055
 70
192
 0
VERTEX
 8
CYLINDER_5
 10
-0.4546
 20
-0.5339
 30
-0.7055
 70
192
 0
VERTEX
 8
CYLINDER_5
 10
-0.7889
 20
-0.5339
 30
-0.7055
 70
192
 0
VERTEX
 8
CYLINDER_5
 10
-0.7889
 20
-0.5339
 30
-0.7055
 70
192
 0
VERTEX
 8
CYLINDER_5
 10
-0.4546
 20
-0.5346
 30
-0.708
 70
192
 0
VERTEX
 8
CYLINDER_5
 10
-0.4546
 20
-0.5346
 30
-0.708
 70
192
 0
VERTEX
 8
CYLINDER_5
 10
-0.7889
 20
-0.5346
 30
-0.708
 70
192
 0
VERTEX
 8
CYLINDER_5
 10
-0.7889
 20
-0.5346
 30
-0.708
 70
192
 0
VERTEX
 8
CYLINDER_5
 10
-0.4546
 20
-0.5358
 30
-0.7104
 70
192
 0
VERTEX
 8
CYLINDER_5
 10
-0.4546
 20
-0.5358
 30
-0.7104
 70
192
 0
VERTEX
 8
CYLINDER_5
 10
-0.7889
 20
-0.5358
 30
-0.7104
 70
192
 0
VERTEX
 8
CYLINDER_5
 10
-0.7889
 20
-0.5358
 30
-0.7104
 70
192
 0
VERTEX
 8
CYLINDER_5
 10
-0.4546
 20
-0.5373
 30
-0.7125
 70
192
 0
VERTEX
 8
CYLINDER_5
 10
-0.4546
 20
-0.5373
 30
-0.7125
 70
192
 0
VERTEX
 8
CYLINDER_5
 10
-0.7889
 20
-0.5373
 30
-0.7125
 70
192
 0
VERTEX
 8
CYLINDER_5
 10
-0.7889
 20
-0.5373
 30
-0.7125
 70
192
 0
VERTEX
 8
CYLINDER_5
 10
-0.4546
 20
-0.5393
 30
-0.7143
 70
192
 0
VERTEX
 8
CYLINDER_5
 10
-0.4546
 20
-0.5393
 30
-0.7143
 70
192
 0
VERTEX
 8
CYLINDER_5
 10
-0.7889
 20
-0.5393
 30
-0.7143
 70
192
 0
VERTEX
 8
CYLINDER_5
 10
-0.7889
 20
-0.5393
 30
-0.7143
 70
192
 0
VERTEX
 8
CYLINDER_5
 10
-0.4546
 20
-0.5414
 30
-0.7158
 70
192
 0
VERTEX
 8
CYLINDER_5
 10
-0.4546
 20
-0.5414
 30
-0.7158
 70
192
 0
VERTEX
 8
CYLINDER_5
 10
-0.7889
 20
-0.5414
 30
-0.7158
 70
192
 0
VERTEX
 8
CYLINDER_5
 10
-0.7889
 20
-0.5414
 30
-0.7158
 70
192
 0
VERTEX
 8
CYLINDER_5
 10
-0.4546
 20
-0.5439
 30
-0.7169
 70
192
 0
VERTEX
 8
CYLINDER_5
 10
-0.4546
 20
-0.5439
 30
-0.7169
 70
192
 0
VERTEX
 8
CYLINDER_5
 10
-0.7889
 20
-0.5439
 30
-0.7169
 70
192
 0
VERTEX
 8
CYLINDER_5
 10
-0.7889
 20
-0.5439
 30
-0.7169
 70
192
 0
VERTEX
 8
CYLINDER_5
 10
-0.4546
 20
-0.5464
 30
-0.7175
 70
192
 0
VERTEX
 8
CYLINDER_5
 10
-0.4546
 20
-0.5464
 30
-0.7175
 70
192
 0
VERTEX
 8
CYLINDER_5
 10
-0.7889
 20
-0.5464
 30
-0.7175
 70
192
 0
VERTEX
 8
CYLINDER_5
 10
-0.7889
 20
-0.5464
 30
-0.7175
 70
192
 0
VERTEX
 8
CYLINDER_5
 10
-0.4546
 20
-0.5491
 30
-0.7177
 70
192
 0
VERTEX
 8
CYLINDER_5
 10
-0.4546
 20
-0.5491
 30
-0.7177
 70
192
 0
VERTEX
 8
CYLINDER_5
 10
-0.7889
 20
-0.5491
 30
-0.7177
 70
192
 0
VERTEX
 8
CYLINDER_5
 10
-0.7889
 20
-0.5491
 30
-0.7177
 70
192
 0
VERTEX
 8
CYLINDER_5
 10
-0.4546
 20
-0.5517
 30
-0.7174
 70
192
 0
VERTEX
 8
CYLINDER_5
 10
-0.4546
 20
-0.5517
 30
-0.7174
 70
192
 0
VERTEX
 8
CYLINDER_5
 10
-0.7889
 20
-0.5517
 30
-0.7174
 70
192
 0
VERTEX
 8
CYLINDER_5
 10
-0.7889
 20
-0.5517
 30
-0.7174
 70
192
 0
VERTEX
 8
CYLINDER_5
 10
-0.4546
 20
-0.5542
 30
-0.7167
 70
192
 0
VERTEX
 8
CYLINDER_5
 10
-0.4546
 20
-0.5542
 30
-0.7167
 70
192
 0
VERTEX
 8
CYLINDER_5
 10
-0.7889
 20
-0.5542
 30
-0.7167
 70
192
 0
VERTEX
 8
CYLINDER_5
 10
-0.7889
 20
-0.5542
 30
-0.7167
 70
192
 0
VERTEX
 8
CYLINDER_5
 10
-0.4546
 20
-0.5566
 30
-0.7155
 70
192
 0
VERTEX
 8
CYLINDER_5
 10
-0.4546
 20
-0.5566
 30
-0.7155
 70
192
 0
VERTEX
 8
CYLINDER_5
 10
-0.7889
 20
-0.5566
 30
-0.7155
 70
192
 0
VERTEX
 8
CYLINDER_5
 10
-0.7889
 20
-0.5566
 30
-0.7155
 70
192
 0
VERTEX
 8
CYLINDER_5
 10
-0.4546
 20
-0.5587
 30
-0.7139
 70
192
 0
VERTEX
 8
CYLINDER_5
 10
-0.4546
 20
-0.5587
 30
-0.7139
 70
192
 0
VERTEX
 8
CYLINDER_5
 10
-0.7889
 20
-0.5587
 30
-0.7139
 70
192
 0
VERTEX
 8
CYLINDER_5
 10
-0.7889
 20
-0.5587
 30
-0.7139
 70
192
 0
VERTEX
 8
CYLINDER_5
 10
-0.4546
 20
-0.5606
 30
-0.712
 70
192
 0
VERTEX
 8
CYLINDER_5
 10
-0.4546
 20
-0.5606
 30
-0.712
 70
192
 0
VERTEX
 8
CYLINDER_5
 10
-0.7889
 20
-0.5606
 30
-0.712
 70
192
 0
VERTEX
 8
CYLINDER_5
 10
-0.7889
 20
-0.5606
 30
-0.712
 70
192
 0
VERTEX
 8
CYLINDER_5
 10
-0.4546
 20
-0.562
 30
-0.7098
 70
192
 0
VERTEX
 8
CYLINDER_5
 10
-0.4546
 20
-0.562
 30
-0.7098
 70
192
 0
VERTEX
 8
CYLINDER_5
 10
-0.7889
 20
-0.562
 30
-0.7098
 70
192
 0
VERTEX
 8
CYLINDER_5
 10
-0.7889
 20
-0.562
 30
-0.7098
 70
192
 0
VERTEX
 8
CYLINDER_5
 10
-0.4546
 20
-0.5631
 30
-0.7074
 70
192
 0
VERTEX
 8
CYLINDER_5
 10
-0.4546
 20
-0.5631
 30
-0.7074
 70
192
 0
VERTEX
 8
CYLINDER_5
 10
-0.7889
 20
-0.5631
 30
-0.7074
 70
192
 0
VERTEX
 8
CYLINDER_5
 10
-0.7889
 20
-0.5631
 30
-0.7074
 70
192
 0
VERTEX
 8
CYLINDER_5
 10
-0.4546
 20
-0.5637
 30
-0.7048
 70
192
 0
VERTEX
 8
CYLINDER_5
 10
-0.4546
 20
-0.5637
 30
-0.7048
 70
192
 0
VERTEX
 8
CYLINDER_5
 10
-0.7889
 20
-0.5637
 30
-0.7048
 70
192
 0
VERTEX
 8
CYLINDER_5
 10
-0.7889
 20
-0.5637
 30
-0.7048
 70
192
 0
VERTEX
 8
CYLINDER_5
 10
-0.4546
 20
-0.5639
 30
-0.7022
 70
192
 0
VERTEX
 8
CYLINDER_5
 10
-0.4546
 20
-0.5639
 30
-0.7022
 70
192
 0
VERTEX
 8
CYLINDER_5
 10
-0.7889
 20
-0.5639
 30
-0.7022
 70
192
 0
VERTEX
 8
CYLINDER_5
 10
-0.7889
 20
-0.5639
 30
-0.7022
 70
192
 0
VERTEX
 8
CYLINDER_5
 10
-0.4546
 20
-0.5636
 30
-0.6996
 70
192
 0
VERTEX
 8
CYLINDER_5
 10
-0.4546
 20
-0.5636
 30
-0.6996
 70
192
 0
VERTEX
 8
CYLINDER_5
 10
-0.7889
 20
-0.5636
 30
-0.6996
 70
192
 0
VERTEX
 8
CYLINDER_5
 10
-0.7889
 20
-0.5636
 30
-0.6996
 70
192
 0
VERTEX
 8
CYLINDER_5
 10
-0.4546
 20
-0.5629
 30
-0.697
 70
192
 0
VERTEX
 8
CYLINDER_5
 10
-0.4546
 20
-0.5629
 30
-0.697
 70
192
 0
VERTEX
 8
CYLINDER_5
 10
-0.7889
 20
-0.5629
 30
-0.697
 70
192
 0
VERTEX
 8
CYLINDER_5
 10
-0.7889
 20
-0.5629
 30
-0.697
 70
192
 0
VERTEX
 8
CYLINDER_5
 10
-0.4546
 20
-0.5617
 30
-0.6947
 70
192
 0
VERTEX
 8
CYLINDER_5
 10
-0.4546
 20
-0.5617
 30
-0.6947
 70
192
 0
VERTEX
 8
CYLINDER_5
 10
-0.7889
 20
-0.5617
 30
-0.6947
 70
192
 0
VERTEX
 8
CYLINDER_5
 10
-0.7889
 20
-0.5617
 30
-0.6947
 70
192
 0
VERTEX
 8
CYLINDER_5
 10
-0.4546
 20
-0.5601
 30
-0.6925
 70
192
 0
VERTEX
 8
CYLINDER_5
 10
-0.4546
 20
-0.5601
 30
-0.6925
 70
192
 0
VERTEX
 8
CYLINDER_5
 10
-0.7889
 20
-0.5601
 30
-0.6925
 70
192
 0
VERTEX
 8
CYLINDER_5
 10
-0.7889
 20
-0.5601
 30
-0.6925
 70
192
 0
VERTEX
 8
CYLINDER_5
 10
-0.4546
 20
-0.5582
 30
-0.6907
 70
192
 0
VERTEX
 8
CYLINDER_5
 10
-0.4546
 20
-0.5582
 30
-0.6907
 70
192
 0
VERTEX
 8
CYLINDER_5
 10
-0.7889
 20
-0.5582
 30
-0.6907
 70
192
 0
VERTEX
 8
CYLINDER_5
 10
-0.7889
 20
-0.5582
 30
-0.6907
 70
192
 0
VERTEX
 8
CYLINDER_5
 10
-0.4546
 20
-0.556
 30
-0.6892
 70
192
 0
VERTEX
 8
CYLINDER_5
 10
-0.4546
 20
-0.556
 30
-0.6892
 70
192
 0
VERTEX
 8
CYLINDER_5
 10
-0.7889
 20
-0.556
 30
-0.6892
 70
192
 0
VERTEX
 8
CYLINDER_5
 10
-0.7889
 20
-0.556
 30
-0.6892
 70
192
 0
VERTEX
 8
CYLINDER_5
 10
-0.4546
 20
-0.5536
 30
-0.6882
 70
192
 0
VERTEX
 8
CYLINDER_5
 10
-0.4546
 20
-0.5536
 30
-0.6882
 70
192
 0
VERTEX
 8
CYLINDER_5
 10
-0.7889
 20
-0.5536
 30
-0.6882
 70
192
 0
VERTEX
 8
CYLINDER_5
 10
-0.7889
 20
-0.5536
 30
-0.6882
 70
192
 0
VERTEX
 8
CYLINDER_5
 10
-0.4546
 20
-0.5511
 30
-0.6876
 70
192
 0
VERTEX
 8
CYLINDER_5
 10
-0.4546
 20
-0.5511
 30
-0.6876
 70
192
 0
VERTEX
 8
CYLINDER_5
 10
-0.7889
 20
-0.5511
 30
-0.6876
 70
192
 0
VERTEX
 8
CYLINDER_5
 10
-0.7889
 20
-0.5511
 30
-0.6876
 70
192
 0
VERTEX
 8
CYLINDER_5
 10
-0.4546
 20
-0.5484
 30
-0.6874
 70
192
 0
VERTEX
 8
CYLINDER_5
 10
-0.4546
 20
-0.5484
 30
-0.6874
 70
192
 0
VERTEX
 8
CYLINDER_5
 10
-0.7889
 20
-0.5484
 30
-0.6874
 70
192
 0
VERTEX
 8
CYLINDER_5
 10
-0.7889
 20
-0.5484
 30
-0.6874
 70
192
 0
VERTEX
 8
CYLINDER_5
 10
0
 20
0
 30
0
 70
128
 71
1
 72
3
 73
7
 74
7
 0
VERTEX
 8
CYLINDER_5
 10
0
 20
0
 30
0
 70
128
 71
4
 72
5
 73
9
 74
8
 0
VERTEX
 8
CYLINDER_5
 10
0
 20
0
 30
0
 70
128
 71
6
 72
2
 73
10
 74
10
 0
VERTEX
 8
CYLINDER_5
 10
0
 20
0
 30
0
 70
128
 71
1
 72
7
 73
11
 74
11
 0
VERTEX
 8
CYLINDER_5
 10
0
 20
0
 30
0
 70
128
 71
8
 72
9
 73
13
 74
12
 0
VERTEX
 8
CYLINDER_5
 10
0
 20
0
 30
0
 70
128
 71
10
 72
2
 73
14
 74
14
 0
VERTEX
 8
CYLINDER_5
 10
0
 20
0
 30
0
 70
128
 71
1
 72
11
 73
15
 74
15
 0
VERTEX
 8
CYLINDER_5
 10
0
 20
0
 30
0
 70
128
 71
12
 72
13
 73
17
 74
16
 0
VERTEX
 8
CYLINDER_5
 10
0
 20
0
 30
0
 70
128
 71
14
 72
2
 73
18
 74
18
 0
VERTEX
 8
CYLINDER_5
 10
0
 20
0
 30
0
 70
128
 71
1
 72
15
 73
19
 74
19
 0
VERTEX
 8
CYLINDER_5
 10
0
 20
0
 30
0
 70
128
 71
16
 72
17
 73
21
 74
20
 0
VERTEX
 8
CYLINDER_5
 10
0
 20
0
 30
0
 70
128
 71
18
 72
2
 73
22
 74
22
 0
VERTEX
 8
CYLINDER_5
 10
0
 20
0
 30
0
 70
128
 71
1
 72
19
 73
23
 74
23
 0
VERTEX
 8
CYLINDER_5
 10
0
 20
0
 30
0
 70
128
 71
20
 72
21
 73
25
 74
24
 0
VERTEX
 8
CYLINDER_5
 10
0
 20
0
 30
0
 70
128
 71
22
 72
2
 73
26
 74
26
 0
VERTEX
 8
CYLINDER_5
 10
0
 20
0
 30
0
 70
128
 71
1
 72
23
 73
27
 74
27
 0
VERTEX
 8
CYLINDER_5
 10
0
 20
0
 30
0
 70
128
 71
24
 72
25
 73
29
 74
28
 0
VERTEX
 8
CYLINDER_5
 10
0
 20
0
 30
0
 70
128
 71
26
 72
2
 73
30
 74
30
 0
VERTEX
 8
CYLINDER_5
 10
0
 20
0
 30
0
 70
128
 71
1
 72
27
 73
31
 74
31
 0
VERTEX
 8
CYLINDER_5
 10
0
 20
0
 30
0
 70
128
 71
28
 72
29
 73
33
 74
32
 0
VERTEX
 8
CYLINDER_5
 10
0
 20
0
 30
0
 70
128
 71
30
 72
2
 73
34
 74
34
 0
VERTEX
 8
CYLINDER_5
 10
0
 20
0
 30
0
 70
128
 71
1
 72
31
 73
35
 74
35
 0
VERTEX
 8
CYLINDER_5
 10
0
 20
0
 30
0
 70
128
 71
32
 72
33
 73
37
 74
36
 0
VERTEX
 8
CYLINDER_5
 10
0
 20
0
 30
0
 70
128
 71
34
 72
2
 73
38
 74
38
 0
VERTEX
 8
CYLINDER_5
 10
0
 20
0
 30
0
 70
128
 71
1
 72
35
 73
39
 74
39
 0
VERTEX
 8
CYLINDER_5
 10
0
 20
0
 30
0
 70
128
 71
36
 72
37
 73
41
 74
40
 0
VERTEX
 8
CYLINDER_5
 10
0
 20
0
 30
0
 70
128
 71
38
 72
2
 73
42
 74
42
 0
VERTEX
 8
CYLINDER_5
 10
0
 20
0
 30
0
 70
128
 71
1
 72
39
 73
43
 74
43
 0
VERTEX
 8
CYLINDER_5
 10
0
 20
0
 30
0
 70
128
 71
40
 72
41
 73
45
 74
44
 0
VERTEX
 8
CYLINDER_5
 10
0
 20
0
 30
0
 70
128
 71
42
 72
2
 73
46
 74
46
 0
VERTEX
 8
CYLINDER_5
 10
0
 20
0
 30
0
 70
128
 71
1
 72
43
 73
47
 74
47
 0
VERTEX
 8
CYLINDER_5
 10
0
 20
0
 30
0
 70
128
 71
44
 72
45
 73
49
 74
48
 0
VERTEX
 8
CYLINDER_5
 10
0
 20
0
 30
0
 70
128
 71
46
 72
2
 73
50
 74
50
 0
VERTEX
 8
CYLINDER_5
 10
0
 20
0
 30
0
 70
128
 71
1
 72
47
 73
51
 74
51
 0
VERTEX
 8
CYLINDER_5
 10
0
 20
0
 30
0
 70
128
 71
48
 72
49
 73
53
 74
52
 0
VERTEX
 8
CYLINDER_5
 10
0
 20
0
 30
0
 70
128
 71
50
 72
2
 73
54
 74
54
 0
VERTEX
 8
CYLINDER_5
 10
0
 20
0
 30
0
 70
128
 71
1
 72
51
 73
55
 74
55
 0
VERTEX
 8
CYLINDER_5
 10
0
 20
0
 30
0
 70
128
 71
52
 72
53
 73
57
 74
56
 0
VERTEX
 8
CYLINDER_5
 10
0
 20
0
 30
0
 70
128
 71
54
 72
2
 73
58
 74
58
 0
VERTEX
 8
CYLINDER_5
 10
0
 20
0
 30
0
 70
128
 71
1
 72
55
 73
59
 74
59
 0
VERTEX
 8
CYLINDER_5
 10
0
 20
0
 30
0
 70
128
 71
56
 72
57
 73
61
 74
60
 0
VERTEX
 8
CYLINDER_5
 10
0
 20
0
 30
0
 70
128
 71
58
 72
2
 73
62
 74
62
 0
VERTEX
 8
CYLINDER_5
 10
0
 20
0
 30
0
 70
128
 71
1
 72
59
 73
63
 74
63
 0
VERTEX
 8
CYLINDER_5
 10
0
 20
0
 30
0
 70
128
 71
60
 72
61
 73
65
 74
64
 0
VERTEX
 8
CYLINDER_5
 10
0
 20
0
 30
0
 70
128
 71
62
 72
2
 73
66
 74
66
 0
VERTEX
 8
CYLINDER_5
 10
0
 20
0
 30
0
 70
128
 71
1
 72
63
 73
67
 74
67
 0
VERTEX
 8
CYLINDER_5
 10
0
 20
0
 30
0
 70
128
 71
64
 72
65
 73
69
 74
68
 0
VERTEX
 8
CYLINDER_5
 10
0
 20
0
 30
0
 70
128
 71
66
 72
2
 73
70
 74
70
 0
VERTEX
 8
CYLINDER_5
 10
0
 20
0
 30
0
 70
128
 71
1
 72
67
 73
71
 74
71
 0
VERTEX
 8
CYLINDER_5
 10
0
 20
0
 30
0
 70
128
 71
68
 72
69
 73
73
 74
72
 0
VERTEX
 8
CYLINDER_5
 10
0
 20
0
 30
0
 70
128
 71
70
 72
2
 73
74
 74
74
 0
VERTEX
 8
CYLINDER_5
 10
0
 20
0
 30
0
 70
128
 71
1
 72
71
 73
75
 74
75
 0
VERTEX
 8
CYLINDER_5
 10
0
 20
0
 30
0
 70
128
 71
72
 72
73
 73
77
 74
76
 0
VERTEX
 8
CYLINDER_5
 10
0
 20
0
 30
0
 70
128
 71
74
 72
2
 73
78
 74
78
 0
VERTEX
 8
CYLINDER_5
 10
0
 20
0
 30
0
 70
128
 71
1
 72
75
 73
79
 74
79
 0
VERTEX
 8
CYLINDER_5
 10
0
 20
0
 30
0
 70
128
 71
76
 72
77
 73
81
 74
80
 0
VERTEX
 8
CYLINDER_5
 10
0
 20
0
 30
0
 70
128
 71
78
 72
2
 73
82
 74
82
 0
VERTEX
 8
CYLINDER_5
 10
0
 20
0
 30
0
 70
128
 71
1
 72
79
 73
83
 74
83
 0
VERTEX
 8
CYLINDER_5
 10
0
 20
0
 30
0
 70
128
 71
80
 72
81
 73
85
 74
84
 0
VERTEX
 8
CYLINDER_5
 10
0
 20
0
 30
0
 70
128
 71
82
 72
2
 73
86
 74
86
 0
VERTEX
 8
CYLINDER_5
 10
0
 20
0
 30
0
 70
128
 71
1
 72
83
 73
87
 74
87
 0
VERTEX
 8
CYLINDER_5
 10
0
 20
0
 30
0
 70
128
 71
84
 72
85
 73
89
 74
88
 0
VERTEX
 8
CYLINDER_5
 10
0
 20
0
 30
0
 70
128
 71
86
 72
2
 73
90
 74
90
 0
VERTEX
 8
CYLINDER_5
 10
0
 20
0
 30
0
 70
128
 71
1
 72
87
 73
91
 74
91
 0
VERTEX
 8
CYLINDER_5
 10
0
 20
0
 30
0
 70
128
 71
88
 72
89
 73
93
 74
92
 0
VERTEX
 8
CYLINDER_5
 10
0
 20
0
 30
0
 70
128
 71
90
 72
2
 73
94
 74
94
 0
VERTEX
 8
CYLINDER_5
 10
0
 20
0
 30
0
 70
128
 71
1
 72
91
 73
95
 74
95
 0
VERTEX
 8
CYLINDER_5
 10
0
 20
0
 30
0
 70
128
 71
92
 72
93
 73
97
 74
96
 0
VERTEX
 8
CYLINDER_5
 10
0
 20
0
 30
0
 70
128
 71
94
 72
2
 73
98
 74
98
 0
VERTEX
 8
CYLINDER_5
 10
0
 20
0
 30
0
 70
128
 71
1
 72
95
 73
99
 74
99
 0
VERTEX
 8
CYLINDER_5
 10
0
 20
0
 30
0
 70
128
 71
96
 72
97
 73
101
 74
100
 0
VERTEX
 8
CYLINDER_5
 10
0
 20
0
 30
0
 70
128
 71
98
 72
2
 73
102
 74
102
 0
VERTEX
 8
CYLINDER_5
 10
0
 20
0
 30
0
 70
128
 71
1
 72
99
 73
103
 74
103
 0
VERTEX
 8
CYLINDER_5
 10
0
 20
0
 30
0
 70
128
 71
100
 72
101
 73
105
 74
104
 0
VERTEX
 8
CYLINDER_5
 10
0
 20
0
 30
0
 70
128
 71
102
 72
2
 73
106
 74
106
 0
VERTEX
 8
CYLINDER_5
 10
0
 20
0
 30
0
 70
128
 71
1
 72
103
 73
107
 74
107
 0
VERTEX
 8
CYLINDER_5
 10
0
 20
0
 30
0
 70
128
 71
104
 72
105
 73
109
 74
108
 0
VERTEX
 8
CYLINDER_5
 10
0
 20
0
 30
0
 70
128
 71
106
 72
2
 73
110
 74
110
 0
VERTEX
 8
CYLINDER_5
 10
0
 20
0
 30
0
 70
128
 71
1
 72
107
 73
111
 74
111
 0
VERTEX
 8
CYLINDER_5
 10
0
 20
0
 30
0
 70
128
 71
108
 72
109
 73
113
 74
112
 0
VERTEX
 8
CYLINDER_5
 10
0
 20
0
 30
0
 70
128
 71
110
 72
2
 73
114
 74
114
 0
VERTEX
 8
CYLINDER_5
 10
0
 20
0
 30
0
 70
128
 71
1
 72
111
 73
115
 74
115
 0
VERTEX
 8
CYLINDER_5
 10
0
 20
0
 30
0
 70
128
 71
112
 72
113
 73
117
 74
116
 0
VERTEX
 8
CYLINDER_5
 10
0
 20
0
 30
0
 70
128
 71
114
 72
2
 73
118
 74
118
 0
VERTEX
 8
CYLINDER_5
 10
0
 20
0
 30
0
 70
128
 71
1
 72
115
 73
119
 74
119
 0
VERTEX
 8
CYLINDER_5
 10
0
 20
0
 30
0
 70
128
 71
116
 72
117
 73
121
 74
120
 0
VERTEX
 8
CYLINDER_5
 10
0
 20
0
 30
0
 70
128
 71
118
 72
2
 73
122
 74
122
 0
VERTEX
 8
CYLINDER_5
 10
0
 20
0
 30
0
 70
128
 71
1
 72
119
 73
123
 74
123
 0
VERTEX
 8
CYLINDER_5
 10
0
 20
0
 30
0
 70
128
 71
120
 72
121
 73
125
 74
124
 0
VERTEX
 8
CYLINDER_5
 10
0
 20
0
 30
0
 70
128
 71
122
 72
2
 73
126
 74
126
 0
VERTEX
 8
CYLINDER_5
 10
0
 20
0
 30
0
 70
128
 71
1
 72
123
 73
127
 74
127
 0
VERTEX
 8
CYLINDER_5
 10
0
 20
0
 30
0
 70
128
 71
124
 72
125
 73
129
 74
128
 0
VERTEX
 8
CYLINDER_5
 10
0
 20
0
 30
0
 70
128
 71
126
 72
2
 73
130
 74
130
 0
VERTEX
 8
CYLINDER_5
 10
0
 20
0
 30
0
 70
128
 71
1
 72
127
 73
131
 74
131
 0
VERTEX
 8
CYLINDER_5
 10
0
 20
0
 30
0
 70
128
 71
128
 72
129
 73
133
 74
132
 0
VERTEX
 8
CYLINDER_5
 10
0
 20
0
 30
0
 70
128
 71
130
 72
2
 73
134
 74
134
 0
VERTEX
 8
CYLINDER_5
 10
0
 20
0
 30
0
 70
128
 71
1
 72
131
 73
135
 74
135
 0
VERTEX
 8
CYLINDER_5
 10
0
 20
0
 30
0
 70
128
 71
132
 72
133
 73
137
 74
136
 0
VERTEX
 8
CYLINDER_5
 10
0
 20
0
 30
0
 70
128
 71
134
 72
2
 73
138
 74
138
 0
VERTEX
 8
CYLINDER_5
 10
0
 20
0
 30
0
 70
128
 71
1
 72
135
 73
139
 74
139
 0
VERTEX
 8
CYLINDER_5
 10
0
 20
0
 30
0
 70
128
 71
136
 72
137
 73
141
 74
140
 0
VERTEX
 8
CYLINDER_5
 10
0
 20
0
 30
0
 70
128
 71
138
 72
2
 73
142
 74
142
 0
VERTEX
 8
CYLINDER_5
 10
0
 20
0
 30
0
 70
128
 71
1
 72
139
 73
143
 74
143
 0
VERTEX
 8
CYLINDER_5
 10
0
 20
0
 30
0
 70
128
 71
140
 72
141
 73
145
 74
144
 0
VERTEX
 8
CYLINDER_5
 10
0
 20
0
 30
0
 70
128
 71
142
 72
2
 73
146
 74
146
 0
VERTEX
 8
CYLINDER_5
 10
0
 20
0
 30
0
 70
128
 71
1
 72
143
 73
3
 74
3
 0
VERTEX
 8
CYLINDER_5
 10
0
 20
0
 30
0
 70
128
 71
144
 72
145
 73
5
 74
4
 0
VERTEX
 8
CYLINDER_5
 10
0
 20
0
 30
0
 70
128
 71
146
 72
2
 73
6
 74
6
 0
SEQEND
 0
POLYLINE
 8
CYLINDER_4
 66
1
 10
0.0
 20
0.0
 30
0.0
 70
64
 71
146
 72
108
 0
VERTEX
 8
CYLINDER_4
 10
-0.4546
 20
-0.4879
 30
-0.3958
 70
192
 0
VERTEX
 8
CYLINDER_4
 10
-0.7889
 20
-0.4879
 30
-0.3958
 70
192
 0
VERTEX
 8
CYLINDER_4
 10
-0.4546
 20
-0.4849
 30
-0.3809
 70
192
 0
VERTEX
 8
CYLINDER_4
 10
-0.4546
 20
-0.4849
 30
-0.3809
 70
192
 0
VERTEX
 8
CYLINDER_4
 10
-0.7889
 20
-0.4849
 30
-0.3809
 70
192
 0
VERTEX
 8
CYLINDER_4
 10
-0.7889
 20
-0.4849
 30
-0.3809
 70
192
 0
VERTEX
 8
CYLINDER_4
 10
-0.4546
 20
-0.4824
 30
-0.3816
 70
192
 0
VERTEX
 8
CYLINDER_4
 10
-0.4546
 20
-0.4824
 30
-0.3816
 70
192
 0
VERTEX
 8
CYLINDER_4
 10
-0.7889
 20
-0.4824
 30
-0.3816
 70
192
 0
VERTEX
 8
CYLINDER_4
 10
-0.7889
 20
-0.4824
 30
-0.3816
 70
192
 0
VERTEX
 8
CYLINDER_4
 10
-0.4546
 20
-0.48
 30
-0.3828
 70
192
 0
VERTEX
 8
CYLINDER_4
 10
-0.4546
 20
-0.48
 30
-0.3828
 70
192
 0
VERTEX
 8
CYLINDER_4
 10
-0.7889
 20
-0.48
 30
-0.3828
 70
192
 0
VERTEX
 8
CYLINDER_4
 10
-0.7889
 20
-0.48
 30
-0.3828
 70
192
 0
VERTEX
 8
CYLINDER_4
 10
-0.4546
 20
-0.4779
 30
-0.3844
 70
192
 0
VERTEX
 8
CYLINDER_4
 10
-0.4546
 20
-0.4779
 30
-0.3844
 70
192
 0
VERTEX
 8
CYLINDER_4
 10
-0.7889
 20
-0.4779
 30
-0.3844
 70
192
 0
VERTEX
 8
CYLINDER_4
 10
-0.7889
 20
-0.4779
 30
-0.3844
 70
192
 0
VERTEX
 8
CYLINDER_4
 10
-0.4546
 20
-0.4761
 30
-0.3863
 70
192
 0
VERTEX
 8
CYLINDER_4
 10
-0.4546
 20
-0.4761
 30
-0.3863
 70
192
 0
VERTEX
 8
CYLINDER_4
 10
-0.7889
 20
-0.4761
 30
-0.3863
 70
192
 0
VERTEX
 8
CYLINDER_4
 10
-0.7889
 20
-0.4761
 30
-0.3863
 70
192
 0
VERTEX
 8
CYLINDER_4
 10
-0.4546
 20
-0.4746
 30
-0.3885
 70
192
 0
VERTEX
 8
CYLINDER_4
 10
-0.4546
 20
-0.4746
 30
-0.3885
 70
192
 0
VERTEX
 8
CYLINDER_4
 10
-0.7889
 20
-0.4746
 30
-0.3885
 70
192
 0
VERTEX
 8
CYLINDER_4
 10
-0.7889
 20
-0.4746
 30
-0.3885
 70
192
 0
VERTEX
 8
CYLINDER_4
 10
-0.4546
 20
-0.4735
 30
-0.3909
 70
192
 0
VERTEX
 8
CYLINDER_4
 10
-0.4546
 20
-0.4735
 30
-0.3909
 70
192
 0
VERTEX
 8
CYLINDER_4
 10
-0.7889
 20
-0.4735
 30
-0.3909
 70
192
 0
VERTEX
 8
CYLINDER_4
 10
-0.7889
 20
-0.4735
 30
-0.3909
 70
192
 0
VERTEX
 8
CYLINDER_4
 10
-0.4546
 20
-0.4729
 30
-0.3934
 70
192
 0
VERTEX
 8
CYLINDER_4
 10
-0.4546
 20
-0.4729
 30
-0.3934
 70
192
 0
VERTEX
 8
CYLINDER_4
 10
-0.7889
 20
-0.4729
 30
-0.3934
 70
192
 0
VERTEX
 8
CYLINDER_4
 10
-0.7889
 20
-0.4729
 30
-0.3934
 70
192
 0
VERTEX
 8
CYLINDER_4
 10
-0.4546
 20
-0.4727
 30
-0.3961
 70
192
 0
VERTEX
 8
CYLINDER_4
 10
-0.4546
 20
-0.4727
 30
-0.3961
 70
192
 0
VERTEX
 8
CYLINDER_4
 10
-0.7889
 20
-0.4727
 30
-0.3961
 70
192
 0
VERTEX
 8
CYLINDER_4
 10
-0.7889
 20
-0.4727
 30
-0.3961
 70
192
 0
VERTEX
 8
CYLINDER_4
 10
-0.4546
 20
-0.473
 30
-0.3987
 70
192
 0
VERTEX
 8
CYLINDER_4
 10
-0.4546
 20
-0.473
 30
-0.3987
 70
192
 0
VERTEX
 8
CYLINDER_4
 10
-0.7889
 20
-0.473
 30
-0.3987
 70
192
 0
VERTEX
 8
CYLINDER_4
 10
-0.7889
 20
-0.473
 30
-0.3987
 70
192
 0
VERTEX
 8
CYLINDER_4
 10
-0.4546
 20
-0.4737
 30
-0.4012
 70
192
 0
VERTEX
 8
CYLINDER_4
 10
-0.4546
 20
-0.4737
 30
-0.4012
 70
192
 0
VERTEX
 8
CYLINDER_4
 10
-0.7889
 20
-0.4737
 30
-0.4012
 70
192
 0
VERTEX
 8
CYLINDER_4
 10
-0.7889
 20
-0.4737
 30
-0.4012
 70
192
 0
VERTEX
 8
CYLINDER_4
 10
-0.4546
 20
-0.4749
 30
-0.4036
 70
192
 0
VERTEX
 8
CYLINDER_4
 10
-0.4546
 20
-0.4749
 30
-0.4036
 70
192
 0
VERTEX
 8
CYLINDER_4
 10
-0.7889
 20
-0.4749
 30
-0.4036
 70
192
 0
VERTEX
 8
CYLINDER_4
 10
-0.7889
 20
-0.4749
 30
-0.4036
 70
192
 0
VERTEX
 8
CYLINDER_4
 10
-0.4546
 20
-0.4765
 30
-0.4057
 70
192
 0
VERTEX
 8
CYLINDER_4
 10
-0.4546
 20
-0.4765
 30
-0.4057
 70
192
 0
VERTEX
 8
CYLINDER_4
 10
-0.7889
 20
-0.4765
 30
-0.4057
 70
192
 0
VERTEX
 8
CYLINDER_4
 10
-0.7889
 20
-0.4765
 30
-0.4057
 70
192
 0
VERTEX
 8
CYLINDER_4
 10
-0.4546
 20
-0.4784
 30
-0.4076
 70
192
 0
VERTEX
 8
CYLINDER_4
 10
-0.4546
 20
-0.4784
 30
-0.4076
 70
192
 0
VERTEX
 8
CYLINDER_4
 10
-0.7889
 20
-0.4784
 30
-0.4076
 70
192
 0
VERTEX
 8
CYLINDER_4
 10
-0.7889
 20
-0.4784
 30
-0.4076
 70
192
 0
VERTEX
 8
CYLINDER_4
 10
-0.4546
 20
-0.4806
 30
-0.409
 70
192
 0
VERTEX
 8
CYLINDER_4
 10
-0.4546
 20
-0.4806
 30
-0.409
 70
192
 0
VERTEX
 8
CYLINDER_4
 10
-0.7889
 20
-0.4806
 30
-0.409
 70
192
 0
VERTEX
 8
CYLINDER_4
 10
-0.7889
 20
-0.4806
 30
-0.409
 70
192
 0
VERTEX
 8
CYLINDER_4
 10
-0.4546
 20
-0.483
 30
-0.4101
 70
192
 0
VERTEX
 8
CYLINDER_4
 10
-0.4546
 20
-0.483
 30
-0.4101
 70
192
 0
VERTEX
 8
CYLINDER_4
 10
-0.7889
 20
-0.483
 30
-0.4101
 70
192
 0
VERTEX
 8
CYLINDER_4
 10
-0.7889
 20
-0.483
 30
-0.4101
 70
192
 0
VERTEX
 8
CYLINDER_4
 10
-0.4546
 20
-0.4856
 30
-0.4107
 70
192
 0
VERTEX
 8
CYLINDER_4
 10
-0.4546
 20
-0.4856
 30
-0.4107
 70
192
 0
VERTEX
 8
CYLINDER_4
 10
-0.7889
 20
-0.4856
 30
-0.4107
 70
192
 0
VERTEX
 8
CYLINDER_4
 10
-0.7889
 20
-0.4856
 30
-0.4107
 70
192
 0
VERTEX
 8
CYLINDER_4
 10
-0.4546
 20
-0.4882
 30
-0.4109
 70
192
 0
VERTEX
 8
CYLINDER_4
 10
-0.4546
 20
-0.4882
 30
-0.4109
 70
192
 0
VERTEX
 8
CYLINDER_4
 10
-0.7889
 20
-0.4882
 30
-0.4109
 70
192
 0
VERTEX
 8
CYLINDER_4
 10
-0.7889
 20
-0.4882
 30
-0.4109
 70
192
 0
VERTEX
 8
CYLINDER_4
 10
-0.4546
 20
-0.4908
 30
-0.4106
 70
192
 0
VERTEX
 8
CYLINDER_4
 10
-0.4546
 20
-0.4908
 30
-0.4106
 70
192
 0
VERTEX
 8
CYLINDER_4
 10
-0.7889
 20
-0.4908
 30
-0.4106
 70
192
 0
VERTEX
 8
CYLINDER_4
 10
-0.7889
 20
-0.4908
 30
-0.4106
 70
192
 0
VERTEX
 8
CYLINDER_4
 10
-0.4546
 20
-0.4934
 30
-0.4099
 70
192
 0
VERTEX
 8
CYLINDER_4
 10
-0.4546
 20
-0.4934
 30
-0.4099
 70
192
 0
VERTEX
 8
CYLINDER_4
 10
-0.7889
 20
-0.4934
 30
-0.4099
 70
192
 0
VERTEX
 8
CYLINDER_4
 10
-0.7889
 20
-0.4934
 30
-0.4099
 70
192
 0
VERTEX
 8
CYLINDER_4
 10
-0.4546
 20
-0.4957
 30
-0.4087
 70
192
 0
VERTEX
 8
CYLINDER_4
 10
-0.4546
 20
-0.4957
 30
-0.4087
 70
192
 0
VERTEX
 8
CYLINDER_4
 10
-0.7889
 20
-0.4957
 30
-0.4087
 70
192
 0
VERTEX
 8
CYLINDER_4
 10
-0.7889
 20
-0.4957
 30
-0.4087
 70
192
 0
VERTEX
 8
CYLINDER_4
 10
-0.4546
 20
-0.4979
 30
-0.4071
 70
192
 0
VERTEX
 8
CYLINDER_4
 10
-0.4546
 20
-0.4979
 30
-0.4071
 70
192
 0
VERTEX
 8
CYLINDER_4
 10
-0.7889
 20
-0.4979
 30
-0.4071
 70
192
 0
VERTEX
 8
CYLINDER_4
 10
-0.7889
 20
-0.4979
 30
-0.4071
 70
192
 0
VERTEX
 8
CYLINDER_4
 10
-0.4546
 20
-0.4997
 30
-0.4052
 70
192
 0
VERTEX
 8
CYLINDER_4
 10
-0.4546
 20
-0.4997
 30
-0.4052
 70
192
 0
VERTEX
 8
CYLINDER_4
 10
-0.7889
 20
-0.4997
 30
-0.4052
 70
192
 0
VERTEX
 8
CYLINDER_4
 10
-0.7889
 20
-0.4997
 30
-0.4052
 70
192
 0
VERTEX
 8
CYLINDER_4
 10
-0.4546
 20
-0.5012
 30
-0.403
 70
192
 0
VERTEX
 8
CYLINDER_4
 10
-0.4546
 20
-0.5012
 30
-0.403
 70
192
 0
VERTEX
 8
CYLINDER_4
 10
-0.7889
 20
-0.5012
 30
-0.403
 70
192
 0
VERTEX
 8
CYLINDER_4
 10
-0.7889
 20
-0.5012
 30
-0.403
 70
192
 0
VERTEX
 8
CYLINDER_4
 10
-0.4546
 20
-0.5022
 30
-0.4006
 70
192
 0
VERTEX
 8
CYLINDER_4
 10
-0.4546
 20
-0.5022
 30
-0.4006
 70
192
 0
VERTEX
 8
CYLINDER_4
 10
-0.7889
 20
-0.5022
 30
-0.4006
 70
192
 0
VERTEX
 8
CYLINDER_4
 10
-0.7889
 20
-0.5022
 30
-0.4006
 70
192
 0
VERTEX
 8
CYLINDER_4
 10
-0.4546
 20
-0.5029
 30
-0.3981
 70
192
 0
VERTEX
 8
CYLINDER_4
 10
-0.4546
 20
-0.5029
 30
-0.3981
 70
192
 0
VERTEX
 8
CYLINDER_4
 10
-0.7889
 20
-0.5029
 30
-0.3981
 70
192
 0
VERTEX
 8
CYLINDER_4
 10
-0.7889
 20
-0.5029
 30
-0.3981
 70
192
 0
VERTEX
 8
CYLINDER_4
 10
-0.4546
 20
-0.503
 30
-0.3954
 70
192
 0
VERTEX
 8
CYLINDER_4
 10
-0.4546
 20
-0.503
 30
-0.3954
 70
192
 0
VERTEX
 8
CYLINDER_4
 10
-0.7889
 20
-0.503
 30
-0.3954
 70
192
 0
VERTEX
 8
CYLINDER_4
 10
-0.7889
 20
-0.503
 30
-0.3954
 70
192
 0
VERTEX
 8
CYLINDER_4
 10
-0.4546
 20
-0.5027
 30
-0.3928
 70
192
 0
VERTEX
 8
CYLINDER_4
 10
-0.4546
 20
-0.5027
 30
-0.3928
 70
192
 0
VERTEX
 8
CYLINDER_4
 10
-0.7889
 20
-0.5027
 30
-0.3928
 70
192
 0
VERTEX
 8
CYLINDER_4
 10
-0.7889
 20
-0.5027
 30
-0.3928
 70
192
 0
VERTEX
 8
CYLINDER_4
 10
-0.4546
 20
-0.502
 30
-0.3903
 70
192
 0
VERTEX
 8
CYLINDER_4
 10
-0.4546
 20
-0.502
 30
-0.3903
 70
192
 0
VERTEX
 8
CYLINDER_4
 10
-0.7889
 20
-0.502
 30
-0.3903
 70
192
 0
VERTEX
 8
CYLINDER_4
 10
-0.7889
 20
-0.502
 30
-0.3903
 70
192
 0
VERTEX
 8
CYLINDER_4
 10
-0.4546
 20
-0.5008
 30
-0.3879
 70
192
 0
VERTEX
 8
CYLINDER_4
 10
-0.4546
 20
-0.5008
 30
-0.3879
 70
192
 0
VERTEX
 8
CYLINDER_4
 10
-0.7889
 20
-0.5008
 30
-0.3879
 70
192
 0
VERTEX
 8
CYLINDER_4
 10
-0.7889
 20
-0.5008
 30
-0.3879
 70
192
 0
VERTEX
 8
CYLINDER_4
 10
-0.4546
 20
-0.4993
 30
-0.3858
 70
192
 0
VERTEX
 8
CYLINDER_4
 10
-0.4546
 20
-0.4993
 30
-0.3858
 70
192
 0
VERTEX
 8
CYLINDER_4
 10
-0.7889
 20
-0.4993
 30
-0.3858
 70
192
 0
VERTEX
 8
CYLINDER_4
 10
-0.7889
 20
-0.4993
 30
-0.3858
 70
192
 0
VERTEX
 8
CYLINDER_4
 10
-0.4546
 20
-0.4974
 30
-0.3839
 70
192
 0
VERTEX
 8
CYLINDER_4
 10
-0.4546
 20
-0.4974
 30
-0.3839
 70
192
 0
VERTEX
 8
CYLINDER_4
 10
-0.7889
 20
-0.4974
 30
-0.3839
 70
192
 0
VERTEX
 8
CYLINDER_4
 10
-0.7889
 20
-0.4974
 30
-0.3839
 70
192
 0
VERTEX
 8
CYLINDER_4
 10
-0.4546
 20
-0.4952
 30
-0.3825
 70
192
 0
VERTEX
 8
CYLINDER_4
 10
-0.4546
 20
-0.4952
 30
-0.3825
 70
192
 0
VERTEX
 8
CYLINDER_4
 10
-0.7889
 20
-0.4952
 30
-0.3825
 70
192
 0
VERTEX
 8
CYLINDER_4
 10
-0.7889
 20
-0.4952
 30
-0.3825
 70
192
 0
VERTEX
 8
CYLINDER_4
 10
-0.4546
 20
-0.4928
 30
-0.3814
 70
192
 0
VERTEX
 8
CYLINDER_4
 10
-0.4546
 20
-0.4928
 30
-0.3814
 70
192
 0
VERTEX
 8
CYLINDER_4
 10
-0.7889
 20
-0.4928
 30
-0.3814
 70
192
 0
VERTEX
 8
CYLINDER_4
 10
-0.7889
 20
-0.4928
 30
-0.3814
 70
192
 0
VERTEX
 8
CYLINDER_4
 10
-0.4546
 20
-0.4902
 30
-0.3808
 70
192
 0
VERTEX
 8
CYLINDER_4
 10
-0.4546
 20
-0.4902
 30
-0.3808
 70
192
 0
VERTEX
 8
CYLINDER_4
 10
-0.7889
 20
-0.4902
 30
-0.3808
 70
192
 0
VERTEX
 8
CYLINDER_4
 10
-0.7889
 20
-0.4902
 30
-0.3808
 70
192
 0
VERTEX
 8
CYLINDER_4
 10
-0.4546
 20
-0.4876
 30
-0.3806
 70
192
 0
VERTEX
 8
CYLINDER_4
 10
-0.4546
 20
-0.4876
 30
-0.3806
 70
192
 0
VERTEX
 8
CYLINDER_4
 10
-0.7889
 20
-0.4876
 30
-0.3806
 70
192
 0
VERTEX
 8
CYLINDER_4
 10
-0.7889
 20
-0.4876
 30
-0.3806
 70
192
 0
VERTEX
 8
CYLINDER_4
 10
0
 20
0
 30
0
 70
128
 71
1
 72
3
 73
7
 74
7
 0
VERTEX
 8
CYLINDER_4
 10
0
 20
0
 30
0
 70
128
 71
4
 72
5
 73
9
 74
8
 0
VERTEX
 8
CYLINDER_4
 10
0
 20
0
 30
0
 70
128
 71
6
 72
2
 73
10
 74
10
 0
VERTEX
 8
CYLINDER_4
 10
0
 20
0
 30
0
 70
128
 71
1
 72
7
 73
11
 74
11
 0
VERTEX
 8
CYLINDER_4
 10
0
 20
0
 30
0
 70
128
 71
8
 72
9
 73
13
 74
12
 0
VERTEX
 8
CYLINDER_4
 10
0
 20
0
 30
0
 70
128
 71
10
 72
2
 73
14
 74
14
 0
VERTEX
 8
CYLINDER_4
 10
0
 20
0
 30
0
 70
128
 71
1
 72
11
 73
15
 74
15
 0
VERTEX
 8
CYLINDER_4
 10
0
 20
0
 30
0
 70
128
 71
12
 72
13
 73
17
 74
16
 0
VERTEX
 8
CYLINDER_4
 10
0
 20
0
 30
0
 70
128
 71
14
 72
2
 73
18
 74
18
 0
VERTEX
 8
CYLINDER_4
 10
0
 20
0
 30
0
 70
128
 71
1
 72
15
 73
19
 74
19
 0
VERTEX
 8
CYLINDER_4
 10
0
 20
0
 30
0
 70
128
 71
16
 72
17
 73
21
 74
20
 0
VERTEX
 8
CYLINDER_4
 10
0
 20
0
 30
0
 70
128
 71
18
 72
2
 73
22
 74
22
 0
VERTEX
 8
CYLINDER_4
 10
0
 20
0
 30
0
 70
128
 71
1
 72
19
 73
23
 74
23
 0
VERTEX
 8
CYLINDER_4
 10
0
 20
0
 30
0
 70
128
 71
20
 72
21
 73
25
 74
24
 0
VERTEX
 8
CYLINDER_4
 10
0
 20
0
 30
0
 70
128
 71
22
 72
2
 73
26
 74
26
 0
VERTEX
 8
CYLINDER_4
 10
0
 20
0
 30
0
 70
128
 71
1
 72
23
 73
27
 74
27
 0
VERTEX
 8
CYLINDER_4
 10
0
 20
0
 30
0
 70
128
 71
24
 72
25
 73
29
 74
28
 0
VERTEX
 8
CYLINDER_4
 10
0
 20
0
 30
0
 70
128
 71
26
 72
2
 73
30
 74
30
 0
VERTEX
 8
CYLINDER_4
 10
0
 20
0
 30
0
 70
128
 71
1
 72
27
 73
31
 74
31
 0
VERTEX
 8
CYLINDER_4
 10
0
 20
0
 30
0
 70
128
 71
28
 72
29
 73
33
 74
32
 0
VERTEX
 8
CYLINDER_4
 10
0
 20
0
 30
0
 70
128
 71
30
 72
2
 73
34
 74
34
 0
VERTEX
 8
CYLINDER_4
 10
0
 20
0
 30
0
 70
128
 71
1
 72
31
 73
35
 74
35
 0
VERTEX
 8
CYLINDER_4
 10
0
 20
0
 30
0
 70
128
 71
32
 72
33
 73
37
 74
36
 0
VERTEX
 8
CYLINDER_4
 10
0
 20
0
 30
0
 70
128
 71
34
 72
2
 73
38
 74
38
 0
VERTEX
 8
CYLINDER_4
 10
0
 20
0
 30
0
 70
128
 71
1
 72
35
 73
39
 74
39
 0
VERTEX
 8
CYLINDER_4
 10
0
 20
0
 30
0
 70
128
 71
36
 72
37
 73
41
 74
40
 0
VERTEX
 8
CYLINDER_4
 10
0
 20
0
 30
0
 70
128
 71
38
 72
2
 73
42
 74
42
 0
VERTEX
 8
CYLINDER_4
 10
0
 20
0
 30
0
 70
128
 71
1
 72
39
 73
43
 74
43
 0
VERTEX
 8
CYLINDER_4
 10
0
 20
0
 30
0
 70
128
 71
40
 72
41
 73
45
 74
44
 0
VERTEX
 8
CYLINDER_4
 10
0
 20
0
 30
0
 70
128
 71
42
 72
2
 73
46
 74
46
 0
VERTEX
 8
CYLINDER_4
 10
0
 20
0
 30
0
 70
128
 71
1
 72
43
 73
47
 74
47
 0
VERTEX
 8
CYLINDER_4
 10
0
 20
0
 30
0
 70
128
 71
44
 72
45
 73
49
 74
48
 0
VERTEX
 8
CYLINDER_4
 10
0
 20
0
 30
0
 70
128
 71
46
 72
2
 73
50
 74
50
 0
VERTEX
 8
CYLINDER_4
 10
0
 20
0
 30
0
 70
128
 71
1
 72
47
 73
51
 74
51
 0
VERTEX
 8
CYLINDER_4
 10
0
 20
0
 30
0
 70
128
 71
48
 72
49
 73
53
 74
52
 0
VERTEX
 8
CYLINDER_4
 10
0
 20
0
 30
0
 70
128
 71
50
 72
2
 73
54
 74
54
 0
VERTEX
 8
CYLINDER_4
 10
0
 20
0
 30
0
 70
128
 71
1
 72
51
 73
55
 74
55
 0
VERTEX
 8
CYLINDER_4
 10
0
 20
0
 30
0
 70
128
 71
52
 72
53
 73
57
 74
56
 0
VERTEX
 8
CYLINDER_4
 10
0
 20
0
 30
0
 70
128
 71
54
 72
2
 73
58
 74
58
 0
VERTEX
 8
CYLINDER_4
 10
0
 20
0
 30
0
 70
128
 71
1
 72
55
 73
59
 74
59
 0
VERTEX
 8
CYLINDER_4
 10
0
 20
0
 30
0
 70
128
 71
56
 72
57
 73
61
 74
60
 0
VERTEX
 8
CYLINDER_4
 10
0
 20
0
 30
0
 70
128
 71
58
 72
2
 73
62
 74
62
 0
VERTEX
 8
CYLINDER_4
 10
0
 20
0
 30
0
 70
128
 71
1
 72
59
 73
63
 74
63
 0
VERTEX
 8
CYLINDER_4
 10
0
 20
0
 30
0
 70
128
 71
60
 72
61
 73
65
 74
64
 0
VERTEX
 8
CYLINDER_4
 10
0
 20
0
 30
0
 70
128
 71
62
 72
2
 73
66
 74
66
 0
VERTEX
 8
CYLINDER_4
 10
0
 20
0
 30
0
 70
128
 71
1
 72
63
 73
67
 74
67
 0
VERTEX
 8
CYLINDER_4
 10
0
 20
0
 30
0
 70
128
 71
64
 72
65
 73
69
 74
68
 0
VERTEX
 8
CYLINDER_4
 10
0
 20
0
 30
0
 70
128
 71
66
 72
2
 73
70
 74
70
 0
VERTEX
 8
CYLINDER_4
 10
0
 20
0
 30
0
 70
128
 71
1
 72
67
 73
71
 74
71
 0
VERTEX
 8
CYLINDER_4
 10
0
 20
0
 30
0
 70
128
 71
68
 72
69
 73
73
 74
72
 0
VERTEX
 8
CYLINDER_4
 10
0
 20
0
 30
0
 70
128
 71
70
 72
2
 73
74
 74
74
 0
VERTEX
 8
CYLINDER_4
 10
0
 20
0
 30
0
 70
128
 71
1
 72
71
 73
75
 74
75
 0
VERTEX
 8
CYLINDER_4
 10
0
 20
0
 30
0
 70
128
 71
72
 72
73
 73
77
 74
76
 0
VERTEX
 8
CYLINDER_4
 10
0
 20
0
 30
0
 70
128
 71
74
 72
2
 73
78
 74
78
 0
VERTEX
 8
CYLINDER_4
 10
0
 20
0
 30
0
 70
128
 71
1
 72
75
 73
79
 74
79
 0
VERTEX
 8
CYLINDER_4
 10
0
 20
0
 30
0
 70
128
 71
76
 72
77
 73
81
 74
80
 0
VERTEX
 8
CYLINDER_4
 10
0
 20
0
 30
0
 70
128
 71
78
 72
2
 73
82
 74
82
 0
VERTEX
 8
CYLINDER_4
 10
0
 20
0
 30
0
 70
128
 71
1
 72
79
 73
83
 74
83
 0
VERTEX
 8
CYLINDER_4
 10
0
 20
0
 30
0
 70
128
 71
80
 72
81
 73
85
 74
84
 0
VERTEX
 8
CYLINDER_4
 10
0
 20
0
 30
0
 70
128
 71
82
 72
2
 73
86
 74
86
 0
VERTEX
 8
CYLINDER_4
 10
0
 20
0
 30
0
 70
128
 71
1
 72
83
 73
87
 74
87
 0
VERTEX
 8
CYLINDER_4
 10
0
 20
0
 30
0
 70
128
 71
84
 72
85
 73
89
 74
88
 0
VERTEX
 8
CYLINDER_4
 10
0
 20
0
 30
0
 70
128
 71
86
 72
2
 73
90
 74
90
 0
VERTEX
 8
CYLINDER_4
 10
0
 20
0
 30
0
 70
128
 71
1
 72
87
 73
91
 74
91
 0
VERTEX
 8
CYLINDER_4
 10
0
 20
0
 30
0
 70
128
 71
88
 72
89
 73
93
 74
92
 0
VERTEX
 8
CYLINDER_4
 10
0
 20
0
 30
0
 70
128
 71
90
 72
2
 73
94
 74
94
 0
VERTEX
 8
CYLINDER_4
 10
0
 20
0
 30
0
 70
128
 71
1
 72
91
 73
95
 74
95
 0
VERTEX
 8
CYLINDER_4
 10
0
 20
0
 30
0
 70
128
 71
92
 72
93
 73
97
 74
96
 0
VERTEX
 8
CYLINDER_4
 10
0
 20
0
 30
0
 70
128
 71
94
 72
2
 73
98
 74
98
 0
VERTEX
 8
CYLINDER_4
 10
0
 20
0
 30
0
 70
128
 71
1
 72
95
 73
99
 74
99
 0
VERTEX
 8
CYLINDER_4
 10
0
 20
0
 30
0
 70
128
 71
96
 72
97
 73
101
 74
100
 0
VERTEX
 8
CYLINDER_4
 10
0
 20
0
 30
0
 70
128
 71
98
 72
2
 73
102
 74
102
 0
VERTEX
 8
CYLINDER_4
 10
0
 20
0
 30
0
 70
128
 71
1
 72
99
 73
103
 74
103
 0
VERTEX
 8
CYLINDER_4
 10
0
 20
0
 30
0
 70
128
 71
100
 72
101
 73
105
 74
104
 0
VERTEX
 8
CYLINDER_4
 10
0
 20
0
 30
0
 70
128
 71
102
 72
2
 73
106
 74
106
 0
VERTEX
 8
CYLINDER_4
 10
0
 20
0
 30
0
 70
128
 71
1
 72
103
 73
107
 74
107
 0
VERTEX
 8
CYLINDER_4
 10
0
 20
0
 30
0
 70
128
 71
104
 72
105
 73
109
 74
108
 0
VERTEX
 8
CYLINDER_4
 10
0
 20
0
 30
0
 70
128
 71
106
 72
2
 73
110
 74
110
 0
VERTEX
 8
CYLINDER_4
 10
0
 20
0
 30
0
 70
128
 71
1
 72
107
 73
111
 74
111
 0
VERTEX
 8
CYLINDER_4
 10
0
 20
0
 30
0
 70
128
 71
108
 72
109
 73
113
 74
112
 0
VERTEX
 8
CYLINDER_4
 10
0
 20
0
 30
0
 70
128
 71
110
 72
2
 73
114
 74
114
 0
VERTEX
 8
CYLINDER_4
 10
0
 20
0
 30
0
 70
128
 71
1
 72
111
 73
115
 74
115
 0
VERTEX
 8
CYLINDER_4
 10
0
 20
0
 30
0
 70
128
 71
112
 72
113
 73
117
 74
116
 0
VERTEX
 8
CYLINDER_4
 10
0
 20
0
 30
0
 70
128
 71
114
 72
2
 73
118
 74
118
 0
VERTEX
 8
CYLINDER_4
 10
0
 20
0
 30
0
 70
128
 71
1
 72
115
 73
119
 74
119
 0
VERTEX
 8
CYLINDER_4
 10
0
 20
0
 30
0
 70
128
 71
116
 72
117
 73
121
 74
120
 0
VERTEX
 8
CYLINDER_4
 10
0
 20
0
 30
0
 70
128
 71
118
 72
2
 73
122
 74
122
 0
VERTEX
 8
CYLINDER_4
 10
0
 20
0
 30
0
 70
128
 71
1
 72
119
 73
123
 74
123
 0
VERTEX
 8
CYLINDER_4
 10
0
 20
0
 30
0
 70
128
 71
120
 72
121
 73
125
 74
124
 0
VERTEX
 8
CYLINDER_4
 10
0
 20
0
 30
0
 70
128
 71
122
 72
2
 73
126
 74
126
 0
VERTEX
 8
CYLINDER_4
 10
0
 20
0
 30
0
 70
128
 71
1
 72
123
 73
127
 74
127
 0
VERTEX
 8
CYLINDER_4
 10
0
 20
0
 30
0
 70
128
 71
124
 72
125
 73
129
 74
128
 0
VERTEX
 8
CYLINDER_4
 10
0
 20
0
 30
0
 70
128
 71
126
 72
2
 73
130
 74
130
 0
VERTEX
 8
CYLINDER_4
 10
0
 20
0
 30
0
 70
128
 71
1
 72
127
 73
131
 74
131
 0
VERTEX
 8
CYLINDER_4
 10
0
 20
0
 30
0
 70
128
 71
128
 72
129
 73
133
 74
132
 0
VERTEX
 8
CYLINDER_4
 10
0
 20
0
 30
0
 70
128
 71
130
 72
2
 73
134
 74
134
 0
VERTEX
 8
CYLINDER_4
 10
0
 20
0
 30
0
 70
128
 71
1
 72
131
 73
135
 74
135
 0
VERTEX
 8
CYLINDER_4
 10
0
 20
0
 30
0
 70
128
 71
132
 72
133
 73
137
 74
136
 0
VERTEX
 8
CYLINDER_4
 10
0
 20
0
 30
0
 70
128
 71
134
 72
2
 73
138
 74
138
 0
VERTEX
 8
CYLINDER_4
 10
0
 20
0
 30
0
 70
128
 71
1
 72
135
 73
139
 74
139
 0
VERTEX
 8
CYLINDER_4
 10
0
 20
0
 30
0
 70
128
 71
136
 72
137
 73
141
 74
140
 0
VERTEX
 8
CYLINDER_4
 10
0
 20
0
 30
0
 70
128
 71
138
 72
2
 73
142
 74
142
 0
VERTEX
 8
CYLINDER_4
 10
0
 20
0
 30
0
 70
128
 71
1
 72
139
 73
143
 74
143
 0
VERTEX
 8
CYLINDER_4
 10
0
 20
0
 30
0
 70
128
 71
140
 72
141
 73
145
 74
144
 0
VERTEX
 8
CYLINDER_4
 10
0
 20
0
 30
0
 70
128
 71
142
 72
2
 73
146
 74
146
 0
VERTEX
 8
CYLINDER_4
 10
0
 20
0
 30
0
 70
128
 71
1
 72
143
 73
3
 74
3
 0
VERTEX
 8
CYLINDER_4
 10
0
 20
0
 30
0
 70
128
 71
144
 72
145
 73
5
 74
4
 0
VERTEX
 8
CYLINDER_4
 10
0
 20
0
 30
0
 70
128
 71
146
 72
2
 73
6
 74
6
 0
SEQEND
 0
POLYLINE
 8
CYLINDER_3
 66
1
 10
0.0
 20
0.0
 30
0.0
 70
64
 71
146
 72
108
 0
VERTEX
 8
CYLINDER_3
 10
-0.4546
 20
-0.427
 30
-0.089
 70
192
 0
VERTEX
 8
CYLINDER_3
 10
-0.7889
 20
-0.427
 30
-0.089
 70
192
 0
VERTEX
 8
CYLINDER_3
 10
-0.4546
 20
-0.4241
 30
-0.0741
 70
192
 0
VERTEX
 8
CYLINDER_3
 10
-0.4546
 20
-0.4241
 30
-0.0741
 70
192
 0
VERTEX
 8
CYLINDER_3
 10
-0.7889
 20
-0.4241
 30
-0.0741
 70
192
 0
VERTEX
 8
CYLINDER_3
 10
-0.7889
 20
-0.4241
 30
-0.0741
 70
192
 0
VERTEX
 8
CYLINDER_3
 10
-0.4546
 20
-0.4215
 30
-0.0748
 70
192
 0
VERTEX
 8
CYLINDER_3
 10
-0.4546
 20
-0.4215
 30
-0.0748
 70
192
 0
VERTEX
 8
CYLINDER_3
 10
-0.7889
 20
-0.4215
 30
-0.0748
 70
192
 0
VERTEX
 8
CYLINDER_3
 10
-0.7889
 20
-0.4215
 30
-0.0748
 70
192
 0
VERTEX
 8
CYLINDER_3
 10
-0.4546
 20
-0.4191
 30
-0.076
 70
192
 0
VERTEX
 8
CYLINDER_3
 10
-0.4546
 20
-0.4191
 30
-0.076
 70
192
 0
VERTEX
 8
CYLINDER_3
 10
-0.7889
 20
-0.4191
 30
-0.076
 70
192
 0
VERTEX
 8
CYLINDER_3
 10
-0.7889
 20
-0.4191
 30
-0.076
 70
192
 0
VERTEX
 8
CYLINDER_3
 10
-0.4546
 20
-0.417
 30
-0.0776
 70
192
 0
VERTEX
 8
CYLINDER_3
 10
-0.4546
 20
-0.417
 30
-0.0776
 70
192
 0
VERTEX
 8
CYLINDER_3
 10
-0.7889
 20
-0.417
 30
-0.0776
 70
192
 0
VERTEX
 8
CYLINDER_3
 10
-0.7889
 20
-0.417
 30
-0.0776
 70
192
 0
VERTEX
 8
CYLINDER_3
 10
-0.4546
 20
-0.4152
 30
-0.0795
 70
192
 0
VERTEX
 8
CYLINDER_3
 10
-0.4546
 20
-0.4152
 30
-0.0795
 70
192
 0
VERTEX
 8
CYLINDER_3
 10
-0.7889
 20
-0.4152
 30
-0.0795
 70
192
 0
VERTEX
 8
CYLINDER_3
 10
-0.7889
 20
-0.4152
 30
-0.0795
 70
192
 0
VERTEX
 8
CYLINDER_3
 10
-0.4546
 20
-0.4137
 30
-0.0817
 70
192
 0
VERTEX
 8
CYLINDER_3
 10
-0.4546
 20
-0.4137
 30
-0.0817
 70
192
 0
VERTEX
 8
CYLINDER_3
 10
-0.7889
 20
-0.4137
 30
-0.0817
 70
192
 0
VERTEX
 8
CYLINDER_3
 10
-0.7889
 20
-0.4137
 30
-0.0817
 70
192
 0
VERTEX
 8
CYLINDER_3
 10
-0.4546
 20
-0.4127
 30
-0.0841
 70
192
 0
VERTEX
 8
CYLINDER_3
 10
-0.4546
 20
-0.4127
 30
-0.0841
 70
192
 0
VERTEX
 8
CYLINDER_3
 10
-0.7889
 20
-0.4127
 30
-0.0841
 70
192
 0
VERTEX
 8
CYLINDER_3
 10
-0.7889
 20
-0.4127
 30
-0.0841
 70
192
 0
VERTEX
 8
CYLINDER_3
 10
-0.4546
 20
-0.412
 30
-0.0867
 70
192
 0
VERTEX
 8
CYLINDER_3
 10
-0.4546
 20
-0.412
 30
-0.0867
 70
192
 0
VERTEX
 8
CYLINDER_3
 10
-0.7889
 20
-0.412
 30
-0.0867
 70
192
 0
VERTEX
 8
CYLINDER_3
 10
-0.7889
 20
-0.412
 30
-0.0867
 70
192
 0
VERTEX
 8
CYLINDER_3
 10
-0.4546
 20
-0.4119
 30
-0.0893
 70
192
 0
VERTEX
 8
CYLINDER_3
 10
-0.4546
 20
-0.4119
 30
-0.0893
 70
192
 0
VERTEX
 8
CYLINDER_3
 10
-0.7889
 20
-0.4119
 30
-0.0893
 70
192
 0
VERTEX
 8
CYLINDER_3
 10
-0.7889
 20
-0.4119
 30
-0.0893
 70
192
 0
VERTEX
 8
CYLINDER_3
 10
-0.4546
 20
-0.4121
 30
-0.0919
 70
192
 0
VERTEX
 8
CYLINDER_3
 10
-0.4546
 20
-0.4121
 30
-0.0919
 70
192
 0
VERTEX
 8
CYLINDER_3
 10
-0.7889
 20
-0.4121
 30
-0.0919
 70
192
 0
VERTEX
 8
CYLINDER_3
 10
-0.7889
 20
-0.4121
 30
-0.0919
 70
192
 0
VERTEX
 8
CYLINDER_3
 10
-0.4546
 20
-0.4129
 30
-0.0945
 70
192
 0
VERTEX
 8
CYLINDER_3
 10
-0.4546
 20
-0.4129
 30
-0.0945
 70
192
 0
VERTEX
 8
CYLINDER_3
 10
-0.7889
 20
-0.4129
 30
-0.0945
 70
192
 0
VERTEX
 8
CYLINDER_3
 10
-0.7889
 20
-0.4129
 30
-0.0945
 70
192
 0
VERTEX
 8
CYLINDER_3
 10
-0.4546
 20
-0.414
 30
-0.0968
 70
192
 0
VERTEX
 8
CYLINDER_3
 10
-0.4546
 20
-0.414
 30
-0.0968
 70
192
 0
VERTEX
 8
CYLINDER_3
 10
-0.7889
 20
-0.414
 30
-0.0968
 70
192
 0
VERTEX
 8
CYLINDER_3
 10
-0.7889
 20
-0.414
 30
-0.0968
 70
192
 0
VERTEX
 8
CYLINDER_3
 10
-0.4546
 20
-0.4156
 30
-0.099
 70
192
 0
VERTEX
 8
CYLINDER_3
 10
-0.4546
 20
-0.4156
 30
-0.099
 70
192
 0
VERTEX
 8
CYLINDER_3
 10
-0.7889
 20
-0.4156
 30
-0.099
 70
192
 0
VERTEX
 8
CYLINDER_3
 10
-0.7889
 20
-0.4156
 30
-0.099
 70
192
 0
VERTEX
 8
CYLINDER_3
 10
-0.4546
 20
-0.4175
 30
-0.1008
 70
192
 0
VERTEX
 8
CYLINDER_3
 10
-0.4546
 20
-0.4175
 30
-0.1008
 70
192
 0
VERTEX
 8
CYLINDER_3
 10
-0.7889
 20
-0.4175
 30
-0.1008
 70
192
 0
VERTEX
 8
CYLINDER_3
 10
-0.7889
 20
-0.4175
 30
-0.1008
 70
192
 0
VERTEX
 8
CYLINDER_3
 10
-0.4546
 20
-0.4197
 30
-0.1023
 70
192
 0
VERTEX
 8
CYLINDER_3
 10
-0.4546
 20
-0.4197
 30
-0.1023
 70
192
 0
VERTEX
 8
CYLINDER_3
 10
-0.7889
 20
-0.4197
 30
-0.1023
 70
192
 0
VERTEX
 8
CYLINDER_3
 10
-0.7889
 20
-0.4197
 30
-0.1023
 70
192
 0
VERTEX
 8
CYLINDER_3
 10
-0.4546
 20
-0.4221
 30
-0.1033
 70
192
 0
VERTEX
 8
CYLINDER_3
 10
-0.4546
 20
-0.4221
 30
-0.1033
 70
192
 0
VERTEX
 8
CYLINDER_3
 10
-0.7889
 20
-0.4221
 30
-0.1033
 70
192
 0
VERTEX
 8
CYLINDER_3
 10
-0.7889
 20
-0.4221
 30
-0.1033
 70
192
 0
VERTEX
 8
CYLINDER_3
 10
-0.4546
 20
-0.4247
 30
-0.1039
 70
192
 0
VERTEX
 8
CYLINDER_3
 10
-0.4546
 20
-0.4247
 30
-0.1039
 70
192
 0
VERTEX
 8
CYLINDER_3
 10
-0.7889
 20
-0.4247
 30
-0.1039
 70
192
 0
VERTEX
 8
CYLINDER_3
 10
-0.7889
 20
-0.4247
 30
-0.1039
 70
192
 0
VERTEX
 8
CYLINDER_3
 10
-0.4546
 20
-0.4273
 30
-0.1041
 70
192
 0
VERTEX
 8
CYLINDER_3
 10
-0.4546
 20
-0.4273
 30
-0.1041
 70
192
 0
VERTEX
 8
CYLINDER_3
 10
-0.7889
 20
-0.4273
 30
-0.1041
 70
192
 0
VERTEX
 8
CYLINDER_3
 10
-0.7889
 20
-0.4273
 30
-0.1041
 70
192
 0
VERTEX
 8
CYLINDER_3
 10
-0.4546
 20
-0.43
 30
-0.1038
 70
192
 0
VERTEX
 8
CYLINDER_3
 10
-0.4546
 20
-0.43
 30
-0.1038
 70
192
 0
VERTEX
 8
CYLINDER_3
 10
-0.7889
 20
-0.43
 30
-0.1038
 70
192
 0
VERTEX
 8
CYLINDER_3
 10
-0.7889
 20
-0.43
 30
-0.1038
 70
192
 0
VERTEX
 8
CYLINDER_3
 10
-0.4546
 20
-0.4325
 30
-0.1031
 70
192
 0
VERTEX
 8
CYLINDER_3
 10
-0.4546
 20
-0.4325
 30
-0.1031
 70
192
 0
VERTEX
 8
CYLINDER_3
 10
-0.7889
 20
-0.4325
 30
-0.1031
 70
192
 0
VERTEX
 8
CYLINDER_3
 10
-0.7889
 20
-0.4325
 30
-0.1031
 70
192
 0
VERTEX
 8
CYLINDER_3
 10
-0.4546
 20
-0.4349
 30
-0.1019
 70
192
 0
VERTEX
 8
CYLINDER_3
 10
-0.4546
 20
-0.4349
 30
-0.1019
 70
192
 0
VERTEX
 8
CYLINDER_3
 10
-0.7889
 20
-0.4349
 30
-0.1019
 70
192
 0
VERTEX
 8
CYLINDER_3
 10
-0.7889
 20
-0.4349
 30
-0.1019
 70
192
 0
VERTEX
 8
CYLINDER_3
 10
-0.4546
 20
-0.437
 30
-0.1004
 70
192
 0
VERTEX
 8
CYLINDER_3
 10
-0.4546
 20
-0.437
 30
-0.1004
 70
192
 0
VERTEX
 8
CYLINDER_3
 10
-0.7889
 20
-0.437
 30
-0.1004
 70
192
 0
VERTEX
 8
CYLINDER_3
 10
-0.7889
 20
-0.437
 30
-0.1004
 70
192
 0
VERTEX
 8
CYLINDER_3
 10
-0.4546
 20
-0.4388
 30
-0.0985
 70
192
 0
VERTEX
 8
CYLINDER_3
 10
-0.4546
 20
-0.4388
 30
-0.0985
 70
192
 0
VERTEX
 8
CYLINDER_3
 10
-0.7889
 20
-0.4388
 30
-0.0985
 70
192
 0
VERTEX
 8
CYLINDER_3
 10
-0.7889
 20
-0.4388
 30
-0.0985
 70
192
 0
VERTEX
 8
CYLINDER_3
 10
-0.4546
 20
-0.4403
 30
-0.0963
 70
192
 0
VERTEX
 8
CYLINDER_3
 10
-0.4546
 20
-0.4403
 30
-0.0963
 70
192
 0
VERTEX
 8
CYLINDER_3
 10
-0.7889
 20
-0.4403
 30
-0.0963
 70
192
 0
VERTEX
 8
CYLINDER_3
 10
-0.7889
 20
-0.4403
 30
-0.0963
 70
192
 0
VERTEX
 8
CYLINDER_3
 10
-0.4546
 20
-0.4414
 30
-0.0938
 70
192
 0
VERTEX
 8
CYLINDER_3
 10
-0.4546
 20
-0.4414
 30
-0.0938
 70
192
 0
VERTEX
 8
CYLINDER_3
 10
-0.7889
 20
-0.4414
 30
-0.0938
 70
192
 0
VERTEX
 8
CYLINDER_3
 10
-0.7889
 20
-0.4414
 30
-0.0938
 70
192
 0
VERTEX
 8
CYLINDER_3
 10
-0.4546
 20
-0.442
 30
-0.0913
 70
192
 0
VERTEX
 8
CYLINDER_3
 10
-0.4546
 20
-0.442
 30
-0.0913
 70
192
 0
VERTEX
 8
CYLINDER_3
 10
-0.7889
 20
-0.442
 30
-0.0913
 70
192
 0
VERTEX
 8
CYLINDER_3
 10
-0.7889
 20
-0.442
 30
-0.0913
 70
192
 0
VERTEX
 8
CYLINDER_3
 10
-0.4546
 20
-0.4422
 30
-0.0886
 70
192
 0
VERTEX
 8
CYLINDER_3
 10
-0.4546
 20
-0.4422
 30
-0.0886
 70
192
 0
VERTEX
 8
CYLINDER_3
 10
-0.7889
 20
-0.4422
 30
-0.0886
 70
192
 0
VERTEX
 8
CYLINDER_3
 10
-0.7889
 20
-0.4422
 30
-0.0886
 70
192
 0
VERTEX
 8
CYLINDER_3
 10
-0.4546
 20
-0.4419
 30
-0.086
 70
192
 0
VERTEX
 8
CYLINDER_3
 10
-0.4546
 20
-0.4419
 30
-0.086
 70
192
 0
VERTEX
 8
CYLINDER_3
 10
-0.7889
 20
-0.4419
 30
-0.086
 70
192
 0
VERTEX
 8
CYLINDER_3
 10
-0.7889
 20
-0.4419
 30
-0.086
 70
192
 0
VERTEX
 8
CYLINDER_3
 10
-0.4546
 20
-0.4411
 30
-0.0835
 70
192
 0
VERTEX
 8
CYLINDER_3
 10
-0.4546
 20
-0.4411
 30
-0.0835
 70
192
 0
VERTEX
 8
CYLINDER_3
 10
-0.7889
 20
-0.4411
 30
-0.0835
 70
192
 0
VERTEX
 8
CYLINDER_3
 10
-0.7889
 20
-0.4411
 30
-0.0835
 70
192
 0
VERTEX
 8
CYLINDER_3
 10
-0.4546
 20
-0.44
 30
-0.0811
 70
192
 0
VERTEX
 8
CYLINDER_3
 10
-0.4546
 20
-0.44
 30
-0.0811
 70
192
 0
VERTEX
 8
CYLINDER_3
 10
-0.7889
 20
-0.44
 30
-0.0811
 70
192
 0
VERTEX
 8
CYLINDER_3
 10
-0.7889
 20
-0.44
 30
-0.0811
 70
192
 0
VERTEX
 8
CYLINDER_3
 10
-0.4546
 20
-0.4384
 30
-0.079
 70
192
 0
VERTEX
 8
CYLINDER_3
 10
-0.4546
 20
-0.4384
 30
-0.079
 70
192
 0
VERTEX
 8
CYLINDER_3
 10
-0.7889
 20
-0.4384
 30
-0.079
 70
192
 0
VERTEX
 8
CYLINDER_3
 10
-0.7889
 20
-0.4384
 30
-0.079
 70
192
 0
VERTEX
 8
CYLINDER_3
 10
-0.4546
 20
-0.4365
 30
-0.0772
 70
192
 0
VERTEX
 8
CYLINDER_3
 10
-0.4546
 20
-0.4365
 30
-0.0772
 70
192
 0
VERTEX
 8
CYLINDER_3
 10
-0.7889
 20
-0.4365
 30
-0.0772
 70
192
 0
VERTEX
 8
CYLINDER_3
 10
-0.7889
 20
-0.4365
 30
-0.0772
 70
192
 0
VERTEX
 8
CYLINDER_3
 10
-0.4546
 20
-0.4343
 30
-0.0757
 70
192
 0
VERTEX
 8
CYLINDER_3
 10
-0.4546
 20
-0.4343
 30
-0.0757
 70
192
 0
VERTEX
 8
CYLINDER_3
 10
-0.7889
 20
-0.4343
 30
-0.0757
 70
192
 0
VERTEX
 8
CYLINDER_3
 10
-0.7889
 20
-0.4343
 30
-0.0757
 70
192
 0
VERTEX
 8
CYLINDER_3
 10
-0.4546
 20
-0.4319
 30
-0.0746
 70
192
 0
VERTEX
 8
CYLINDER_3
 10
-0.4546
 20
-0.4319
 30
-0.0746
 70
192
 0
VERTEX
 8
CYLINDER_3
 10
-0.7889
 20
-0.4319
 30
-0.0746
 70
192
 0
VERTEX
 8
CYLINDER_3
 10
-0.7889
 20
-0.4319
 30
-0.0746
 70
192
 0
VERTEX
 8
CYLINDER_3
 10
-0.4546
 20
-0.4293
 30
-0.074
 70
192
 0
VERTEX
 8
CYLINDER_3
 10
-0.4546
 20
-0.4293
 30
-0.074
 70
192
 0
VERTEX
 8
CYLINDER_3
 10
-0.7889
 20
-0.4293
 30
-0.074
 70
192
 0
VERTEX
 8
CYLINDER_3
 10
-0.7889
 20
-0.4293
 30
-0.074
 70
192
 0
VERTEX
 8
CYLINDER_3
 10
-0.4546
 20
-0.4267
 30
-0.0738
 70
192
 0
VERTEX
 8
CYLINDER_3
 10
-0.4546
 20
-0.4267
 30
-0.0738
 70
192
 0
VERTEX
 8
CYLINDER_3
 10
-0.7889
 20
-0.4267
 30
-0.0738
 70
192
 0
VERTEX
 8
CYLINDER_3
 10
-0.7889
 20
-0.4267
 30
-0.0738
 70
192
 0
VERTEX
 8
CYLINDER_3
 10
0
 20
0
 30
0
 70
128
 71
1
 72
3
 73
7
 74
7
 0
VERTEX
 8
CYLINDER_3
 10
0
 20
0
 30
0
 70
128
 71
4
 72
5
 73
9
 74
8
 0
VERTEX
 8
CYLINDER_3
 10
0
 20
0
 30
0
 70
128
 71
6
 72
2
 73
10
 74
10
 0
VERTEX
 8
CYLINDER_3
 10
0
 20
0
 30
0
 70
128
 71
1
 72
7
 73
11
 74
11
 0
VERTEX
 8
CYLINDER_3
 10
0
 20
0
 30
0
 70
128
 71
8
 72
9
 73
13
 74
12
 0
VERTEX
 8
CYLINDER_3
 10
0
 20
0
 30
0
 70
128
 71
10
 72
2
 73
14
 74
14
 0
VERTEX
 8
CYLINDER_3
 10
0
 20
0
 30
0
 70
128
 71
1
 72
11
 73
15
 74
15
 0
VERTEX
 8
CYLINDER_3
 10
0
 20
0
 30
0
 70
128
 71
12
 72
13
 73
17
 74
16
 0
VERTEX
 8
CYLINDER_3
 10
0
 20
0
 30
0
 70
128
 71
14
 72
2
 73
18
 74
18
 0
VERTEX
 8
CYLINDER_3
 10
0
 20
0
 30
0
 70
128
 71
1
 72
15
 73
19
 74
19
 0
VERTEX
 8
CYLINDER_3
 10
0
 20
0
 30
0
 70
128
 71
16
 72
17
 73
21
 74
20
 0
VERTEX
 8
CYLINDER_3
 10
0
 20
0
 30
0
 70
128
 71
18
 72
2
 73
22
 74
22
 0
VERTEX
 8
CYLINDER_3
 10
0
 20
0
 30
0
 70
128
 71
1
 72
19
 73
23
 74
23
 0
VERTEX
 8
CYLINDER_3
 10
0
 20
0
 30
0
 70
128
 71
20
 72
21
 73
25
 74
24
 0
VERTEX
 8
CYLINDER_3
 10
0
 20
0
 30
0
 70
128
 71
22
 72
2
 73
26
 74
26
 0
VERTEX
 8
CYLINDER_3
 10
0
 20
0
 30
0
 70
128
 71
1
 72
23
 73
27
 74
27
 0
VERTEX
 8
CYLINDER_3
 10
0
 20
0
 30
0
 70
128
 71
24
 72
25
 73
29
 74
28
 0
VERTEX
 8
CYLINDER_3
 10
0
 20
0
 30
0
 70
128
 71
26
 72
2
 73
30
 74
30
 0
VERTEX
 8
CYLINDER_3
 10
0
 20
0
 30
0
 70
128
 71
1
 72
27
 73
31
 74
31
 0
VERTEX
 8
CYLINDER_3
 10
0
 20
0
 30
0
 70
128
 71
28
 72
29
 73
33
 74
32
 0
VERTEX
 8
CYLINDER_3
 10
0
 20
0
 30
0
 70
128
 71
30
 72
2
 73
34
 74
34
 0
VERTEX
 8
CYLINDER_3
 10
0
 20
0
 30
0
 70
128
 71
1
 72
31
 73
35
 74
35
 0
VERTEX
 8
CYLINDER_3
 10
0
 20
0
 30
0
 70
128
 71
32
 72
33
 73
37
 74
36
 0
VERTEX
 8
CYLINDER_3
 10
0
 20
0
 30
0
 70
128
 71
34
 72
2
 73
38
 74
38
 0
VERTEX
 8
CYLINDER_3
 10
0
 20
0
 30
0
 70
128
 71
1
 72
35
 73
39
 74
39
 0
VERTEX
 8
CYLINDER_3
 10
0
 20
0
 30
0
 70
128
 71
36
 72
37
 73
41
 74
40
 0
VERTEX
 8
CYLINDER_3
 10
0
 20
0
 30
0
 70
128
 71
38
 72
2
 73
42
 74
42
 0
VERTEX
 8
CYLINDER_3
 10
0
 20
0
 30
0
 70
128
 71
1
 72
39
 73
43
 74
43
 0
VERTEX
 8
CYLINDER_3
 10
0
 20
0
 30
0
 70
128
 71
40
 72
41
 73
45
 74
44
 0
VERTEX
 8
CYLINDER_3
 10
0
 20
0
 30
0
 70
128
 71
42
 72
2
 73
46
 74
46
 0
VERTEX
 8
CYLINDER_3
 10
0
 20
0
 30
0
 70
128
 71
1
 72
43
 73
47
 74
47
 0
VERTEX
 8
CYLINDER_3
 10
0
 20
0
 30
0
 70
128
 71
44
 72
45
 73
49
 74
48
 0
VERTEX
 8
CYLINDER_3
 10
0
 20
0
 30
0
 70
128
 71
46
 72
2
 73
50
 74
50
 0
VERTEX
 8
CYLINDER_3
 10
0
 20
0
 30
0
 70
128
 71
1
 72
47
 73
51
 74
51
 0
VERTEX
 8
CYLINDER_3
 10
0
 20
0
 30
0
 70
128
 71
48
 72
49
 73
53
 74
52
 0
VERTEX
 8
CYLINDER_3
 10
0
 20
0
 30
0
 70
128
 71
50
 72
2
 73
54
 74
54
 0
VERTEX
 8
CYLINDER_3
 10
0
 20
0
 30
0
 70
128
 71
1
 72
51
 73
55
 74
55
 0
VERTEX
 8
CYLINDER_3
 10
0
 20
0
 30
0
 70
128
 71
52
 72
53
 73
57
 74
56
 0
VERTEX
 8
CYLINDER_3
 10
0
 20
0
 30
0
 70
128
 71
54
 72
2
 73
58
 74
58
 0
VERTEX
 8
CYLINDER_3
 10
0
 20
0
 30
0
 70
128
 71
1
 72
55
 73
59
 74
59
 0
VERTEX
 8
CYLINDER_3
 10
0
 20
0
 30
0
 70
128
 71
56
 72
57
 73
61
 74
60
 0
VERTEX
 8
CYLINDER_3
 10
0
 20
0
 30
0
 70
128
 71
58
 72
2
 73
62
 74
62
 0
VERTEX
 8
CYLINDER_3
 10
0
 20
0
 30
0
 70
128
 71
1
 72
59
 73
63
 74
63
 0
VERTEX
 8
CYLINDER_3
 10
0
 20
0
 30
0
 70
128
 71
60
 72
61
 73
65
 74
64
 0
VERTEX
 8
CYLINDER_3
 10
0
 20
0
 30
0
 70
128
 71
62
 72
2
 73
66
 74
66
 0
VERTEX
 8
CYLINDER_3
 10
0
 20
0
 30
0
 70
128
 71
1
 72
63
 73
67
 74
67
 0
VERTEX
 8
CYLINDER_3
 10
0
 20
0
 30
0
 70
128
 71
64
 72
65
 73
69
 74
68
 0
VERTEX
 8
CYLINDER_3
 10
0
 20
0
 30
0
 70
128
 71
66
 72
2
 73
70
 74
70
 0
VERTEX
 8
CYLINDER_3
 10
0
 20
0
 30
0
 70
128
 71
1
 72
67
 73
71
 74
71
 0
VERTEX
 8
CYLINDER_3
 10
0
 20
0
 30
0
 70
128
 71
68
 72
69
 73
73
 74
72
 0
VERTEX
 8
CYLINDER_3
 10
0
 20
0
 30
0
 70
128
 71
70
 72
2
 73
74
 74
74
 0
VERTEX
 8
CYLINDER_3
 10
0
 20
0
 30
0
 70
128
 71
1
 72
71
 73
75
 74
75
 0
VERTEX
 8
CYLINDER_3
 10
0
 20
0
 30
0
 70
128
 71
72
 72
73
 73
77
 74
76
 0
VERTEX
 8
CYLINDER_3
 10
0
 20
0
 30
0
 70
128
 71
74
 72
2
 73
78
 74
78
 0
VERTEX
 8
CYLINDER_3
 10
0
 20
0
 30
0
 70
128
 71
1
 72
75
 73
79
 74
79
 0
VERTEX
 8
CYLINDER_3
 10
0
 20
0
 30
0
 70
128
 71
76
 72
77
 73
81
 74
80
 0
VERTEX
 8
CYLINDER_3
 10
0
 20
0
 30
0
 70
128
 71
78
 72
2
 73
82
 74
82
 0
VERTEX
 8
CYLINDER_3
 10
0
 20
0
 30
0
 70
128
 71
1
 72
79
 73
83
 74
83
 0
VERTEX
 8
CYLINDER_3
 10
0
 20
0
 30
0
 70
128
 71
80
 72
81
 73
85
 74
84
 0
VERTEX
 8
CYLINDER_3
 10
0
 20
0
 30
0
 70
128
 71
82
 72
2
 73
86
 74
86
 0
VERTEX
 8
CYLINDER_3
 10
0
 20
0
 30
0
 70
128
 71
1
 72
83
 73
87
 74
87
 0
VERTEX
 8
CYLINDER_3
 10
0
 20
0
 30
0
 70
128
 71
84
 72
85
 73
89
 74
88
 0
VERTEX
 8
CYLINDER_3
 10
0
 20
0
 30
0
 70
128
 71
86
 72
2
 73
90
 74
90
 0
VERTEX
 8
CYLINDER_3
 10
0
 20
0
 30
0
 70
128
 71
1
 72
87
 73
91
 74
91
 0
VERTEX
 8
CYLINDER_3
 10
0
 20
0
 30
0
 70
128
 71
88
 72
89
 73
93
 74
92
 0
VERTEX
 8
CYLINDER_3
 10
0
 20
0
 30
0
 70
128
 71
90
 72
2
 73
94
 74
94
 0
VERTEX
 8
CYLINDER_3
 10
0
 20
0
 30
0
 70
128
 71
1
 72
91
 73
95
 74
95
 0
VERTEX
 8
CYLINDER_3
 10
0
 20
0
 30
0
 70
128
 71
92
 72
93
 73
97
 74
96
 0
VERTEX
 8
CYLINDER_3
 10
0
 20
0
 30
0
 70
128
 71
94
 72
2
 73
98
 74
98
 0
VERTEX
 8
CYLINDER_3
 10
0
 20
0
 30
0
 70
128
 71
1
 72
95
 73
99
 74
99
 0
VERTEX
 8
CYLINDER_3
 10
0
 20
0
 30
0
 70
128
 71
96
 72
97
 73
101
 74
100
 0
VERTEX
 8
CYLINDER_3
 10
0
 20
0
 30
0
 70
128
 71
98
 72
2
 73
102
 74
102
 0
VERTEX
 8
CYLINDER_3
 10
0
 20
0
 30
0
 70
128
 71
1
 72
99
 73
103
 74
103
 0
VERTEX
 8
CYLINDER_3
 10
0
 20
0
 30
0
 70
128
 71
100
 72
101
 73
105
 74
104
 0
VERTEX
 8
CYLINDER_3
 10
0
 20
0
 30
0
 70
128
 71
102
 72
2
 73
106
 74
106
 0
VERTEX
 8
CYLINDER_3
 10
0
 20
0
 30
0
 70
128
 71
1
 72
103
 73
107
 74
107
 0
VERTEX
 8
CYLINDER_3
 10
0
 20
0
 30
0
 70
128
 71
104
 72
105
 73
109
 74
108
 0
VERTEX
 8
CYLINDER_3
 10
0
 20
0
 30
0
 70
128
 71
106
 72
2
 73
110
 74
110
 0
VERTEX
 8
CYLINDER_3
 10
0
 20
0
 30
0
 70
128
 71
1
 72
107
 73
111
 74
111
 0
VERTEX
 8
CYLINDER_3
 10
0
 20
0
 30
0
 70
128
 71
108
 72
109
 73
113
 74
112
 0
VERTEX
 8
CYLINDER_3
 10
0
 20
0
 30
0
 70
128
 71
110
 72
2
 73
114
 74
114
 0
VERTEX
 8
CYLINDER_3
 10
0
 20
0
 30
0
 70
128
 71
1
 72
111
 73
115
 74
115
 0
VERTEX
 8
CYLINDER_3
 10
0
 20
0
 30
0
 70
128
 71
112
 72
113
 73
117
 74
116
 0
VERTEX
 8
CYLINDER_3
 10
0
 20
0
 30
0
 70
128
 71
114
 72
2
 73
118
 74
118
 0
VERTEX
 8
CYLINDER_3
 10
0
 20
0
 30
0
 70
128
 71
1
 72
115
 73
119
 74
119
 0
VERTEX
 8
CYLINDER_3
 10
0
 20
0
 30
0
 70
128
 71
116
 72
117
 73
121
 74
120
 0
VERTEX
 8
CYLINDER_3
 10
0
 20
0
 30
0
 70
128
 71
118
 72
2
 73
122
 74
122
 0
VERTEX
 8
CYLINDER_3
 10
0
 20
0
 30
0
 70
128
 71
1
 72
119
 73
123
 74
123
 0
VERTEX
 8
CYLINDER_3
 10
0
 20
0
 30
0
 70
128
 71
120
 72
121
 73
125
 74
124
 0
VERTEX
 8
CYLINDER_3
 10
0
 20
0
 30
0
 70
128
 71
122
 72
2
 73
126
 74
126
 0
VERTEX
 8
CYLINDER_3
 10
0
 20
0
 30
0
 70
128
 71
1
 72
123
 73
127
 74
127
 0
VERTEX
 8
CYLINDER_3
 10
0
 20
0
 30
0
 70
128
 71
124
 72
125
 73
129
 74
128
 0
VERTEX
 8
CYLINDER_3
 10
0
 20
0
 30
0
 70
128
 71
126
 72
2
 73
130
 74
130
 0
VERTEX
 8
CYLINDER_3
 10
0
 20
0
 30
0
 70
128
 71
1
 72
127
 73
131
 74
131
 0
VERTEX
 8
CYLINDER_3
 10
0
 20
0
 30
0
 70
128
 71
128
 72
129
 73
133
 74
132
 0
VERTEX
 8
CYLINDER_3
 10
0
 20
0
 30
0
 70
128
 71
130
 72
2
 73
134
 74
134
 0
VERTEX
 8
CYLINDER_3
 10
0
 20
0
 30
0
 70
128
 71
1
 72
131
 73
135
 74
135
 0
VERTEX
 8
CYLINDER_3
 10
0
 20
0
 30
0
 70
128
 71
132
 72
133
 73
137
 74
136
 0
VERTEX
 8
CYLINDER_3
 10
0
 20
0
 30
0
 70
128
 71
134
 72
2
 73
138
 74
138
 0
VERTEX
 8
CYLINDER_3
 10
0
 20
0
 30
0
 70
128
 71
1
 72
135
 73
139
 74
139
 0
VERTEX
 8
CYLINDER_3
 10
0
 20
0
 30
0
 70
128
 71
136
 72
137
 73
141
 74
140
 0
VERTEX
 8
CYLINDER_3
 10
0
 20
0
 30
0
 70
128
 71
138
 72
2
 73
142
 74
142
 0
VERTEX
 8
CYLINDER_3
 10
0
 20
0
 30
0
 70
128
 71
1
 72
139
 73
143
 74
143
 0
VERTEX
 8
CYLINDER_3
 10
0
 20
0
 30
0
 70
128
 71
140
 72
141
 73
145
 74
144
 0
VERTEX
 8
CYLINDER_3
 10
0
 20
0
 30
0
 70
128
 71
142
 72
2
 73
146
 74
146
 0
VERTEX
 8
CYLINDER_3
 10
0
 20
0
 30
0
 70
128
 71
1
 72
143
 73
3
 74
3
 0
VERTEX
 8
CYLINDER_3
 10
0
 20
0
 30
0
 70
128
 71
144
 72
145
 73
5
 74
4
 0
VERTEX
 8
CYLINDER_3
 10
0
 20
0
 30
0
 70
128
 71
146
 72
2
 73
6
 74
6
 0
SEQEND
 0
POLYLINE
 8
CYLINDER_2
 66
1
 10
0.0
 20
0.0
 30
0.0
 70
64
 71
146
 72
108
 0
VERTEX
 8
CYLINDER_2
 10
-0.4546
 20
-0.3689
 30
0.2037
 70
192
 0
VERTEX
 8
CYLINDER_2
 10
-0.7889
 20
-0.3689
 30
0.2037
 70
192
 0
VERTEX
 8
CYLINDER_2
 10
-0.4546
 20
-0.366
 30
0.2186
 70
192
 0
VERTEX
 8
CYLINDER_2
 10
-0.4546
 20
-0.366
 30
0.2186
 70
192
 0
VERTEX
 8
CYLINDER_2
 10
-0.7889
 20
-0.366
 30
0.2186
 70
192
 0
VERTEX
 8
CYLINDER_2
 10
-0.7889
 20
-0.366
 30
0.2186
 70
192
 0
VERTEX
 8
CYLINDER_2
 10
-0.4546
 20
-0.3634
 30
0.2178
 70
192
 0
VERTEX
 8
CYLINDER_2
 10
-0.4546
 20
-0.3634
 30
0.2178
 70
192
 0
VERTEX
 8
CYLINDER_2
 10
-0.7889
 20
-0.3634
 30
0.2178
 70
192
 0
VERTEX
 8
CYLINDER_2
 10
-0.7889
 20
-0.3634
 30
0.2178
 70
192
 0
VERTEX
 8
CYLINDER_2
 10
-0.4546
 20
-0.3611
 30
0.2167
 70
192
 0
VERTEX
 8
CYLINDER_2
 10
-0.4546
 20
-0.3611
 30
0.2167
 70
192
 0
VERTEX
 8
CYLINDER_2
 10
-0.7889
 20
-0.3611
 30
0.2167
 70
192
 0
VERTEX
 8
CYLINDER_2
 10
-0.7889
 20
-0.3611
 30
0.2167
 70
192
 0
VERTEX
 8
CYLINDER_2
 10
-0.4546
 20
-0.3589
 30
0.2151
 70
192
 0
VERTEX
 8
CYLINDER_2
 10
-0.4546
 20
-0.3589
 30
0.2151
 70
192
 0
VERTEX
 8
CYLINDER_2
 10
-0.7889
 20
-0.3589
 30
0.2151
 70
192
 0
VERTEX
 8
CYLINDER_2
 10
-0.7889
 20
-0.3589
 30
0.2151
 70
192
 0
VERTEX
 8
CYLINDER_2
 10
-0.4546
 20
-0.3571
 30
0.2132
 70
192
 0
VERTEX
 8
CYLINDER_2
 10
-0.4546
 20
-0.3571
 30
0.2132
 70
192
 0
VERTEX
 8
CYLINDER_2
 10
-0.7889
 20
-0.3571
 30
0.2132
 70
192
 0
VERTEX
 8
CYLINDER_2
 10
-0.7889
 20
-0.3571
 30
0.2132
 70
192
 0
VERTEX
 8
CYLINDER_2
 10
-0.4546
 20
-0.3556
 30
0.211
 70
192
 0
VERTEX
 8
CYLINDER_2
 10
-0.4546
 20
-0.3556
 30
0.211
 70
192
 0
VERTEX
 8
CYLINDER_2
 10
-0.7889
 20
-0.3556
 30
0.211
 70
192
 0
VERTEX
 8
CYLINDER_2
 10
-0.7889
 20
-0.3556
 30
0.211
 70
192
 0
VERTEX
 8
CYLINDER_2
 10
-0.4546
 20
-0.3546
 30
0.2086
 70
192
 0
VERTEX
 8
CYLINDER_2
 10
-0.4546
 20
-0.3546
 30
0.2086
 70
192
 0
VERTEX
 8
CYLINDER_2
 10
-0.7889
 20
-0.3546
 30
0.2086
 70
192
 0
VERTEX
 8
CYLINDER_2
 10
-0.7889
 20
-0.3546
 30
0.2086
 70
192
 0
VERTEX
 8
CYLINDER_2
 10
-0.4546
 20
-0.354
 30
0.206
 70
192
 0
VERTEX
 8
CYLINDER_2
 10
-0.4546
 20
-0.354
 30
0.206
 70
192
 0
VERTEX
 8
CYLINDER_2
 10
-0.7889
 20
-0.354
 30
0.206
 70
192
 0
VERTEX
 8
CYLINDER_2
 10
-0.7889
 20
-0.354
 30
0.206
 70
192
 0
VERTEX
 8
CYLINDER_2
 10
-0.4546
 20
-0.3538
 30
0.2034
 70
192
 0
VERTEX
 8
CYLINDER_2
 10
-0.4546
 20
-0.3538
 30
0.2034
 70
192
 0
VERTEX
 8
CYLINDER_2
 10
-0.7889
 20
-0.3538
 30
0.2034
 70
192
 0
VERTEX
 8
CYLINDER_2
 10
-0.7889
 20
-0.3538
 30
0.2034
 70
192
 0
VERTEX
 8
CYLINDER_2
 10
-0.4546
 20
-0.3541
 30
0.2008
 70
192
 0
VERTEX
 8
CYLINDER_2
 10
-0.4546
 20
-0.3541
 30
0.2008
 70
192
 0
VERTEX
 8
CYLINDER_2
 10
-0.7889
 20
-0.3541
 30
0.2008
 70
192
 0
VERTEX
 8
CYLINDER_2
 10
-0.7889
 20
-0.3541
 30
0.2008
 70
192
 0
VERTEX
 8
CYLINDER_2
 10
-0.4546
 20
-0.3548
 30
0.1982
 70
192
 0
VERTEX
 8
CYLINDER_2
 10
-0.4546
 20
-0.3548
 30
0.1982
 70
192
 0
VERTEX
 8
CYLINDER_2
 10
-0.7889
 20
-0.3548
 30
0.1982
 70
192
 0
VERTEX
 8
CYLINDER_2
 10
-0.7889
 20
-0.3548
 30
0.1982
 70
192
 0
VERTEX
 8
CYLINDER_2
 10
-0.4546
 20
-0.356
 30
0.1959
 70
192
 0
VERTEX
 8
CYLINDER_2
 10
-0.4546
 20
-0.356
 30
0.1959
 70
192
 0
VERTEX
 8
CYLINDER_2
 10
-0.7889
 20
-0.356
 30
0.1959
 70
192
 0
VERTEX
 8
CYLINDER_2
 10
-0.7889
 20
-0.356
 30
0.1959
 70
192
 0
VERTEX
 8
CYLINDER_2
 10
-0.4546
 20
-0.3575
 30
0.1937
 70
192
 0
VERTEX
 8
CYLINDER_2
 10
-0.4546
 20
-0.3575
 30
0.1937
 70
192
 0
VERTEX
 8
CYLINDER_2
 10
-0.7889
 20
-0.3575
 30
0.1937
 70
192
 0
VERTEX
 8
CYLINDER_2
 10
-0.7889
 20
-0.3575
 30
0.1937
 70
192
 0
VERTEX
 8
CYLINDER_2
 10
-0.4546
 20
-0.3594
 30
0.1919
 70
192
 0
VERTEX
 8
CYLINDER_2
 10
-0.4546
 20
-0.3594
 30
0.1919
 70
192
 0
VERTEX
 8
CYLINDER_2
 10
-0.7889
 20
-0.3594
 30
0.1919
 70
192
 0
VERTEX
 8
CYLINDER_2
 10
-0.7889
 20
-0.3594
 30
0.1919
 70
192
 0
VERTEX
 8
CYLINDER_2
 10
-0.4546
 20
-0.3616
 30
0.1904
 70
192
 0
VERTEX
 8
CYLINDER_2
 10
-0.4546
 20
-0.3616
 30
0.1904
 70
192
 0
VERTEX
 8
CYLINDER_2
 10
-0.7889
 20
-0.3616
 30
0.1904
 70
192
 0
VERTEX
 8
CYLINDER_2
 10
-0.7889
 20
-0.3616
 30
0.1904
 70
192
 0
VERTEX
 8
CYLINDER_2
 10
-0.4546
 20
-0.3641
 30
0.1894
 70
192
 0
VERTEX
 8
CYLINDER_2
 10
-0.4546
 20
-0.3641
 30
0.1894
 70
192
 0
VERTEX
 8
CYLINDER_2
 10
-0.7889
 20
-0.3641
 30
0.1894
 70
192
 0
VERTEX
 8
CYLINDER_2
 10
-0.7889
 20
-0.3641
 30
0.1894
 70
192
 0
VERTEX
 8
CYLINDER_2
 10
-0.4546
 20
-0.3666
 30
0.1887
 70
192
 0
VERTEX
 8
CYLINDER_2
 10
-0.4546
 20
-0.3666
 30
0.1887
 70
192
 0
VERTEX
 8
CYLINDER_2
 10
-0.7889
 20
-0.3666
 30
0.1887
 70
192
 0
VERTEX
 8
CYLINDER_2
 10
-0.7889
 20
-0.3666
 30
0.1887
 70
192
 0
VERTEX
 8
CYLINDER_2
 10
-0.4546
 20
-0.3693
 30
0.1886
 70
192
 0
VERTEX
 8
CYLINDER_2
 10
-0.4546
 20
-0.3693
 30
0.1886
 70
192
 0
VERTEX
 8
CYLINDER_2
 10
-0.7889
 20
-0.3693
 30
0.1886
 70
192
 0
VERTEX
 8
CYLINDER_2
 10
-0.7889
 20
-0.3693
 30
0.1886
 70
192
 0
VERTEX
 8
CYLINDER_2
 10
-0.4546
 20
-0.3719
 30
0.1888
 70
192
 0
VERTEX
 8
CYLINDER_2
 10
-0.4546
 20
-0.3719
 30
0.1888
 70
192
 0
VERTEX
 8
CYLINDER_2
 10
-0.7889
 20
-0.3719
 30
0.1888
 70
192
 0
VERTEX
 8
CYLINDER_2
 10
-0.7889
 20
-0.3719
 30
0.1888
 70
192
 0
VERTEX
 8
CYLINDER_2
 10
-0.4546
 20
-0.3744
 30
0.1896
 70
192
 0
VERTEX
 8
CYLINDER_2
 10
-0.4546
 20
-0.3744
 30
0.1896
 70
192
 0
VERTEX
 8
CYLINDER_2
 10
-0.7889
 20
-0.3744
 30
0.1896
 70
192
 0
VERTEX
 8
CYLINDER_2
 10
-0.7889
 20
-0.3744
 30
0.1896
 70
192
 0
VERTEX
 8
CYLINDER_2
 10
-0.4546
 20
-0.3768
 30
0.1908
 70
192
 0
VERTEX
 8
CYLINDER_2
 10
-0.4546
 20
-0.3768
 30
0.1908
 70
192
 0
VERTEX
 8
CYLINDER_2
 10
-0.7889
 20
-0.3768
 30
0.1908
 70
192
 0
VERTEX
 8
CYLINDER_2
 10
-0.7889
 20
-0.3768
 30
0.1908
 70
192
 0
VERTEX
 8
CYLINDER_2
 10
-0.4546
 20
-0.3789
 30
0.1923
 70
192
 0
VERTEX
 8
CYLINDER_2
 10
-0.4546
 20
-0.3789
 30
0.1923
 70
192
 0
VERTEX
 8
CYLINDER_2
 10
-0.7889
 20
-0.3789
 30
0.1923
 70
192
 0
VERTEX
 8
CYLINDER_2
 10
-0.7889
 20
-0.3789
 30
0.1923
 70
192
 0
VERTEX
 8
CYLINDER_2
 10
-0.4546
 20
-0.3807
 30
0.1942
 70
192
 0
VERTEX
 8
CYLINDER_2
 10
-0.4546
 20
-0.3807
 30
0.1942
 70
192
 0
VERTEX
 8
CYLINDER_2
 10
-0.7889
 20
-0.3807
 30
0.1942
 70
192
 0
VERTEX
 8
CYLINDER_2
 10
-0.7889
 20
-0.3807
 30
0.1942
 70
192
 0
VERTEX
 8
CYLINDER_2
 10
-0.4546
 20
-0.3822
 30
0.1964
 70
192
 0
VERTEX
 8
CYLINDER_2
 10
-0.4546
 20
-0.3822
 30
0.1964
 70
192
 0
VERTEX
 8
CYLINDER_2
 10
-0.7889
 20
-0.3822
 30
0.1964
 70
192
 0
VERTEX
 8
CYLINDER_2
 10
-0.7889
 20
-0.3822
 30
0.1964
 70
192
 0
VERTEX
 8
CYLINDER_2
 10
-0.4546
 20
-0.3833
 30
0.1988
 70
192
 0
VERTEX
 8
CYLINDER_2
 10
-0.4546
 20
-0.3833
 30
0.1988
 70
192
 0
VERTEX
 8
CYLINDER_2
 10
-0.7889
 20
-0.3833
 30
0.1988
 70
192
 0
VERTEX
 8
CYLINDER_2
 10
-0.7889
 20
-0.3833
 30
0.1988
 70
192
 0
VERTEX
 8
CYLINDER_2
 10
-0.4546
 20
-0.3839
 30
0.2014
 70
192
 0
VERTEX
 8
CYLINDER_2
 10
-0.4546
 20
-0.3839
 30
0.2014
 70
192
 0
VERTEX
 8
CYLINDER_2
 10
-0.7889
 20
-0.3839
 30
0.2014
 70
192
 0
VERTEX
 8
CYLINDER_2
 10
-0.7889
 20
-0.3839
 30
0.2014
 70
192
 0
VERTEX
 8
CYLINDER_2
 10
-0.4546
 20
-0.3841
 30
0.204
 70
192
 0
VERTEX
 8
CYLINDER_2
 10
-0.4546
 20
-0.3841
 30
0.204
 70
192
 0
VERTEX
 8
CYLINDER_2
 10
-0.7889
 20
-0.3841
 30
0.204
 70
192
 0
VERTEX
 8
CYLINDER_2
 10
-0.7889
 20
-0.3841
 30
0.204
 70
192
 0
VERTEX
 8
CYLINDER_2
 10
-0.4546
 20
-0.3838
 30
0.2067
 70
192
 0
VERTEX
 8
CYLINDER_2
 10
-0.4546
 20
-0.3838
 30
0.2067
 70
192
 0
VERTEX
 8
CYLINDER_2
 10
-0.7889
 20
-0.3838
 30
0.2067
 70
192
 0
VERTEX
 8
CYLINDER_2
 10
-0.7889
 20
-0.3838
 30
0.2067
 70
192
 0
VERTEX
 8
CYLINDER_2
 10
-0.4546
 20
-0.3831
 30
0.2092
 70
192
 0
VERTEX
 8
CYLINDER_2
 10
-0.4546
 20
-0.3831
 30
0.2092
 70
192
 0
VERTEX
 8
CYLINDER_2
 10
-0.7889
 20
-0.3831
 30
0.2092
 70
192
 0
VERTEX
 8
CYLINDER_2
 10
-0.7889
 20
-0.3831
 30
0.2092
 70
192
 0
VERTEX
 8
CYLINDER_2
 10
-0.4546
 20
-0.3819
 30
0.2116
 70
192
 0
VERTEX
 8
CYLINDER_2
 10
-0.4546
 20
-0.3819
 30
0.2116
 70
192
 0
VERTEX
 8
CYLINDER_2
 10
-0.7889
 20
-0.3819
 30
0.2116
 70
192
 0
VERTEX
 8
CYLINDER_2
 10
-0.7889
 20
-0.3819
 30
0.2116
 70
192
 0
VERTEX
 8
CYLINDER_2
 10
-0.4546
 20
-0.3803
 30
0.2137
 70
192
 0
VERTEX
 8
CYLINDER_2
 10
-0.4546
 20
-0.3803
 30
0.2137
 70
192
 0
VERTEX
 8
CYLINDER_2
 10
-0.7889
 20
-0.3803
 30
0.2137
 70
192
 0
VERTEX
 8
CYLINDER_2
 10
-0.7889
 20
-0.3803
 30
0.2137
 70
192
 0
VERTEX
 8
CYLINDER_2
 10
-0.4546
 20
-0.3784
 30
0.2155
 70
192
 0
VERTEX
 8
CYLINDER_2
 10
-0.4546
 20
-0.3784
 30
0.2155
 70
192
 0
VERTEX
 8
CYLINDER_2
 10
-0.7889
 20
-0.3784
 30
0.2155
 70
192
 0
VERTEX
 8
CYLINDER_2
 10
-0.7889
 20
-0.3784
 30
0.2155
 70
192
 0
VERTEX
 8
CYLINDER_2
 10
-0.4546
 20
-0.3762
 30
0.217
 70
192
 0
VERTEX
 8
CYLINDER_2
 10
-0.4546
 20
-0.3762
 30
0.217
 70
192
 0
VERTEX
 8
CYLINDER_2
 10
-0.7889
 20
-0.3762
 30
0.217
 70
192
 0
VERTEX
 8
CYLINDER_2
 10
-0.7889
 20
-0.3762
 30
0.217
 70
192
 0
VERTEX
 8
CYLINDER_2
 10
-0.4546
 20
-0.3738
 30
0.2181
 70
192
 0
VERTEX
 8
CYLINDER_2
 10
-0.4546
 20
-0.3738
 30
0.2181
 70
192
 0
VERTEX
 8
CYLINDER_2
 10
-0.7889
 20
-0.3738
 30
0.2181
 70
192
 0
VERTEX
 8
CYLINDER_2
 10
-0.7889
 20
-0.3738
 30
0.2181
 70
192
 0
VERTEX
 8
CYLINDER_2
 10
-0.4546
 20
-0.3712
 30
0.2187
 70
192
 0
VERTEX
 8
CYLINDER_2
 10
-0.4546
 20
-0.3712
 30
0.2187
 70
192
 0
VERTEX
 8
CYLINDER_2
 10
-0.7889
 20
-0.3712
 30
0.2187
 70
192
 0
VERTEX
 8
CYLINDER_2
 10
-0.7889
 20
-0.3712
 30
0.2187
 70
192
 0
VERTEX
 8
CYLINDER_2
 10
-0.4546
 20
-0.3686
 30
0.2189
 70
192
 0
VERTEX
 8
CYLINDER_2
 10
-0.4546
 20
-0.3686
 30
0.2189
 70
192
 0
VERTEX
 8
CYLINDER_2
 10
-0.7889
 20
-0.3686
 30
0.2189
 70
192
 0
VERTEX
 8
CYLINDER_2
 10
-0.7889
 20
-0.3686
 30
0.2189
 70
192
 0
VERTEX
 8
CYLINDER_2
 10
0
 20
0
 30
0
 70
128
 71
1
 72
3
 73
7
 74
7
 0
VERTEX
 8
CYLINDER_2
 10
0
 20
0
 30
0
 70
128
 71
4
 72
5
 73
9
 74
8
 0
VERTEX
 8
CYLINDER_2
 10
0
 20
0
 30
0
 70
128
 71
6
 72
2
 73
10
 74
10
 0
VERTEX
 8
CYLINDER_2
 10
0
 20
0
 30
0
 70
128
 71
1
 72
7
 73
11
 74
11
 0
VERTEX
 8
CYLINDER_2
 10
0
 20
0
 30
0
 70
128
 71
8
 72
9
 73
13
 74
12
 0
VERTEX
 8
CYLINDER_2
 10
0
 20
0
 30
0
 70
128
 71
10
 72
2
 73
14
 74
14
 0
VERTEX
 8
CYLINDER_2
 10
0
 20
0
 30
0
 70
128
 71
1
 72
11
 73
15
 74
15
 0
VERTEX
 8
CYLINDER_2
 10
0
 20
0
 30
0
 70
128
 71
12
 72
13
 73
17
 74
16
 0
VERTEX
 8
CYLINDER_2
 10
0
 20
0
 30
0
 70
128
 71
14
 72
2
 73
18
 74
18
 0
VERTEX
 8
CYLINDER_2
 10
0
 20
0
 30
0
 70
128
 71
1
 72
15
 73
19
 74
19
 0
VERTEX
 8
CYLINDER_2
 10
0
 20
0
 30
0
 70
128
 71
16
 72
17
 73
21
 74
20
 0
VERTEX
 8
CYLINDER_2
 10
0
 20
0
 30
0
 70
128
 71
18
 72
2
 73
22
 74
22
 0
VERTEX
 8
CYLINDER_2
 10
0
 20
0
 30
0
 70
128
 71
1
 72
19
 73
23
 74
23
 0
VERTEX
 8
CYLINDER_2
 10
0
 20
0
 30
0
 70
128
 71
20
 72
21
 73
25
 74
24
 0
VERTEX
 8
CYLINDER_2
 10
0
 20
0
 30
0
 70
128
 71
22
 72
2
 73
26
 74
26
 0
VERTEX
 8
CYLINDER_2
 10
0
 20
0
 30
0
 70
128
 71
1
 72
23
 73
27
 74
27
 0
VERTEX
 8
CYLINDER_2
 10
0
 20
0
 30
0
 70
128
 71
24
 72
25
 73
29
 74
28
 0
VERTEX
 8
CYLINDER_2
 10
0
 20
0
 30
0
 70
128
 71
26
 72
2
 73
30
 74
30
 0
VERTEX
 8
CYLINDER_2
 10
0
 20
0
 30
0
 70
128
 71
1
 72
27
 73
31
 74
31
 0
VERTEX
 8
CYLINDER_2
 10
0
 20
0
 30
0
 70
128
 71
28
 72
29
 73
33
 74
32
 0
VERTEX
 8
CYLINDER_2
 10
0
 20
0
 30
0
 70
128
 71
30
 72
2
 73
34
 74
34
 0
VERTEX
 8
CYLINDER_2
 10
0
 20
0
 30
0
 70
128
 71
1
 72
31
 73
35
 74
35
 0
VERTEX
 8
CYLINDER_2
 10
0
 20
0
 30
0
 70
128
 71
32
 72
33
 73
37
 74
36
 0
VERTEX
 8
CYLINDER_2
 10
0
 20
0
 30
0
 70
128
 71
34
 72
2
 73
38
 74
38
 0
VERTEX
 8
CYLINDER_2
 10
0
 20
0
 30
0
 70
128
 71
1
 72
35
 73
39
 74
39
 0
VERTEX
 8
CYLINDER_2
 10
0
 20
0
 30
0
 70
128
 71
36
 72
37
 73
41
 74
40
 0
VERTEX
 8
CYLINDER_2
 10
0
 20
0
 30
0
 70
128
 71
38
 72
2
 73
42
 74
42
 0
VERTEX
 8
CYLINDER_2
 10
0
 20
0
 30
0
 70
128
 71
1
 72
39
 73
43
 74
43
 0
VERTEX
 8
CYLINDER_2
 10
0
 20
0
 30
0
 70
128
 71
40
 72
41
 73
45
 74
44
 0
VERTEX
 8
CYLINDER_2
 10
0
 20
0
 30
0
 70
128
 71
42
 72
2
 73
46
 74
46
 0
VERTEX
 8
CYLINDER_2
 10
0
 20
0
 30
0
 70
128
 71
1
 72
43
 73
47
 74
47
 0
VERTEX
 8
CYLINDER_2
 10
0
 20
0
 30
0
 70
128
 71
44
 72
45
 73
49
 74
48
 0
VERTEX
 8
CYLINDER_2
 10
0
 20
0
 30
0
 70
128
 71
46
 72
2
 73
50
 74
50
 0
VERTEX
 8
CYLINDER_2
 10
0
 20
0
 30
0
 70
128
 71
1
 72
47
 73
51
 74
51
 0
VERTEX
 8
CYLINDER_2
 10
0
 20
0
 30
0
 70
128
 71
48
 72
49
 73
53
 74
52
 0
VERTEX
 8
CYLINDER_2
 10
0
 20
0
 30
0
 70
128
 71
50
 72
2
 73
54
 74
54
 0
VERTEX
 8
CYLINDER_2
 10
0
 20
0
 30
0
 70
128
 71
1
 72
51
 73
55
 74
55
 0
VERTEX
 8
CYLINDER_2
 10
0
 20
0
 30
0
 70
128
 71
52
 72
53
 73
57
 74
56
 0
VERTEX
 8
CYLINDER_2
 10
0
 20
0
 30
0
 70
128
 71
54
 72
2
 73
58
 74
58
 0
VERTEX
 8
CYLINDER_2
 10
0
 20
0
 30
0
 70
128
 71
1
 72
55
 73
59
 74
59
 0
VERTEX
 8
CYLINDER_2
 10
0
 20
0
 30
0
 70
128
 71
56
 72
57
 73
61
 74
60
 0
VERTEX
 8
CYLINDER_2
 10
0
 20
0
 30
0
 70
128
 71
58
 72
2
 73
62
 74
62
 0
VERTEX
 8
CYLINDER_2
 10
0
 20
0
 30
0
 70
128
 71
1
 72
59
 73
63
 74
63
 0
VERTEX
 8
CYLINDER_2
 10
0
 20
0
 30
0
 70
128
 71
60
 72
61
 73
65
 74
64
 0
VERTEX
 8
CYLINDER_2
 10
0
 20
0
 30
0
 70
128
 71
62
 72
2
 73
66
 74
66
 0
VERTEX
 8
CYLINDER_2
 10
0
 20
0
 30
0
 70
128
 71
1
 72
63
 73
67
 74
67
 0
VERTEX
 8
CYLINDER_2
 10
0
 20
0
 30
0
 70
128
 71
64
 72
65
 73
69
 74
68
 0
VERTEX
 8
CYLINDER_2
 10
0
 20
0
 30
0
 70
128
 71
66
 72
2
 73
70
 74
70
 0
VERTEX
 8
CYLINDER_2
 10
0
 20
0
 30
0
 70
128
 71
1
 72
67
 73
71
 74
71
 0
VERTEX
 8
CYLINDER_2
 10
0
 20
0
 30
0
 70
128
 71
68
 72
69
 73
73
 74
72
 0
VERTEX
 8
CYLINDER_2
 10
0
 20
0
 30
0
 70
128
 71
70
 72
2
 73
74
 74
74
 0
VERTEX
 8
CYLINDER_2
 10
0
 20
0
 30
0
 70
128
 71
1
 72
71
 73
75
 74
75
 0
VERTEX
 8
CYLINDER_2
 10
0
 20
0
 30
0
 70
128
 71
72
 72
73
 73
77
 74
76
 0
VERTEX
 8
CYLINDER_2
 10
0
 20
0
 30
0
 70
128
 71
74
 72
2
 73
78
 74
78
 0
VERTEX
 8
CYLINDER_2
 10
0
 20
0
 30
0
 70
128
 71
1
 72
75
 73
79
 74
79
 0
VERTEX
 8
CYLINDER_2
 10
0
 20
0
 30
0
 70
128
 71
76
 72
77
 73
81
 74
80
 0
VERTEX
 8
CYLINDER_2
 10
0
 20
0
 30
0
 70
128
 71
78
 72
2
 73
82
 74
82
 0
VERTEX
 8
CYLINDER_2
 10
0
 20
0
 30
0
 70
128
 71
1
 72
79
 73
83
 74
83
 0
VERTEX
 8
CYLINDER_2
 10
0
 20
0
 30
0
 70
128
 71
80
 72
81
 73
85
 74
84
 0
VERTEX
 8
CYLINDER_2
 10
0
 20
0
 30
0
 70
128
 71
82
 72
2
 73
86
 74
86
 0
VERTEX
 8
CYLINDER_2
 10
0
 20
0
 30
0
 70
128
 71
1
 72
83
 73
87
 74
87
 0
VERTEX
 8
CYLINDER_2
 10
0
 20
0
 30
0
 70
128
 71
84
 72
85
 73
89
 74
88
 0
VERTEX
 8
CYLINDER_2
 10
0
 20
0
 30
0
 70
128
 71
86
 72
2
 73
90
 74
90
 0
VERTEX
 8
CYLINDER_2
 10
0
 20
0
 30
0
 70
128
 71
1
 72
87
 73
91
 74
91
 0
VERTEX
 8
CYLINDER_2
 10
0
 20
0
 30
0
 70
128
 71
88
 72
89
 73
93
 74
92
 0
VERTEX
 8
CYLINDER_2
 10
0
 20
0
 30
0
 70
128
 71
90
 72
2
 73
94
 74
94
 0
VERTEX
 8
CYLINDER_2
 10
0
 20
0
 30
0
 70
128
 71
1
 72
91
 73
95
 74
95
 0
VERTEX
 8
CYLINDER_2
 10
0
 20
0
 30
0
 70
128
 71
92
 72
93
 73
97
 74
96
 0
VERTEX
 8
CYLINDER_2
 10
0
 20
0
 30
0
 70
128
 71
94
 72
2
 73
98
 74
98
 0
VERTEX
 8
CYLINDER_2
 10
0
 20
0
 30
0
 70
128
 71
1
 72
95
 73
99
 74
99
 0
VERTEX
 8
CYLINDER_2
 10
0
 20
0
 30
0
 70
128
 71
96
 72
97
 73
101
 74
100
 0
VERTEX
 8
CYLINDER_2
 10
0
 20
0
 30
0
 70
128
 71
98
 72
2
 73
102
 74
102
 0
VERTEX
 8
CYLINDER_2
 10
0
 20
0
 30
0
 70
128
 71
1
 72
99
 73
103
 74
103
 0
VERTEX
 8
CYLINDER_2
 10
0
 20
0
 30
0
 70
128
 71
100
 72
101
 73
105
 74
104
 0
VERTEX
 8
CYLINDER_2
 10
0
 20
0
 30
0
 70
128
 71
102
 72
2
 73
106
 74
106
 0
VERTEX
 8
CYLINDER_2
 10
0
 20
0
 30
0
 70
128
 71
1
 72
103
 73
107
 74
107
 0
VERTEX
 8
CYLINDER_2
 10
0
 20
0
 30
0
 70
128
 71
104
 72
105
 73
109
 74
108
 0
VERTEX
 8
CYLINDER_2
 10
0
 20
0
 30
0
 70
128
 71
106
 72
2
 73
110
 74
110
 0
VERTEX
 8
CYLINDER_2
 10
0
 20
0
 30
0
 70
128
 71
1
 72
107
 73
111
 74
111
 0
VERTEX
 8
CYLINDER_2
 10
0
 20
0
 30
0
 70
128
 71
108
 72
109
 73
113
 74
112
 0
VERTEX
 8
CYLINDER_2
 10
0
 20
0
 30
0
 70
128
 71
110
 72
2
 73
114
 74
114
 0
VERTEX
 8
CYLINDER_2
 10
0
 20
0
 30
0
 70
128
 71
1
 72
111
 73
115
 74
115
 0
VERTEX
 8
CYLINDER_2
 10
0
 20
0
 30
0
 70
128
 71
112
 72
113
 73
117
 74
116
 0
VERTEX
 8
CYLINDER_2
 10
0
 20
0
 30
0
 70
128
 71
114
 72
2
 73
118
 74
118
 0
VERTEX
 8
CYLINDER_2
 10
0
 20
0
 30
0
 70
128
 71
1
 72
115
 73
119
 74
119
 0
VERTEX
 8
CYLINDER_2
 10
0
 20
0
 30
0
 70
128
 71
116
 72
117
 73
121
 74
120
 0
VERTEX
 8
CYLINDER_2
 10
0
 20
0
 30
0
 70
128
 71
118
 72
2
 73
122
 74
122
 0
VERTEX
 8
CYLINDER_2
 10
0
 20
0
 30
0
 70
128
 71
1
 72
119
 73
123
 74
123
 0
VERTEX
 8
CYLINDER_2
 10
0
 20
0
 30
0
 70
128
 71
120
 72
121
 73
125
 74
124
 0
VERTEX
 8
CYLINDER_2
 10
0
 20
0
 30
0
 70
128
 71
122
 72
2
 73
126
 74
126
 0
VERTEX
 8
CYLINDER_2
 10
0
 20
0
 30
0
 70
128
 71
1
 72
123
 73
127
 74
127
 0
VERTEX
 8
CYLINDER_2
 10
0
 20
0
 30
0
 70
128
 71
124
 72
125
 73
129
 74
128
 0
VERTEX
 8
CYLINDER_2
 10
0
 20
0
 30
0
 70
128
 71
126
 72
2
 73
130
 74
130
 0
VERTEX
 8
CYLINDER_2
 10
0
 20
0
 30
0
 70
128
 71
1
 72
127
 73
131
 74
131
 0
VERTEX
 8
CYLINDER_2
 10
0
 20
0
 30
0
 70
128
 71
128
 72
129
 73
133
 74
132
 0
VERTEX
 8
CYLINDER_2
 10
0
 20
0
 30
0
 70
128
 71
130
 72
2
 73
134
 74
134
 0
VERTEX
 8
CYLINDER_2
 10
0
 20
0
 30
0
 70
128
 71
1
 72
131
 73
135
 74
135
 0
VERTEX
 8
CYLINDER_2
 10
0
 20
0
 30
0
 70
128
 71
132
 72
133
 73
137
 74
136
 0
VERTEX
 8
CYLINDER_2
 10
0
 20
0
 30
0
 70
128
 71
134
 72
2
 73
138
 74
138
 0
VERTEX
 8
CYLINDER_2
 10
0
 20
0
 30
0
 70
128
 71
1
 72
135
 73
139
 74
139
 0
VERTEX
 8
CYLINDER_2
 10
0
 20
0
 30
0
 70
128
 71
136
 72
137
 73
141
 74
140
 0
VERTEX
 8
CYLINDER_2
 10
0
 20
0
 30
0
 70
128
 71
138
 72
2
 73
142
 74
142
 0
VERTEX
 8
CYLINDER_2
 10
0
 20
0
 30
0
 70
128
 71
1
 72
139
 73
143
 74
143
 0
VERTEX
 8
CYLINDER_2
 10
0
 20
0
 30
0
 70
128
 71
140
 72
141
 73
145
 74
144
 0
VERTEX
 8
CYLINDER_2
 10
0
 20
0
 30
0
 70
128
 71
142
 72
2
 73
146
 74
146
 0
VERTEX
 8
CYLINDER_2
 10
0
 20
0
 30
0
 70
128
 71
1
 72
143
 73
3
 74
3
 0
VERTEX
 8
CYLINDER_2
 10
0
 20
0
 30
0
 70
128
 71
144
 72
145
 73
5
 74
4
 0
VERTEX
 8
CYLINDER_2
 10
0
 20
0
 30
0
 70
128
 71
146
 72
2
 73
6
 74
6
 0
SEQEND
 0
POLYLINE
 8
CYLINDER_1
 66
1
 10
0.0
 20
0.0
 30
0.0
 70
64
 71
146
 72
108
 0
VERTEX
 8
CYLINDER_1
 10
-0.4546
 20
-0.3095
 30
0.5034
 70
192
 0
VERTEX
 8
CYLINDER_1
 10
-0.7889
 20
-0.3095
 30
0.5034
 70
192
 0
VERTEX
 8
CYLINDER_1
 10
-0.4546
 20
-0.3065
 30
0.5183
 70
192
 0
VERTEX
 8
CYLINDER_1
 10
-0.4546
 20
-0.3065
 30
0.5183
 70
192
 0
VERTEX
 8
CYLINDER_1
 10
-0.7889
 20
-0.3065
 30
0.5183
 70
192
 0
VERTEX
 8
CYLINDER_1
 10
-0.7889
 20
-0.3065
 30
0.5183
 70
192
 0
VERTEX
 8
CYLINDER_1
 10
-0.4546
 20
-0.304
 30
0.5176
 70
192
 0
VERTEX
 8
CYLINDER_1
 10
-0.4546
 20
-0.304
 30
0.5176
 70
192
 0
VERTEX
 8
CYLINDER_1
 10
-0.7889
 20
-0.304
 30
0.5176
 70
192
 0
VERTEX
 8
CYLINDER_1
 10
-0.7889
 20
-0.304
 30
0.5176
 70
192
 0
VERTEX
 8
CYLINDER_1
 10
-0.4546
 20
-0.3016
 30
0.5164
 70
192
 0
VERTEX
 8
CYLINDER_1
 10
-0.4546
 20
-0.3016
 30
0.5164
 70
192
 0
VERTEX
 8
CYLINDER_1
 10
-0.7889
 20
-0.3016
 30
0.5164
 70
192
 0
VERTEX
 8
CYLINDER_1
 10
-0.7889
 20
-0.3016
 30
0.5164
 70
192
 0
VERTEX
 8
CYLINDER_1
 10
-0.4546
 20
-0.2995
 30
0.5148
 70
192
 0
VERTEX
 8
CYLINDER_1
 10
-0.4546
 20
-0.2995
 30
0.5148
 70
192
 0
VERTEX
 8
CYLINDER_1
 10
-0.7889
 20
-0.2995
 30
0.5148
 70
192
 0
VERTEX
 8
CYLINDER_1
 10
-0.7889
 20
-0.2995
 30
0.5148
 70
192
 0
VERTEX
 8
CYLINDER_1
 10
-0.4546
 20
-0.2976
 30
0.5129
 70
192
 0
VERTEX
 8
CYLINDER_1
 10
-0.4546
 20
-0.2976
 30
0.5129
 70
192
 0
VERTEX
 8
CYLINDER_1
 10
-0.7889
 20
-0.2976
 30
0.5129
 70
192
 0
VERTEX
 8
CYLINDER_1
 10
-0.7889
 20
-0.2976
 30
0.5129
 70
192
 0
VERTEX
 8
CYLINDER_1
 10
-0.4546
 20
-0.2962
 30
0.5107
 70
192
 0
VERTEX
 8
CYLINDER_1
 10
-0.4546
 20
-0.2962
 30
0.5107
 70
192
 0
VERTEX
 8
CYLINDER_1
 10
-0.7889
 20
-0.2962
 30
0.5107
 70
192
 0
VERTEX
 8
CYLINDER_1
 10
-0.7889
 20
-0.2962
 30
0.5107
 70
192
 0
VERTEX
 8
CYLINDER_1
 10
-0.4546
 20
-0.2951
 30
0.5083
 70
192
 0
VERTEX
 8
CYLINDER_1
 10
-0.4546
 20
-0.2951
 30
0.5083
 70
192
 0
VERTEX
 8
CYLINDER_1
 10
-0.7889
 20
-0.2951
 30
0.5083
 70
192
 0
VERTEX
 8
CYLINDER_1
 10
-0.7889
 20
-0.2951
 30
0.5083
 70
192
 0
VERTEX
 8
CYLINDER_1
 10
-0.4546
 20
-0.2945
 30
0.5058
 70
192
 0
VERTEX
 8
CYLINDER_1
 10
-0.4546
 20
-0.2945
 30
0.5058
 70
192
 0
VERTEX
 8
CYLINDER_1
 10
-0.7889
 20
-0.2945
 30
0.5058
 70
192
 0
VERTEX
 8
CYLINDER_1
 10
-0.7889
 20
-0.2945
 30
0.5058
 70
192
 0
VERTEX
 8
CYLINDER_1
 10
-0.4546
 20
-0.2943
 30
0.5031
 70
192
 0
VERTEX
 8
CYLINDER_1
 10
-0.4546
 20
-0.2943
 30
0.5031
 70
192
 0
VERTEX
 8
CYLINDER_1
 10
-0.7889
 20
-0.2943
 30
0.5031
 70
192
 0
VERTEX
 8
CYLINDER_1
 10
-0.7889
 20
-0.2943
 30
0.5031
 70
192
 0
VERTEX
 8
CYLINDER_1
 10
-0.4546
 20
-0.2946
 30
0.5005
 70
192
 0
VERTEX
 8
CYLINDER_1
 10
-0.4546
 20
-0.2946
 30
0.5005
 70
192
 0
VERTEX
 8
CYLINDER_1
 10
-0.7889
 20
-0.2946
 30
0.5005
 70
192
 0
VERTEX
 8
CYLINDER_1
 10
-0.7889
 20
-0.2946
 30
0.5005
 70
192
 0
VERTEX
 8
CYLINDER_1
 10
-0.4546
 20
-0.2953
 30
0.498
 70
192
 0
VERTEX
 8
CYLINDER_1
 10
-0.4546
 20
-0.2953
 30
0.498
 70
192
 0
VERTEX
 8
CYLINDER_1
 10
-0.7889
 20
-0.2953
 30
0.498
 70
192
 0
VERTEX
 8
CYLINDER_1
 10
-0.7889
 20
-0.2953
 30
0.498
 70
192
 0
VERTEX
 8
CYLINDER_1
 10
-0.4546
 20
-0.2965
 30
0.4956
 70
192
 0
VERTEX
 8
CYLINDER_1
 10
-0.4546
 20
-0.2965
 30
0.4956
 70
192
 0
VERTEX
 8
CYLINDER_1
 10
-0.7889
 20
-0.2965
 30
0.4956
 70
192
 0
VERTEX
 8
CYLINDER_1
 10
-0.7889
 20
-0.2965
 30
0.4956
 70
192
 0
VERTEX
 8
CYLINDER_1
 10
-0.4546
 20
-0.2981
 30
0.4935
 70
192
 0
VERTEX
 8
CYLINDER_1
 10
-0.4546
 20
-0.2981
 30
0.4935
 70
192
 0
VERTEX
 8
CYLINDER_1
 10
-0.7889
 20
-0.2981
 30
0.4935
 70
192
 0
VERTEX
 8
CYLINDER_1
 10
-0.7889
 20
-0.2981
 30
0.4935
 70
192
 0
VERTEX
 8
CYLINDER_1
 10
-0.4546
 20
-0.3
 30
0.4916
 70
192
 0
VERTEX
 8
CYLINDER_1
 10
-0.4546
 20
-0.3
 30
0.4916
 70
192
 0
VERTEX
 8
CYLINDER_1
 10
-0.7889
 20
-0.3
 30
0.4916
 70
192
 0
VERTEX
 8
CYLINDER_1
 10
-0.7889
 20
-0.3
 30
0.4916
 70
192
 0
VERTEX
 8
CYLINDER_1
 10
-0.4546
 20
-0.3022
 30
0.4902
 70
192
 0
VERTEX
 8
CYLINDER_1
 10
-0.4546
 20
-0.3022
 30
0.4902
 70
192
 0
VERTEX
 8
CYLINDER_1
 10
-0.7889
 20
-0.3022
 30
0.4902
 70
192
 0
VERTEX
 8
CYLINDER_1
 10
-0.7889
 20
-0.3022
 30
0.4902
 70
192
 0
VERTEX
 8
CYLINDER_1
 10
-0.4546
 20
-0.3046
 30
0.4891
 70
192
 0
VERTEX
 8
CYLINDER_1
 10
-0.4546
 20
-0.3046
 30
0.4891
 70
192
 0
VERTEX
 8
CYLINDER_1
 10
-0.7889
 20
-0.3046
 30
0.4891
 70
192
 0
VERTEX
 8
CYLINDER_1
 10
-0.7889
 20
-0.3046
 30
0.4891
 70
192
 0
VERTEX
 8
CYLINDER_1
 10
-0.4546
 20
-0.3072
 30
0.4885
 70
192
 0
VERTEX
 8
CYLINDER_1
 10
-0.4546
 20
-0.3072
 30
0.4885
 70
192
 0
VERTEX
 8
CYLINDER_1
 10
-0.7889
 20
-0.3072
 30
0.4885
 70
192
 0
VERTEX
 8
CYLINDER_1
 10
-0.7889
 20
-0.3072
 30
0.4885
 70
192
 0
VERTEX
 8
CYLINDER_1
 10
-0.4546
 20
-0.3098
 30
0.4883
 70
192
 0
VERTEX
 8
CYLINDER_1
 10
-0.4546
 20
-0.3098
 30
0.4883
 70
192
 0
VERTEX
 8
CYLINDER_1
 10
-0.7889
 20
-0.3098
 30
0.4883
 70
192
 0
VERTEX
 8
CYLINDER_1
 10
-0.7889
 20
-0.3098
 30
0.4883
 70
192
 0
VERTEX
 8
CYLINDER_1
 10
-0.4546
 20
-0.3124
 30
0.4886
 70
192
 0
VERTEX
 8
CYLINDER_1
 10
-0.4546
 20
-0.3124
 30
0.4886
 70
192
 0
VERTEX
 8
CYLINDER_1
 10
-0.7889
 20
-0.3124
 30
0.4886
 70
192
 0
VERTEX
 8
CYLINDER_1
 10
-0.7889
 20
-0.3124
 30
0.4886
 70
192
 0
VERTEX
 8
CYLINDER_1
 10
-0.4546
 20
-0.3149
 30
0.4893
 70
192
 0
VERTEX
 8
CYLINDER_1
 10
-0.4546
 20
-0.3149
 30
0.4893
 70
192
 0
VERTEX
 8
CYLINDER_1
 10
-0.7889
 20
-0.3149
 30
0.4893
 70
192
 0
VERTEX
 8
CYLINDER_1
 10
-0.7889
 20
-0.3149
 30
0.4893
 70
192
 0
VERTEX
 8
CYLINDER_1
 10
-0.4546
 20
-0.3173
 30
0.4905
 70
192
 0
VERTEX
 8
CYLINDER_1
 10
-0.4546
 20
-0.3173
 30
0.4905
 70
192
 0
VERTEX
 8
CYLINDER_1
 10
-0.7889
 20
-0.3173
 30
0.4905
 70
192
 0
VERTEX
 8
CYLINDER_1
 10
-0.7889
 20
-0.3173
 30
0.4905
 70
192
 0
VERTEX
 8
CYLINDER_1
 10
-0.4546
 20
-0.3195
 30
0.492
 70
192
 0
VERTEX
 8
CYLINDER_1
 10
-0.4546
 20
-0.3195
 30
0.492
 70
192
 0
VERTEX
 8
CYLINDER_1
 10
-0.7889
 20
-0.3195
 30
0.492
 70
192
 0
VERTEX
 8
CYLINDER_1
 10
-0.7889
 20
-0.3195
 30
0.492
 70
192
 0
VERTEX
 8
CYLINDER_1
 10
-0.4546
 20
-0.3213
 30
0.4939
 70
192
 0
VERTEX
 8
CYLINDER_1
 10
-0.4546
 20
-0.3213
 30
0.4939
 70
192
 0
VERTEX
 8
CYLINDER_1
 10
-0.7889
 20
-0.3213
 30
0.4939
 70
192
 0
VERTEX
 8
CYLINDER_1
 10
-0.7889
 20
-0.3213
 30
0.4939
 70
192
 0
VERTEX
 8
CYLINDER_1
 10
-0.4546
 20
-0.3227
 30
0.4961
 70
192
 0
VERTEX
 8
CYLINDER_1
 10
-0.4546
 20
-0.3227
 30
0.4961
 70
192
 0
VERTEX
 8
CYLINDER_1
 10
-0.7889
 20
-0.3227
 30
0.4961
 70
192
 0
VERTEX
 8
CYLINDER_1
 10
-0.7889
 20
-0.3227
 30
0.4961
 70
192
 0
VERTEX
 8
CYLINDER_1
 10
-0.4546
 20
-0.3238
 30
0.4986
 70
192
 0
VERTEX
 8
CYLINDER_1
 10
-0.4546
 20
-0.3238
 30
0.4986
 70
192
 0
VERTEX
 8
CYLINDER_1
 10
-0.7889
 20
-0.3238
 30
0.4986
 70
192
 0
VERTEX
 8
CYLINDER_1
 10
-0.7889
 20
-0.3238
 30
0.4986
 70
192
 0
VERTEX
 8
CYLINDER_1
 10
-0.4546
 20
-0.3244
 30
0.5011
 70
192
 0
VERTEX
 8
CYLINDER_1
 10
-0.4546
 20
-0.3244
 30
0.5011
 70
192
 0
VERTEX
 8
CYLINDER_1
 10
-0.7889
 20
-0.3244
 30
0.5011
 70
192
 0
VERTEX
 8
CYLINDER_1
 10
-0.7889
 20
-0.3244
 30
0.5011
 70
192
 0
VERTEX
 8
CYLINDER_1
 10
-0.4546
 20
-0.3246
 30
0.5038
 70
192
 0
VERTEX
 8
CYLINDER_1
 10
-0.4546
 20
-0.3246
 30
0.5038
 70
192
 0
VERTEX
 8
CYLINDER_1
 10
-0.7889
 20
-0.3246
 30
0.5038
 70
192
 0
VERTEX
 8
CYLINDER_1
 10
-0.7889
 20
-0.3246
 30
0.5038
 70
192
 0
VERTEX
 8
CYLINDER_1
 10
-0.4546
 20
-0.3243
 30
0.5064
 70
192
 0
VERTEX
 8
CYLINDER_1
 10
-0.4546
 20
-0.3243
 30
0.5064
 70
192
 0
VERTEX
 8
CYLINDER_1
 10
-0.7889
 20
-0.3243
 30
0.5064
 70
192
 0
VERTEX
 8
CYLINDER_1
 10
-0.7889
 20
-0.3243
 30
0.5064
 70
192
 0
VERTEX
 8
CYLINDER_1
 10
-0.4546
 20
-0.3236
 30
0.5089
 70
192
 0
VERTEX
 8
CYLINDER_1
 10
-0.4546
 20
-0.3236
 30
0.5089
 70
192
 0
VERTEX
 8
CYLINDER_1
 10
-0.7889
 20
-0.3236
 30
0.5089
 70
192
 0
VERTEX
 8
CYLINDER_1
 10
-0.7889
 20
-0.3236
 30
0.5089
 70
192
 0
VERTEX
 8
CYLINDER_1
 10
-0.4546
 20
-0.3224
 30
0.5113
 70
192
 0
VERTEX
 8
CYLINDER_1
 10
-0.4546
 20
-0.3224
 30
0.5113
 70
192
 0
VERTEX
 8
CYLINDER_1
 10
-0.7889
 20
-0.3224
 30
0.5113
 70
192
 0
VERTEX
 8
CYLINDER_1
 10
-0.7889
 20
-0.3224
 30
0.5113
 70
192
 0
VERTEX
 8
CYLINDER_1
 10
-0.4546
 20
-0.3209
 30
0.5134
 70
192
 0
VERTEX
 8
CYLINDER_1
 10
-0.4546
 20
-0.3209
 30
0.5134
 70
192
 0
VERTEX
 8
CYLINDER_1
 10
-0.7889
 20
-0.3209
 30
0.5134
 70
192
 0
VERTEX
 8
CYLINDER_1
 10
-0.7889
 20
-0.3209
 30
0.5134
 70
192
 0
VERTEX
 8
CYLINDER_1
 10
-0.4546
 20
-0.319
 30
0.5153
 70
192
 0
VERTEX
 8
CYLINDER_1
 10
-0.4546
 20
-0.319
 30
0.5153
 70
192
 0
VERTEX
 8
CYLINDER_1
 10
-0.7889
 20
-0.319
 30
0.5153
 70
192
 0
VERTEX
 8
CYLINDER_1
 10
-0.7889
 20
-0.319
 30
0.5153
 70
192
 0
VERTEX
 8
CYLINDER_1
 10
-0.4546
 20
-0.3168
 30
0.5167
 70
192
 0
VERTEX
 8
CYLINDER_1
 10
-0.4546
 20
-0.3168
 30
0.5167
 70
192
 0
VERTEX
 8
CYLINDER_1
 10
-0.7889
 20
-0.3168
 30
0.5167
 70
192
 0
VERTEX
 8
CYLINDER_1
 10
-0.7889
 20
-0.3168
 30
0.5167
 70
192
 0
VERTEX
 8
CYLINDER_1
 10
-0.4546
 20
-0.3143
 30
0.5178
 70
192
 0
VERTEX
 8
CYLINDER_1
 10
-0.4546
 20
-0.3143
 30
0.5178
 70
192
 0
VERTEX
 8
CYLINDER_1
 10
-0.7889
 20
-0.3143
 30
0.5178
 70
192
 0
VERTEX
 8
CYLINDER_1
 10
-0.7889
 20
-0.3143
 30
0.5178
 70
192
 0
VERTEX
 8
CYLINDER_1
 10
-0.4546
 20
-0.3118
 30
0.5184
 70
192
 0
VERTEX
 8
CYLINDER_1
 10
-0.4546
 20
-0.3118
 30
0.5184
 70
192
 0
VERTEX
 8
CYLINDER_1
 10
-0.7889
 20
-0.3118
 30
0.5184
 70
192
 0
VERTEX
 8
CYLINDER_1
 10
-0.7889
 20
-0.3118
 30
0.5184
 70
192
 0
VERTEX
 8
CYLINDER_1
 10
-0.4546
 20
-0.3091
 30
0.5186
 70
192
 0
VERTEX
 8
CYLINDER_1
 10
-0.4546
 20
-0.3091
 30
0.5186
 70
192
 0
VERTEX
 8
CYLINDER_1
 10
-0.7889
 20
-0.3091
 30
0.5186
 70
192
 0
VERTEX
 8
CYLINDER_1
 10
-0.7889
 20
-0.3091
 30
0.5186
 70
192
 0
VERTEX
 8
CYLINDER_1
 10
0
 20
0
 30
0
 70
128
 71
1
 72
3
 73
7
 74
7
 0
VERTEX
 8
CYLINDER_1
 10
0
 20
0
 30
0
 70
128
 71
4
 72
5
 73
9
 74
8
 0
VERTEX
 8
CYLINDER_1
 10
0
 20
0
 30
0
 70
128
 71
6
 72
2
 73
10
 74
10
 0
VERTEX
 8
CYLINDER_1
 10
0
 20
0
 30
0
 70
128
 71
1
 72
7
 73
11
 74
11
 0
VERTEX
 8
CYLINDER_1
 10
0
 20
0
 30
0
 70
128
 71
8
 72
9
 73
13
 74
12
 0
VERTEX
 8
CYLINDER_1
 10
0
 20
0
 30
0
 70
128
 71
10
 72
2
 73
14
 74
14
 0
VERTEX
 8
CYLINDER_1
 10
0
 20
0
 30
0
 70
128
 71
1
 72
11
 73
15
 74
15
 0
VERTEX
 8
CYLINDER_1
 10
0
 20
0
 30
0
 70
128
 71
12
 72
13
 73
17
 74
16
 0
VERTEX
 8
CYLINDER_1
 10
0
 20
0
 30
0
 70
128
 71
14
 72
2
 73
18
 74
18
 0
VERTEX
 8
CYLINDER_1
 10
0
 20
0
 30
0
 70
128
 71
1
 72
15
 73
19
 74
19
 0
VERTEX
 8
CYLINDER_1
 10
0
 20
0
 30
0
 70
128
 71
16
 72
17
 73
21
 74
20
 0
VERTEX
 8
CYLINDER_1
 10
0
 20
0
 30
0
 70
128
 71
18
 72
2
 73
22
 74
22
 0
VERTEX
 8
CYLINDER_1
 10
0
 20
0
 30
0
 70
128
 71
1
 72
19
 73
23
 74
23
 0
VERTEX
 8
CYLINDER_1
 10
0
 20
0
 30
0
 70
128
 71
20
 72
21
 73
25
 74
24
 0
VERTEX
 8
CYLINDER_1
 10
0
 20
0
 30
0
 70
128
 71
22
 72
2
 73
26
 74
26
 0
VERTEX
 8
CYLINDER_1
 10
0
 20
0
 30
0
 70
128
 71
1
 72
23
 73
27
 74
27
 0
VERTEX
 8
CYLINDER_1
 10
0
 20
0
 30
0
 70
128
 71
24
 72
25
 73
29
 74
28
 0
VERTEX
 8
CYLINDER_1
 10
0
 20
0
 30
0
 70
128
 71
26
 72
2
 73
30
 74
30
 0
VERTEX
 8
CYLINDER_1
 10
0
 20
0
 30
0
 70
128
 71
1
 72
27
 73
31
 74
31
 0
VERTEX
 8
CYLINDER_1
 10
0
 20
0
 30
0
 70
128
 71
28
 72
29
 73
33
 74
32
 0
VERTEX
 8
CYLINDER_1
 10
0
 20
0
 30
0
 70
128
 71
30
 72
2
 73
34
 74
34
 0
VERTEX
 8
CYLINDER_1
 10
0
 20
0
 30
0
 70
128
 71
1
 72
31
 73
35
 74
35
 0
VERTEX
 8
CYLINDER_1
 10
0
 20
0
 30
0
 70
128
 71
32
 72
33
 73
37
 74
36
 0
VERTEX
 8
CYLINDER_1
 10
0
 20
0
 30
0
 70
128
 71
34
 72
2
 73
38
 74
38
 0
VERTEX
 8
CYLINDER_1
 10
0
 20
0
 30
0
 70
128
 71
1
 72
35
 73
39
 74
39
 0
VERTEX
 8
CYLINDER_1
 10
0
 20
0
 30
0
 70
128
 71
36
 72
37
 73
41
 74
40
 0
VERTEX
 8
CYLINDER_1
 10
0
 20
0
 30
0
 70
128
 71
38
 72
2
 73
42
 74
42
 0
VERTEX
 8
CYLINDER_1
 10
0
 20
0
 30
0
 70
128
 71
1
 72
39
 73
43
 74
43
 0
VERTEX
 8
CYLINDER_1
 10
0
 20
0
 30
0
 70
128
 71
40
 72
41
 73
45
 74
44
 0
VERTEX
 8
CYLINDER_1
 10
0
 20
0
 30
0
 70
128
 71
42
 72
2
 73
46
 74
46
 0
VERTEX
 8
CYLINDER_1
 10
0
 20
0
 30
0
 70
128
 71
1
 72
43
 73
47
 74
47
 0
VERTEX
 8
CYLINDER_1
 10
0
 20
0
 30
0
 70
128
 71
44
 72
45
 73
49
 74
48
 0
VERTEX
 8
CYLINDER_1
 10
0
 20
0
 30
0
 70
128
 71
46
 72
2
 73
50
 74
50
 0
VERTEX
 8
CYLINDER_1
 10
0
 20
0
 30
0
 70
128
 71
1
 72
47
 73
51
 74
51
 0
VERTEX
 8
CYLINDER_1
 10
0
 20
0
 30
0
 70
128
 71
48
 72
49
 73
53
 74
52
 0
VERTEX
 8
CYLINDER_1
 10
0
 20
0
 30
0
 70
128
 71
50
 72
2
 73
54
 74
54
 0
VERTEX
 8
CYLINDER_1
 10
0
 20
0
 30
0
 70
128
 71
1
 72
51
 73
55
 74
55
 0
VERTEX
 8
CYLINDER_1
 10
0
 20
0
 30
0
 70
128
 71
52
 72
53
 73
57
 74
56
 0
VERTEX
 8
CYLINDER_1
 10
0
 20
0
 30
0
 70
128
 71
54
 72
2
 73
58
 74
58
 0
VERTEX
 8
CYLINDER_1
 10
0
 20
0
 30
0
 70
128
 71
1
 72
55
 73
59
 74
59
 0
VERTEX
 8
CYLINDER_1
 10
0
 20
0
 30
0
 70
128
 71
56
 72
57
 73
61
 74
60
 0
VERTEX
 8
CYLINDER_1
 10
0
 20
0
 30
0
 70
128
 71
58
 72
2
 73
62
 74
62
 0
VERTEX
 8
CYLINDER_1
 10
0
 20
0
 30
0
 70
128
 71
1
 72
59
 73
63
 74
63
 0
VERTEX
 8
CYLINDER_1
 10
0
 20
0
 30
0
 70
128
 71
60
 72
61
 73
65
 74
64
 0
VERTEX
 8
CYLINDER_1
 10
0
 20
0
 30
0
 70
128
 71
62
 72
2
 73
66
 74
66
 0
VERTEX
 8
CYLINDER_1
 10
0
 20
0
 30
0
 70
128
 71
1
 72
63
 73
67
 74
67
 0
VERTEX
 8
CYLINDER_1
 10
0
 20
0
 30
0
 70
128
 71
64
 72
65
 73
69
 74
68
 0
VERTEX
 8
CYLINDER_1
 10
0
 20
0
 30
0
 70
128
 71
66
 72
2
 73
70
 74
70
 0
VERTEX
 8
CYLINDER_1
 10
0
 20
0
 30
0
 70
128
 71
1
 72
67
 73
71
 74
71
 0
VERTEX
 8
CYLINDER_1
 10
0
 20
0
 30
0
 70
128
 71
68
 72
69
 73
73
 74
72
 0
VERTEX
 8
CYLINDER_1
 10
0
 20
0
 30
0
 70
128
 71
70
 72
2
 73
74
 74
74
 0
VERTEX
 8
CYLINDER_1
 10
0
 20
0
 30
0
 70
128
 71
1
 72
71
 73
75
 74
75
 0
VERTEX
 8
CYLINDER_1
 10
0
 20
0
 30
0
 70
128
 71
72
 72
73
 73
77
 74
76
 0
VERTEX
 8
CYLINDER_1
 10
0
 20
0
 30
0
 70
128
 71
74
 72
2
 73
78
 74
78
 0
VERTEX
 8
CYLINDER_1
 10
0
 20
0
 30
0
 70
128
 71
1
 72
75
 73
79
 74
79
 0
VERTEX
 8
CYLINDER_1
 10
0
 20
0
 30
0
 70
128
 71
76
 72
77
 73
81
 74
80
 0
VERTEX
 8
CYLINDER_1
 10
0
 20
0
 30
0
 70
128
 71
78
 72
2
 73
82
 74
82
 0
VERTEX
 8
CYLINDER_1
 10
0
 20
0
 30
0
 70
128
 71
1
 72
79
 73
83
 74
83
 0
VERTEX
 8
CYLINDER_1
 10
0
 20
0
 30
0
 70
128
 71
80
 72
81
 73
85
 74
84
 0
VERTEX
 8
CYLINDER_1
 10
0
 20
0
 30
0
 70
128
 71
82
 72
2
 73
86
 74
86
 0
VERTEX
 8
CYLINDER_1
 10
0
 20
0
 30
0
 70
128
 71
1
 72
83
 73
87
 74
87
 0
VERTEX
 8
CYLINDER_1
 10
0
 20
0
 30
0
 70
128
 71
84
 72
85
 73
89
 74
88
 0
VERTEX
 8
CYLINDER_1
 10
0
 20
0
 30
0
 70
128
 71
86
 72
2
 73
90
 74
90
 0
VERTEX
 8
CYLINDER_1
 10
0
 20
0
 30
0
 70
128
 71
1
 72
87
 73
91
 74
91
 0
VERTEX
 8
CYLINDER_1
 10
0
 20
0
 30
0
 70
128
 71
88
 72
89
 73
93
 74
92
 0
VERTEX
 8
CYLINDER_1
 10
0
 20
0
 30
0
 70
128
 71
90
 72
2
 73
94
 74
94
 0
VERTEX
 8
CYLINDER_1
 10
0
 20
0
 30
0
 70
128
 71
1
 72
91
 73
95
 74
95
 0
VERTEX
 8
CYLINDER_1
 10
0
 20
0
 30
0
 70
128
 71
92
 72
93
 73
97
 74
96
 0
VERTEX
 8
CYLINDER_1
 10
0
 20
0
 30
0
 70
128
 71
94
 72
2
 73
98
 74
98
 0
VERTEX
 8
CYLINDER_1
 10
0
 20
0
 30
0
 70
128
 71
1
 72
95
 73
99
 74
99
 0
VERTEX
 8
CYLINDER_1
 10
0
 20
0
 30
0
 70
128
 71
96
 72
97
 73
101
 74
100
 0
VERTEX
 8
CYLINDER_1
 10
0
 20
0
 30
0
 70
128
 71
98
 72
2
 73
102
 74
102
 0
VERTEX
 8
CYLINDER_1
 10
0
 20
0
 30
0
 70
128
 71
1
 72
99
 73
103
 74
103
 0
VERTEX
 8
CYLINDER_1
 10
0
 20
0
 30
0
 70
128
 71
100
 72
101
 73
105
 74
104
 0
VERTEX
 8
CYLINDER_1
 10
0
 20
0
 30
0
 70
128
 71
102
 72
2
 73
106
 74
106
 0
VERTEX
 8
CYLINDER_1
 10
0
 20
0
 30
0
 70
128
 71
1
 72
103
 73
107
 74
107
 0
VERTEX
 8
CYLINDER_1
 10
0
 20
0
 30
0
 70
128
 71
104
 72
105
 73
109
 74
108
 0
VERTEX
 8
CYLINDER_1
 10
0
 20
0
 30
0
 70
128
 71
106
 72
2
 73
110
 74
110
 0
VERTEX
 8
CYLINDER_1
 10
0
 20
0
 30
0
 70
128
 71
1
 72
107
 73
111
 74
111
 0
VERTEX
 8
CYLINDER_1
 10
0
 20
0
 30
0
 70
128
 71
108
 72
109
 73
113
 74
112
 0
VERTEX
 8
CYLINDER_1
 10
0
 20
0
 30
0
 70
128
 71
110
 72
2
 73
114
 74
114
 0
VERTEX
 8
CYLINDER_1
 10
0
 20
0
 30
0
 70
128
 71
1
 72
111
 73
115
 74
115
 0
VERTEX
 8
CYLINDER_1
 10
0
 20
0
 30
0
 70
128
 71
112
 72
113
 73
117
 74
116
 0
VERTEX
 8
CYLINDER_1
 10
0
 20
0
 30
0
 70
128
 71
114
 72
2
 73
118
 74
118
 0
VERTEX
 8
CYLINDER_1
 10
0
 20
0
 30
0
 70
128
 71
1
 72
115
 73
119
 74
119
 0
VERTEX
 8
CYLINDER_1
 10
0
 20
0
 30
0
 70
128
 71
116
 72
117
 73
121
 74
120
 0
VERTEX
 8
CYLINDER_1
 10
0
 20
0
 30
0
 70
128
 71
118
 72
2
 73
122
 74
122
 0
VERTEX
 8
CYLINDER_1
 10
0
 20
0
 30
0
 70
128
 71
1
 72
119
 73
123
 74
123
 0
VERTEX
 8
CYLINDER_1
 10
0
 20
0
 30
0
 70
128
 71
120
 72
121
 73
125
 74
124
 0
VERTEX
 8
CYLINDER_1
 10
0
 20
0
 30
0
 70
128
 71
122
 72
2
 73
126
 74
126
 0
VERTEX
 8
CYLINDER_1
 10
0
 20
0
 30
0
 70
128
 71
1
 72
123
 73
127
 74
127
 0
VERTEX
 8
CYLINDER_1
 10
0
 20
0
 30
0
 70
128
 71
124
 72
125
 73
129
 74
128
 0
VERTEX
 8
CYLINDER_1
 10
0
 20
0
 30
0
 70
128
 71
126
 72
2
 73
130
 74
130
 0
VERTEX
 8
CYLINDER_1
 10
0
 20
0
 30
0
 70
128
 71
1
 72
127
 73
131
 74
131
 0
VERTEX
 8
CYLINDER_1
 10
0
 20
0
 30
0
 70
128
 71
128
 72
129
 73
133
 74
132
 0
VERTEX
 8
CYLINDER_1
 10
0
 20
0
 30
0
 70
128
 71
130
 72
2
 73
134
 74
134
 0
VERTEX
 8
CYLINDER_1
 10
0
 20
0
 30
0
 70
128
 71
1
 72
131
 73
135
 74
135
 0
VERTEX
 8
CYLINDER_1
 10
0
 20
0
 30
0
 70
128
 71
132
 72
133
 73
137
 74
136
 0
VERTEX
 8
CYLINDER_1
 10
0
 20
0
 30
0
 70
128
 71
134
 72
2
 73
138
 74
138
 0
VERTEX
 8
CYLINDER_1
 10
0
 20
0
 30
0
 70
128
 71
1
 72
135
 73
139
 74
139
 0
VERTEX
 8
CYLINDER_1
 10
0
 20
0
 30
0
 70
128
 71
136
 72
137
 73
141
 74
140
 0
VERTEX
 8
CYLINDER_1
 10
0
 20
0
 30
0
 70
128
 71
138
 72
2
 73
142
 74
142
 0
VERTEX
 8
CYLINDER_1
 10
0
 20
0
 30
0
 70
128
 71
1
 72
139
 73
143
 74
143
 0
VERTEX
 8
CYLINDER_1
 10
0
 20
0
 30
0
 70
128
 71
140
 72
141
 73
145
 74
144
 0
VERTEX
 8
CYLINDER_1
 10
0
 20
0
 30
0
 70
128
 71
142
 72
2
 73
146
 74
146
 0
VERTEX
 8
CYLINDER_1
 10
0
 20
0
 30
0
 70
128
 71
1
 72
143
 73
3
 74
3
 0
VERTEX
 8
CYLINDER_1
 10
0
 20
0
 30
0
 70
128
 71
144
 72
145
 73
5
 74
4
 0
VERTEX
 8
CYLINDER_1
 10
0
 20
0
 30
0
 70
128
 71
146
 72
2
 73
6
 74
6
 0
SEQEND
 0
POLYLINE
 8
CYLINDER
 66
1
 10
0.0
 20
0.0
 30
0.0
 70
64
 71
146
 72
108
 0
VERTEX
 8
CYLINDER
 10
-0.4546
 20
-0.2543
 30
0.7814
 70
192
 0
VERTEX
 8
CYLINDER
 10
-0.7889
 20
-0.2543
 30
0.7814
 70
192
 0
VERTEX
 8
CYLINDER
 10
-0.4546
 20
-0.2514
 30
0.7962
 70
192
 0
VERTEX
 8
CYLINDER
 10
-0.4546
 20
-0.2514
 30
0.7962
 70
192
 0
VERTEX
 8
CYLINDER
 10
-0.7889
 20
-0.2514
 30
0.7962
 70
192
 0
VERTEX
 8
CYLINDER
 10
-0.7889
 20
-0.2514
 30
0.7962
 70
192
 0
VERTEX
 8
CYLINDER
 10
-0.4546
 20
-0.2488
 30
0.7955
 70
192
 0
VERTEX
 8
CYLINDER
 10
-0.4546
 20
-0.2488
 30
0.7955
 70
192
 0
VERTEX
 8
CYLINDER
 10
-0.7889
 20
-0.2488
 30
0.7955
 70
192
 0
VERTEX
 8
CYLINDER
 10
-0.7889
 20
-0.2488
 30
0.7955
 70
192
 0
VERTEX
 8
CYLINDER
 10
-0.4546
 20
-0.2465
 30
0.7943
 70
192
 0
VERTEX
 8
CYLINDER
 10
-0.4546
 20
-0.2465
 30
0.7943
 70
192
 0
VERTEX
 8
CYLINDER
 10
-0.7889
 20
-0.2465
 30
0.7943
 70
192
 0
VERTEX
 8
CYLINDER
 10
-0.7889
 20
-0.2465
 30
0.7943
 70
192
 0
VERTEX
 8
CYLINDER
 10
-0.4546
 20
-0.2443
 30
0.7928
 70
192
 0
VERTEX
 8
CYLINDER
 10
-0.4546
 20
-0.2443
 30
0.7928
 70
192
 0
VERTEX
 8
CYLINDER
 10
-0.7889
 20
-0.2443
 30
0.7928
 70
192
 0
VERTEX
 8
CYLINDER
 10
-0.7889
 20
-0.2443
 30
0.7928
 70
192
 0
VERTEX
 8
CYLINDER
 10
-0.4546
 20
-0.2425
 30
0.7909
 70
192
 0
VERTEX
 8
CYLINDER
 10
-0.4546
 20
-0.2425
 30
0.7909
 70
192
 0
VERTEX
 8
CYLINDER
 10
-0.7889
 20
-0.2425
 30
0.7909
 70
192
 0
VERTEX
 8
CYLINDER
 10
-0.7889
 20
-0.2425
 30
0.7909
 70
192
 0
VERTEX
 8
CYLINDER
 10
-0.4546
 20
-0.241
 30
0.7887
 70
192
 0
VERTEX
 8
CYLINDER
 10
-0.4546
 20
-0.241
 30
0.7887
 70
192
 0
VERTEX
 8
CYLINDER
 10
-0.7889
 20
-0.241
 30
0.7887
 70
192
 0
VERTEX
 8
CYLINDER
 10
-0.7889
 20
-0.241
 30
0.7887
 70
192
 0
VERTEX
 8
CYLINDER
 10
-0.4546
 20
-0.24
 30
0.7863
 70
192
 0
VERTEX
 8
CYLINDER
 10
-0.4546
 20
-0.24
 30
0.7863
 70
192
 0
VERTEX
 8
CYLINDER
 10
-0.7889
 20
-0.24
 30
0.7863
 70
192
 0
VERTEX
 8
CYLINDER
 10
-0.7889
 20
-0.24
 30
0.7863
 70
192
 0
VERTEX
 8
CYLINDER
 10
-0.4546
 20
-0.2393
 30
0.7837
 70
192
 0
VERTEX
 8
CYLINDER
 10
-0.4546
 20
-0.2393
 30
0.7837
 70
192
 0
VERTEX
 8
CYLINDER
 10
-0.7889
 20
-0.2393
 30
0.7837
 70
192
 0
VERTEX
 8
CYLINDER
 10
-0.7889
 20
-0.2393
 30
0.7837
 70
192
 0
VERTEX
 8
CYLINDER
 10
-0.4546
 20
-0.2392
 30
0.7811
 70
192
 0
VERTEX
 8
CYLINDER
 10
-0.4546
 20
-0.2392
 30
0.7811
 70
192
 0
VERTEX
 8
CYLINDER
 10
-0.7889
 20
-0.2392
 30
0.7811
 70
192
 0
VERTEX
 8
CYLINDER
 10
-0.7889
 20
-0.2392
 30
0.7811
 70
192
 0
VERTEX
 8
CYLINDER
 10
-0.4546
 20
-0.2395
 30
0.7784
 70
192
 0
VERTEX
 8
CYLINDER
 10
-0.4546
 20
-0.2395
 30
0.7784
 70
192
 0
VERTEX
 8
CYLINDER
 10
-0.7889
 20
-0.2395
 30
0.7784
 70
192
 0
VERTEX
 8
CYLINDER
 10
-0.7889
 20
-0.2395
 30
0.7784
 70
192
 0
VERTEX
 8
CYLINDER
 10
-0.4546
 20
-0.2402
 30
0.7759
 70
192
 0
VERTEX
 8
CYLINDER
 10
-0.4546
 20
-0.2402
 30
0.7759
 70
192
 0
VERTEX
 8
CYLINDER
 10
-0.7889
 20
-0.2402
 30
0.7759
 70
192
 0
VERTEX
 8
CYLINDER
 10
-0.7889
 20
-0.2402
 30
0.7759
 70
192
 0
VERTEX
 8
CYLINDER
 10
-0.4546
 20
-0.2414
 30
0.7735
 70
192
 0
VERTEX
 8
CYLINDER
 10
-0.4546
 20
-0.2414
 30
0.7735
 70
192
 0
VERTEX
 8
CYLINDER
 10
-0.7889
 20
-0.2414
 30
0.7735
 70
192
 0
VERTEX
 8
CYLINDER
 10
-0.7889
 20
-0.2414
 30
0.7735
 70
192
 0
VERTEX
 8
CYLINDER
 10
-0.4546
 20
-0.2429
 30
0.7714
 70
192
 0
VERTEX
 8
CYLINDER
 10
-0.4546
 20
-0.2429
 30
0.7714
 70
192
 0
VERTEX
 8
CYLINDER
 10
-0.7889
 20
-0.2429
 30
0.7714
 70
192
 0
VERTEX
 8
CYLINDER
 10
-0.7889
 20
-0.2429
 30
0.7714
 70
192
 0
VERTEX
 8
CYLINDER
 10
-0.4546
 20
-0.2448
 30
0.7696
 70
192
 0
VERTEX
 8
CYLINDER
 10
-0.4546
 20
-0.2448
 30
0.7696
 70
192
 0
VERTEX
 8
CYLINDER
 10
-0.7889
 20
-0.2448
 30
0.7696
 70
192
 0
VERTEX
 8
CYLINDER
 10
-0.7889
 20
-0.2448
 30
0.7696
 70
192
 0
VERTEX
 8
CYLINDER
 10
-0.4546
 20
-0.247
 30
0.7681
 70
192
 0
VERTEX
 8
CYLINDER
 10
-0.4546
 20
-0.247
 30
0.7681
 70
192
 0
VERTEX
 8
CYLINDER
 10
-0.7889
 20
-0.247
 30
0.7681
 70
192
 0
VERTEX
 8
CYLINDER
 10
-0.7889
 20
-0.247
 30
0.7681
 70
192
 0
VERTEX
 8
CYLINDER
 10
-0.4546
 20
-0.2494
 30
0.767
 70
192
 0
VERTEX
 8
CYLINDER
 10
-0.4546
 20
-0.2494
 30
0.767
 70
192
 0
VERTEX
 8
CYLINDER
 10
-0.7889
 20
-0.2494
 30
0.767
 70
192
 0
VERTEX
 8
CYLINDER
 10
-0.7889
 20
-0.2494
 30
0.767
 70
192
 0
VERTEX
 8
CYLINDER
 10
-0.4546
 20
-0.252
 30
0.7664
 70
192
 0
VERTEX
 8
CYLINDER
 10
-0.4546
 20
-0.252
 30
0.7664
 70
192
 0
VERTEX
 8
CYLINDER
 10
-0.7889
 20
-0.252
 30
0.7664
 70
192
 0
VERTEX
 8
CYLINDER
 10
-0.7889
 20
-0.252
 30
0.7664
 70
192
 0
VERTEX
 8
CYLINDER
 10
-0.4546
 20
-0.2546
 30
0.7662
 70
192
 0
VERTEX
 8
CYLINDER
 10
-0.4546
 20
-0.2546
 30
0.7662
 70
192
 0
VERTEX
 8
CYLINDER
 10
-0.7889
 20
-0.2546
 30
0.7662
 70
192
 0
VERTEX
 8
CYLINDER
 10
-0.7889
 20
-0.2546
 30
0.7662
 70
192
 0
VERTEX
 8
CYLINDER
 10
-0.4546
 20
-0.2573
 30
0.7665
 70
192
 0
VERTEX
 8
CYLINDER
 10
-0.4546
 20
-0.2573
 30
0.7665
 70
192
 0
VERTEX
 8
CYLINDER
 10
-0.7889
 20
-0.2573
 30
0.7665
 70
192
 0
VERTEX
 8
CYLINDER
 10
-0.7889
 20
-0.2573
 30
0.7665
 70
192
 0
VERTEX
 8
CYLINDER
 10
-0.4546
 20
-0.2598
 30
0.7672
 70
192
 0
VERTEX
 8
CYLINDER
 10
-0.4546
 20
-0.2598
 30
0.7672
 70
192
 0
VERTEX
 8
CYLINDER
 10
-0.7889
 20
-0.2598
 30
0.7672
 70
192
 0
VERTEX
 8
CYLINDER
 10
-0.7889
 20
-0.2598
 30
0.7672
 70
192
 0
VERTEX
 8
CYLINDER
 10
-0.4546
 20
-0.2622
 30
0.7684
 70
192
 0
VERTEX
 8
CYLINDER
 10
-0.4546
 20
-0.2622
 30
0.7684
 70
192
 0
VERTEX
 8
CYLINDER
 10
-0.7889
 20
-0.2622
 30
0.7684
 70
192
 0
VERTEX
 8
CYLINDER
 10
-0.7889
 20
-0.2622
 30
0.7684
 70
192
 0
VERTEX
 8
CYLINDER
 10
-0.4546
 20
-0.2643
 30
0.77
 70
192
 0
VERTEX
 8
CYLINDER
 10
-0.4546
 20
-0.2643
 30
0.77
 70
192
 0
VERTEX
 8
CYLINDER
 10
-0.7889
 20
-0.2643
 30
0.77
 70
192
 0
VERTEX
 8
CYLINDER
 10
-0.7889
 20
-0.2643
 30
0.77
 70
192
 0
VERTEX
 8
CYLINDER
 10
-0.4546
 20
-0.2661
 30
0.7719
 70
192
 0
VERTEX
 8
CYLINDER
 10
-0.4546
 20
-0.2661
 30
0.7719
 70
192
 0
VERTEX
 8
CYLINDER
 10
-0.7889
 20
-0.2661
 30
0.7719
 70
192
 0
VERTEX
 8
CYLINDER
 10
-0.7889
 20
-0.2661
 30
0.7719
 70
192
 0
VERTEX
 8
CYLINDER
 10
-0.4546
 20
-0.2676
 30
0.7741
 70
192
 0
VERTEX
 8
CYLINDER
 10
-0.4546
 20
-0.2676
 30
0.7741
 70
192
 0
VERTEX
 8
CYLINDER
 10
-0.7889
 20
-0.2676
 30
0.7741
 70
192
 0
VERTEX
 8
CYLINDER
 10
-0.7889
 20
-0.2676
 30
0.7741
 70
192
 0
VERTEX
 8
CYLINDER
 10
-0.4546
 20
-0.2687
 30
0.7765
 70
192
 0
VERTEX
 8
CYLINDER
 10
-0.4546
 20
-0.2687
 30
0.7765
 70
192
 0
VERTEX
 8
CYLINDER
 10
-0.7889
 20
-0.2687
 30
0.7765
 70
192
 0
VERTEX
 8
CYLINDER
 10
-0.7889
 20
-0.2687
 30
0.7765
 70
192
 0
VERTEX
 8
CYLINDER
 10
-0.4546
 20
-0.2693
 30
0.7791
 70
192
 0
VERTEX
 8
CYLINDER
 10
-0.4546
 20
-0.2693
 30
0.7791
 70
192
 0
VERTEX
 8
CYLINDER
 10
-0.7889
 20
-0.2693
 30
0.7791
 70
192
 0
VERTEX
 8
CYLINDER
 10
-0.7889
 20
-0.2693
 30
0.7791
 70
192
 0
VERTEX
 8
CYLINDER
 10
-0.4546
 20
-0.2695
 30
0.7817
 70
192
 0
VERTEX
 8
CYLINDER
 10
-0.4546
 20
-0.2695
 30
0.7817
 70
192
 0
VERTEX
 8
CYLINDER
 10
-0.7889
 20
-0.2695
 30
0.7817
 70
192
 0
VERTEX
 8
CYLINDER
 10
-0.7889
 20
-0.2695
 30
0.7817
 70
192
 0
VERTEX
 8
CYLINDER
 10
-0.4546
 20
-0.2692
 30
0.7843
 70
192
 0
VERTEX
 8
CYLINDER
 10
-0.4546
 20
-0.2692
 30
0.7843
 70
192
 0
VERTEX
 8
CYLINDER
 10
-0.7889
 20
-0.2692
 30
0.7843
 70
192
 0
VERTEX
 8
CYLINDER
 10
-0.7889
 20
-0.2692
 30
0.7843
 70
192
 0
VERTEX
 8
CYLINDER
 10
-0.4546
 20
-0.2684
 30
0.7869
 70
192
 0
VERTEX
 8
CYLINDER
 10
-0.4546
 20
-0.2684
 30
0.7869
 70
192
 0
VERTEX
 8
CYLINDER
 10
-0.7889
 20
-0.2684
 30
0.7869
 70
192
 0
VERTEX
 8
CYLINDER
 10
-0.7889
 20
-0.2684
 30
0.7869
 70
192
 0
VERTEX
 8
CYLINDER
 10
-0.4546
 20
-0.2673
 30
0.7892
 70
192
 0
VERTEX
 8
CYLINDER
 10
-0.4546
 20
-0.2673
 30
0.7892
 70
192
 0
VERTEX
 8
CYLINDER
 10
-0.7889
 20
-0.2673
 30
0.7892
 70
192
 0
VERTEX
 8
CYLINDER
 10
-0.7889
 20
-0.2673
 30
0.7892
 70
192
 0
VERTEX
 8
CYLINDER
 10
-0.4546
 20
-0.2657
 30
0.7914
 70
192
 0
VERTEX
 8
CYLINDER
 10
-0.4546
 20
-0.2657
 30
0.7914
 70
192
 0
VERTEX
 8
CYLINDER
 10
-0.7889
 20
-0.2657
 30
0.7914
 70
192
 0
VERTEX
 8
CYLINDER
 10
-0.7889
 20
-0.2657
 30
0.7914
 70
192
 0
VERTEX
 8
CYLINDER
 10
-0.4546
 20
-0.2638
 30
0.7932
 70
192
 0
VERTEX
 8
CYLINDER
 10
-0.4546
 20
-0.2638
 30
0.7932
 70
192
 0
VERTEX
 8
CYLINDER
 10
-0.7889
 20
-0.2638
 30
0.7932
 70
192
 0
VERTEX
 8
CYLINDER
 10
-0.7889
 20
-0.2638
 30
0.7932
 70
192
 0
VERTEX
 8
CYLINDER
 10
-0.4546
 20
-0.2616
 30
0.7947
 70
192
 0
VERTEX
 8
CYLINDER
 10
-0.4546
 20
-0.2616
 30
0.7947
 70
192
 0
VERTEX
 8
CYLINDER
 10
-0.7889
 20
-0.2616
 30
0.7947
 70
192
 0
VERTEX
 8
CYLINDER
 10
-0.7889
 20
-0.2616
 30
0.7947
 70
192
 0
VERTEX
 8
CYLINDER
 10
-0.4546
 20
-0.2592
 30
0.7957
 70
192
 0
VERTEX
 8
CYLINDER
 10
-0.4546
 20
-0.2592
 30
0.7957
 70
192
 0
VERTEX
 8
CYLINDER
 10
-0.7889
 20
-0.2592
 30
0.7957
 70
192
 0
VERTEX
 8
CYLINDER
 10
-0.7889
 20
-0.2592
 30
0.7957
 70
192
 0
VERTEX
 8
CYLINDER
 10
-0.4546
 20
-0.2566
 30
0.7964
 70
192
 0
VERTEX
 8
CYLINDER
 10
-0.4546
 20
-0.2566
 30
0.7964
 70
192
 0
VERTEX
 8
CYLINDER
 10
-0.7889
 20
-0.2566
 30
0.7964
 70
192
 0
VERTEX
 8
CYLINDER
 10
-0.7889
 20
-0.2566
 30
0.7964
 70
192
 0
VERTEX
 8
CYLINDER
 10
-0.4546
 20
-0.254
 30
0.7965
 70
192
 0
VERTEX
 8
CYLINDER
 10
-0.4546
 20
-0.254
 30
0.7965
 70
192
 0
VERTEX
 8
CYLINDER
 10
-0.7889
 20
-0.254
 30
0.7965
 70
192
 0
VERTEX
 8
CYLINDER
 10
-0.7889
 20
-0.254
 30
0.7965
 70
192
 0
VERTEX
 8
CYLINDER
 10
0
 20
0
 30
0
 70
128
 71
1
 72
3
 73
7
 74
7
 0
VERTEX
 8
CYLINDER
 10
0
 20
0
 30
0
 70
128
 71
4
 72
5
 73
9
 74
8
 0
VERTEX
 8
CYLINDER
 10
0
 20
0
 30
0
 70
128
 71
6
 72
2
 73
10
 74
10
 0
VERTEX
 8
CYLINDER
 10
0
 20
0
 30
0
 70
128
 71
1
 72
7
 73
11
 74
11
 0
VERTEX
 8
CYLINDER
 10
0
 20
0
 30
0
 70
128
 71
8
 72
9
 73
13
 74
12
 0
VERTEX
 8
CYLINDER
 10
0
 20
0
 30
0
 70
128
 71
10
 72
2
 73
14
 74
14
 0
VERTEX
 8
CYLINDER
 10
0
 20
0
 30
0
 70
128
 71
1
 72
11
 73
15
 74
15
 0
VERTEX
 8
CYLINDER
 10
0
 20
0
 30
0
 70
128
 71
12
 72
13
 73
17
 74
16
 0
VERTEX
 8
CYLINDER
 10
0
 20
0
 30
0
 70
128
 71
14
 72
2
 73
18
 74
18
 0
VERTEX
 8
CYLINDER
 10
0
 20
0
 30
0
 70
128
 71
1
 72
15
 73
19
 74
19
 0
VERTEX
 8
CYLINDER
 10
0
 20
0
 30
0
 70
128
 71
16
 72
17
 73
21
 74
20
 0
VERTEX
 8
CYLINDER
 10
0
 20
0
 30
0
 70
128
 71
18
 72
2
 73
22
 74
22
 0
VERTEX
 8
CYLINDER
 10
0
 20
0
 30
0
 70
128
 71
1
 72
19
 73
23
 74
23
 0
VERTEX
 8
CYLINDER
 10
0
 20
0
 30
0
 70
128
 71
20
 72
21
 73
25
 74
24
 0
VERTEX
 8
CYLINDER
 10
0
 20
0
 30
0
 70
128
 71
22
 72
2
 73
26
 74
26
 0
VERTEX
 8
CYLINDER
 10
0
 20
0
 30
0
 70
128
 71
1
 72
23
 73
27
 74
27
 0
VERTEX
 8
CYLINDER
 10
0
 20
0
 30
0
 70
128
 71
24
 72
25
 73
29
 74
28
 0
VERTEX
 8
CYLINDER
 10
0
 20
0
 30
0
 70
128
 71
26
 72
2
 73
30
 74
30
 0
VERTEX
 8
CYLINDER
 10
0
 20
0
 30
0
 70
128
 71
1
 72
27
 73
31
 74
31
 0
VERTEX
 8
CYLINDER
 10
0
 20
0
 30
0
 70
128
 71
28
 72
29
 73
33
 74
32
 0
VERTEX
 8
CYLINDER
 10
0
 20
0
 30
0
 70
128
 71
30
 72
2
 73
34
 74
34
 0
VERTEX
 8
CYLINDER
 10
0
 20
0
 30
0
 70
128
 71
1
 72
31
 73
35
 74
35
 0
VERTEX
 8
CYLINDER
 10
0
 20
0
 30
0
 70
128
 71
32
 72
33
 73
37
 74
36
 0
VERTEX
 8
CYLINDER
 10
0
 20
0
 30
0
 70
128
 71
34
 72
2
 73
38
 74
38
 0
VERTEX
 8
CYLINDER
 10
0
 20
0
 30
0
 70
128
 71
1
 72
35
 73
39
 74
39
 0
VERTEX
 8
CYLINDER
 10
0
 20
0
 30
0
 70
128
 71
36
 72
37
 73
41
 74
40
 0
VERTEX
 8
CYLINDER
 10
0
 20
0
 30
0
 70
128
 71
38
 72
2
 73
42
 74
42
 0
VERTEX
 8
CYLINDER
 10
0
 20
0
 30
0
 70
128
 71
1
 72
39
 73
43
 74
43
 0
VERTEX
 8
CYLINDER
 10
0
 20
0
 30
0
 70
128
 71
40
 72
41
 73
45
 74
44
 0
VERTEX
 8
CYLINDER
 10
0
 20
0
 30
0
 70
128
 71
42
 72
2
 73
46
 74
46
 0
VERTEX
 8
CYLINDER
 10
0
 20
0
 30
0
 70
128
 71
1
 72
43
 73
47
 74
47
 0
VERTEX
 8
CYLINDER
 10
0
 20
0
 30
0
 70
128
 71
44
 72
45
 73
49
 74
48
 0
VERTEX
 8
CYLINDER
 10
0
 20
0
 30
0
 70
128
 71
46
 72
2
 73
50
 74
50
 0
VERTEX
 8
CYLINDER
 10
0
 20
0
 30
0
 70
128
 71
1
 72
47
 73
51
 74
51
 0
VERTEX
 8
CYLINDER
 10
0
 20
0
 30
0
 70
128
 71
48
 72
49
 73
53
 74
52
 0
VERTEX
 8
CYLINDER
 10
0
 20
0
 30
0
 70
128
 71
50
 72
2
 73
54
 74
54
 0
VERTEX
 8
CYLINDER
 10
0
 20
0
 30
0
 70
128
 71
1
 72
51
 73
55
 74
55
 0
VERTEX
 8
CYLINDER
 10
0
 20
0
 30
0
 70
128
 71
52
 72
53
 73
57
 74
56
 0
VERTEX
 8
CYLINDER
 10
0
 20
0
 30
0
 70
128
 71
54
 72
2
 73
58
 74
58
 0
VERTEX
 8
CYLINDER
 10
0
 20
0
 30
0
 70
128
 71
1
 72
55
 73
59
 74
59
 0
VERTEX
 8
CYLINDER
 10
0
 20
0
 30
0
 70
128
 71
56
 72
57
 73
61
 74
60
 0
VERTEX
 8
CYLINDER
 10
0
 20
0
 30
0
 70
128
 71
58
 72
2
 73
62
 74
62
 0
VERTEX
 8
CYLINDER
 10
0
 20
0
 30
0
 70
128
 71
1
 72
59
 73
63
 74
63
 0
VERTEX
 8
CYLINDER
 10
0
 20
0
 30
0
 70
128
 71
60
 72
61
 73
65
 74
64
 0
VERTEX
 8
CYLINDER
 10
0
 20
0
 30
0
 70
128
 71
62
 72
2
 73
66
 74
66
 0
VERTEX
 8
CYLINDER
 10
0
 20
0
 30
0
 70
128
 71
1
 72
63
 73
67
 74
67
 0
VERTEX
 8
CYLINDER
 10
0
 20
0
 30
0
 70
128
 71
64
 72
65
 73
69
 74
68
 0
VERTEX
 8
CYLINDER
 10
0
 20
0
 30
0
 70
128
 71
66
 72
2
 73
70
 74
70
 0
VERTEX
 8
CYLINDER
 10
0
 20
0
 30
0
 70
128
 71
1
 72
67
 73
71
 74
71
 0
VERTEX
 8
CYLINDER
 10
0
 20
0
 30
0
 70
128
 71
68
 72
69
 73
73
 74
72
 0
VERTEX
 8
CYLINDER
 10
0
 20
0
 30
0
 70
128
 71
70
 72
2
 73
74
 74
74
 0
VERTEX
 8
CYLINDER
 10
0
 20
0
 30
0
 70
128
 71
1
 72
71
 73
75
 74
75
 0
VERTEX
 8
CYLINDER
 10
0
 20
0
 30
0
 70
128
 71
72
 72
73
 73
77
 74
76
 0
VERTEX
 8
CYLINDER
 10
0
 20
0
 30
0
 70
128
 71
74
 72
2
 73
78
 74
78
 0
VERTEX
 8
CYLINDER
 10
0
 20
0
 30
0
 70
128
 71
1
 72
75
 73
79
 74
79
 0
VERTEX
 8
CYLINDER
 10
0
 20
0
 30
0
 70
128
 71
76
 72
77
 73
81
 74
80
 0
VERTEX
 8
CYLINDER
 10
0
 20
0
 30
0
 70
128
 71
78
 72
2
 73
82
 74
82
 0
VERTEX
 8
CYLINDER
 10
0
 20
0
 30
0
 70
128
 71
1
 72
79
 73
83
 74
83
 0
VERTEX
 8
CYLINDER
 10
0
 20
0
 30
0
 70
128
 71
80
 72
81
 73
85
 74
84
 0
VERTEX
 8
CYLINDER
 10
0
 20
0
 30
0
 70
128
 71
82
 72
2
 73
86
 74
86
 0
VERTEX
 8
CYLINDER
 10
0
 20
0
 30
0
 70
128
 71
1
 72
83
 73
87
 74
87
 0
VERTEX
 8
CYLINDER
 10
0
 20
0
 30
0
 70
128
 71
84
 72
85
 73
89
 74
88
 0
VERTEX
 8
CYLINDER
 10
0
 20
0
 30
0
 70
128
 71
86
 72
2
 73
90
 74
90
 0
VERTEX
 8
CYLINDER
 10
0
 20
0
 30
0
 70
128
 71
1
 72
87
 73
91
 74
91
 0
VERTEX
 8
CYLINDER
 10
0
 20
0
 30
0
 70
128
 71
88
 72
89
 73
93
 74
92
 0
VERTEX
 8
CYLINDER
 10
0
 20
0
 30
0
 70
128
 71
90
 72
2
 73
94
 74
94
 0
VERTEX
 8
CYLINDER
 10
0
 20
0
 30
0
 70
128
 71
1
 72
91
 73
95
 74
95
 0
VERTEX
 8
CYLINDER
 10
0
 20
0
 30
0
 70
128
 71
92
 72
93
 73
97
 74
96
 0
VERTEX
 8
CYLINDER
 10
0
 20
0
 30
0
 70
128
 71
94
 72
2
 73
98
 74
98
 0
VERTEX
 8
CYLINDER
 10
0
 20
0
 30
0
 70
128
 71
1
 72
95
 73
99
 74
99
 0
VERTEX
 8
CYLINDER
 10
0
 20
0
 30
0
 70
128
 71
96
 72
97
 73
101
 74
100
 0
VERTEX
 8
CYLINDER
 10
0
 20
0
 30
0
 70
128
 71
98
 72
2
 73
102
 74
102
 0
VERTEX
 8
CYLINDER
 10
0
 20
0
 30
0
 70
128
 71
1
 72
99
 73
103
 74
103
 0
VERTEX
 8
CYLINDER
 10
0
 20
0
 30
0
 70
128
 71
100
 72
101
 73
105
 74
104
 0
VERTEX
 8
CYLINDER
 10
0
 20
0
 30
0
 70
128
 71
102
 72
2
 73
106
 74
106
 0
VERTEX
 8
CYLINDER
 10
0
 20
0
 30
0
 70
128
 71
1
 72
103
 73
107
 74
107
 0
VERTEX
 8
CYLINDER
 10
0
 20
0
 30
0
 70
128
 71
104
 72
105
 73
109
 74
108
 0
VERTEX
 8
CYLINDER
 10
0
 20
0
 30
0
 70
128
 71
106
 72
2
 73
110
 74
110
 0
VERTEX
 8
CYLINDER
 10
0
 20
0
 30
0
 70
128
 71
1
 72
107
 73
111
 74
111
 0
VERTEX
 8
CYLINDER
 10
0
 20
0
 30
0
 70
128
 71
108
 72
109
 73
113
 74
112
 0
VERTEX
 8
CYLINDER
 10
0
 20
0
 30
0
 70
128
 71
110
 72
2
 73
114
 74
114
 0
VERTEX
 8
CYLINDER
 10
0
 20
0
 30
0
 70
128
 71
1
 72
111
 73
115
 74
115
 0
VERTEX
 8
CYLINDER
 10
0
 20
0
 30
0
 70
128
 71
112
 72
113
 73
117
 74
116
 0
VERTEX
 8
CYLINDER
 10
0
 20
0
 30
0
 70
128
 71
114
 72
2
 73
118
 74
118
 0
VERTEX
 8
CYLINDER
 10
0
 20
0
 30
0
 70
128
 71
1
 72
115
 73
119
 74
119
 0
VERTEX
 8
CYLINDER
 10
0
 20
0
 30
0
 70
128
 71
116
 72
117
 73
121
 74
120
 0
VERTEX
 8
CYLINDER
 10
0
 20
0
 30
0
 70
128
 71
118
 72
2
 73
122
 74
122
 0
VERTEX
 8
CYLINDER
 10
0
 20
0
 30
0
 70
128
 71
1
 72
119
 73
123
 74
123
 0
VERTEX
 8
CYLINDER
 10
0
 20
0
 30
0
 70
128
 71
120
 72
121
 73
125
 74
124
 0
VERTEX
 8
CYLINDER
 10
0
 20
0
 30
0
 70
128
 71
122
 72
2
 73
126
 74
126
 0
VERTEX
 8
CYLINDER
 10
0
 20
0
 30
0
 70
128
 71
1
 72
123
 73
127
 74
127
 0
VERTEX
 8
CYLINDER
 10
0
 20
0
 30
0
 70
128
 71
124
 72
125
 73
129
 74
128
 0
VERTEX
 8
CYLINDER
 10
0
 20
0
 30
0
 70
128
 71
126
 72
2
 73
130
 74
130
 0
VERTEX
 8
CYLINDER
 10
0
 20
0
 30
0
 70
128
 71
1
 72
127
 73
131
 74
131
 0
VERTEX
 8
CYLINDER
 10
0
 20
0
 30
0
 70
128
 71
128
 72
129
 73
133
 74
132
 0
VERTEX
 8
CYLINDER
 10
0
 20
0
 30
0
 70
128
 71
130
 72
2
 73
134
 74
134
 0
VERTEX
 8
CYLINDER
 10
0
 20
0
 30
0
 70
128
 71
1
 72
131
 73
135
 74
135
 0
VERTEX
 8
CYLINDER
 10
0
 20
0
 30
0
 70
128
 71
132
 72
133
 73
137
 74
136
 0
VERTEX
 8
CYLINDER
 10
0
 20
0
 30
0
 70
128
 71
134
 72
2
 73
138
 74
138
 0
VERTEX
 8
CYLINDER
 10
0
 20
0
 30
0
 70
128
 71
1
 72
135
 73
139
 74
139
 0
VERTEX
 8
CYLINDER
 10
0
 20
0
 30
0
 70
128
 71
136
 72
137
 73
141
 74
140
 0
VERTEX
 8
CYLINDER
 10
0
 20
0
 30
0
 70
128
 71
138
 72
2
 73
142
 74
142
 0
VERTEX
 8
CYLINDER
 10
0
 20
0
 30
0
 70
128
 71
1
 72
139
 73
143
 74
143
 0
VERTEX
 8
CYLINDER
 10
0
 20
0
 30
0
 70
128
 71
140
 72
141
 73
145
 74
144
 0
VERTEX
 8
CYLINDER
 10
0
 20
0
 30
0
 70
128
 71
142
 72
2
 73
146
 74
146
 0
VERTEX
 8
CYLINDER
 10
0
 20
0
 30
0
 70
128
 71
1
 72
143
 73
3
 74
3
 0
VERTEX
 8
CYLINDER
 10
0
 20
0
 30
0
 70
128
 71
144
 72
145
 73
5
 74
4
 0
VERTEX
 8
CYLINDER
 10
0
 20
0
 30
0
 70
128
 71
146
 72
2
 73
6
 74
6
 0
SEQEND
 0
POLYLINE
 8
CUBE_11
 66
1
 10
0.0
 20
0.0
 30
0.0
 70
64
 71
8
 72
6
 0
VERTEX
 8
CUBE_11
 10
-0.4595
 20
-0.6795
 30
-1.3101
 70
192
 0
VERTEX
 8
CUBE_11
 10
-0.4595
 20
-0.2034
 30
1.0895
 70
192
 0
VERTEX
 8
CUBE_11
 10
-0.4395
 20
-0.6795
 30
-1.3101
 70
192
 0
VERTEX
 8
CUBE_11
 10
-0.4395
 20
-0.2034
 30
1.0895
 70
192
 0
VERTEX
 8
CUBE_11
 10
-0.4395
 20
-0.6599
 30
-1.314
 70
192
 0
VERTEX
 8
CUBE_11
 10
-0.4395
 20
-0.1838
 30
1.0856
 70
192
 0
VERTEX
 8
CUBE_11
 10
-0.4595
 20
-0.6599
 30
-1.314
 70
192
 0
VERTEX
 8
CUBE_11
 10
-0.4595
 20
-0.1838
 30
1.0856
 70
192
 0
VERTEX
 8
CUBE_11
 10
0
 20
0
 30
0
 70
128
 71
1
 72
2
 73
4
 74
3
 0
VERTEX
 8
CUBE_11
 10
0
 20
0
 30
0
 70
128
 71
3
 72
4
 73
6
 74
5
 0
VERTEX
 8
CUBE_11
 10
0
 20
0
 30
0
 70
128
 71
5
 72
6
 73
8
 74
7
 0
VERTEX
 8
CUBE_11
 10
0
 20
0
 30
0
 70
128
 71
7
 72
8
 73
2
 74
1
 0
VERTEX
 8
CUBE_11
 10
0
 20
0
 30
0
 70
128
 71
2
 72
8
 73
6
 74
4
 0
VERTEX
 8
CUBE_11
 10
0
 20
0
 30
0
 70
128
 71
7
 72
1
 73
3
 74
5
 0
SEQEND
 0
POLYLINE
 8
CUBE_10
 66
1
 10
0.0
 20
0.0
 30
0.0
 70
64
 71
8
 72
6
 0
VERTEX
 8
CUBE_10
 10
-0.8017
 20
-0.6795
 30
-1.3101
 70
192
 0
VERTEX
 8
CUBE_10
 10
-0.8017
 20
-0.2034
 30
1.0895
 70
192
 0
VERTEX
 8
CUBE_10
 10
-0.7817
 20
-0.6795
 30
-1.3101
 70
192
 0
VERTEX
 8
CUBE_10
 10
-0.7817
 20
-0.2034
 30
1.0895
 70
192
 0
VERTEX
 8
CUBE_10
 10
-0.7817
 20
-0.6599
 30
-1.314
 70
192
 0
VERTEX
 8
CUBE_10
 10
-0.7817
 20
-0.1838
 30
1.0856
 70
192
 0
VERTEX
 8
CUBE_10
 10
-0.8017
 20
-0.6599
 30
-1.314
 70
192
 0
VERTEX
 8
CUBE_10
 10
-0.8017
 20
-0.1838
 30
1.0856
 70
192
 0
VERTEX
 8
CUBE_10
 10
0
 20
0
 30
0
 70
128
 71
1
 72
2
 73
4
 74
3
 0
VERTEX
 8
CUBE_10
 10
0
 20
0
 30
0
 70
128
 71
3
 72
4
 73
6
 74
5
 0
VERTEX
 8
CUBE_10
 10
0
 20
0
 30
0
 70
128
 71
5
 72
6
 73
8
 74
7
 0
VERTEX
 8
CUBE_10
 10
0
 20
0
 30
0
 70
128
 71
7
 72
8
 73
2
 74
1
 0
VERTEX
 8
CUBE_10
 10
0
 20
0
 30
0
 70
128
 71
2
 72
8
 73
6
 74
4
 0
VERTEX
 8
CUBE_10
 10
0
 20
0
 30
0
 70
128
 71
7
 72
1
 73
3
 74
5
 0
SEQEND
 0
POLYLINE
 8
CYLINDER_7
 66
1
 10
0.0
 20
0.0
 30
0.0
 70
64
 71
146
 72
108
 0
VERTEX
 8
CYLINDER_7
 10
0.7892
 20
-0.1918
 30
1.0967
 70
192
 0
VERTEX
 8
CYLINDER_7
 10
-0.7973
 20
-0.1918
 30
1.0967
 70
192
 0
VERTEX
 8
CYLINDER_7
 10
0.7892
 20
-0.1888
 30
1.1116
 70
192
 0
VERTEX
 8
CYLINDER_7
 10
0.7892
 20
-0.1888
 30
1.1116
 70
192
 0
VERTEX
 8
CYLINDER_7
 10
-0.7973
 20
-0.1888
 30
1.1116
 70
192
 0
VERTEX
 8
CYLINDER_7
 10
-0.7973
 20
-0.1888
 30
1.1116
 70
192
 0
VERTEX
 8
CYLINDER_7
 10
0.7892
 20
-0.1863
 30
1.1108
 70
192
 0
VERTEX
 8
CYLINDER_7
 10
0.7892
 20
-0.1863
 30
1.1108
 70
192
 0
VERTEX
 8
CYLINDER_7
 10
-0.7973
 20
-0.1863
 30
1.1108
 70
192
 0
VERTEX
 8
CYLINDER_7
 10
-0.7973
 20
-0.1863
 30
1.1108
 70
192
 0
VERTEX
 8
CYLINDER_7
 10
0.7892
 20
-0.1839
 30
1.1097
 70
192
 0
VERTEX
 8
CYLINDER_7
 10
0.7892
 20
-0.1839
 30
1.1097
 70
192
 0
VERTEX
 8
CYLINDER_7
 10
-0.7973
 20
-0.1839
 30
1.1097
 70
192
 0
VERTEX
 8
CYLINDER_7
 10
-0.7973
 20
-0.1839
 30
1.1097
 70
192
 0
VERTEX
 8
CYLINDER_7
 10
0.7892
 20
-0.1818
 30
1.1081
 70
192
 0
VERTEX
 8
CYLINDER_7
 10
0.7892
 20
-0.1818
 30
1.1081
 70
192
 0
VERTEX
 8
CYLINDER_7
 10
-0.7973
 20
-0.1818
 30
1.1081
 70
192
 0
VERTEX
 8
CYLINDER_7
 10
-0.7973
 20
-0.1818
 30
1.1081
 70
192
 0
VERTEX
 8
CYLINDER_7
 10
0.7892
 20
-0.1799
 30
1.1062
 70
192
 0
VERTEX
 8
CYLINDER_7
 10
0.7892
 20
-0.1799
 30
1.1062
 70
192
 0
VERTEX
 8
CYLINDER_7
 10
-0.7973
 20
-0.1799
 30
1.1062
 70
192
 0
VERTEX
 8
CYLINDER_7
 10
-0.7973
 20
-0.1799
 30
1.1062
 70
192
 0
VERTEX
 8
CYLINDER_7
 10
0.7892
 20
-0.1785
 30
1.104
 70
192
 0
VERTEX
 8
CYLINDER_7
 10
0.7892
 20
-0.1785
 30
1.104
 70
192
 0
VERTEX
 8
CYLINDER_7
 10
-0.7973
 20
-0.1785
 30
1.104
 70
192
 0
VERTEX
 8
CYLINDER_7
 10
-0.7973
 20
-0.1785
 30
1.104
 70
192
 0
VERTEX
 8
CYLINDER_7
 10
0.7892
 20
-0.1774
 30
1.1016
 70
192
 0
VERTEX
 8
CYLINDER_7
 10
0.7892
 20
-0.1774
 30
1.1016
 70
192
 0
VERTEX
 8
CYLINDER_7
 10
-0.7973
 20
-0.1774
 30
1.1016
 70
192
 0
VERTEX
 8
CYLINDER_7
 10
-0.7973
 20
-0.1774
 30
1.1016
 70
192
 0
VERTEX
 8
CYLINDER_7
 10
0.7892
 20
-0.1768
 30
1.099
 70
192
 0
VERTEX
 8
CYLINDER_7
 10
0.7892
 20
-0.1768
 30
1.099
 70
192
 0
VERTEX
 8
CYLINDER_7
 10
-0.7973
 20
-0.1768
 30
1.099
 70
192
 0
VERTEX
 8
CYLINDER_7
 10
-0.7973
 20
-0.1768
 30
1.099
 70
192
 0
VERTEX
 8
CYLINDER_7
 10
0.7892
 20
-0.1766
 30
1.0964
 70
192
 0
VERTEX
 8
CYLINDER_7
 10
0.7892
 20
-0.1766
 30
1.0964
 70
192
 0
VERTEX
 8
CYLINDER_7
 10
-0.7973
 20
-0.1766
 30
1.0964
 70
192
 0
VERTEX
 8
CYLINDER_7
 10
-0.7973
 20
-0.1766
 30
1.0964
 70
192
 0
VERTEX
 8
CYLINDER_7
 10
0.7892
 20
-0.1769
 30
1.0937
 70
192
 0
VERTEX
 8
CYLINDER_7
 10
0.7892
 20
-0.1769
 30
1.0937
 70
192
 0
VERTEX
 8
CYLINDER_7
 10
-0.7973
 20
-0.1769
 30
1.0937
 70
192
 0
VERTEX
 8
CYLINDER_7
 10
-0.7973
 20
-0.1769
 30
1.0937
 70
192
 0
VERTEX
 8
CYLINDER_7
 10
0.7892
 20
-0.1776
 30
1.0912
 70
192
 0
VERTEX
 8
CYLINDER_7
 10
0.7892
 20
-0.1776
 30
1.0912
 70
192
 0
VERTEX
 8
CYLINDER_7
 10
-0.7973
 20
-0.1776
 30
1.0912
 70
192
 0
VERTEX
 8
CYLINDER_7
 10
-0.7973
 20
-0.1776
 30
1.0912
 70
192
 0
VERTEX
 8
CYLINDER_7
 10
0.7892
 20
-0.1788
 30
1.0888
 70
192
 0
VERTEX
 8
CYLINDER_7
 10
0.7892
 20
-0.1788
 30
1.0888
 70
192
 0
VERTEX
 8
CYLINDER_7
 10
-0.7973
 20
-0.1788
 30
1.0888
 70
192
 0
VERTEX
 8
CYLINDER_7
 10
-0.7973
 20
-0.1788
 30
1.0888
 70
192
 0
VERTEX
 8
CYLINDER_7
 10
0.7892
 20
-0.1804
 30
1.0867
 70
192
 0
VERTEX
 8
CYLINDER_7
 10
0.7892
 20
-0.1804
 30
1.0867
 70
192
 0
VERTEX
 8
CYLINDER_7
 10
-0.7973
 20
-0.1804
 30
1.0867
 70
192
 0
VERTEX
 8
CYLINDER_7
 10
-0.7973
 20
-0.1804
 30
1.0867
 70
192
 0
VERTEX
 8
CYLINDER_7
 10
0.7892
 20
-0.1823
 30
1.0849
 70
192
 0
VERTEX
 8
CYLINDER_7
 10
0.7892
 20
-0.1823
 30
1.0849
 70
192
 0
VERTEX
 8
CYLINDER_7
 10
-0.7973
 20
-0.1823
 30
1.0849
 70
192
 0
VERTEX
 8
CYLINDER_7
 10
-0.7973
 20
-0.1823
 30
1.0849
 70
192
 0
VERTEX
 8
CYLINDER_7
 10
0.7892
 20
-0.1845
 30
1.0834
 70
192
 0
VERTEX
 8
CYLINDER_7
 10
0.7892
 20
-0.1845
 30
1.0834
 70
192
 0
VERTEX
 8
CYLINDER_7
 10
-0.7973
 20
-0.1845
 30
1.0834
 70
192
 0
VERTEX
 8
CYLINDER_7
 10
-0.7973
 20
-0.1845
 30
1.0834
 70
192
 0
VERTEX
 8
CYLINDER_7
 10
0.7892
 20
-0.1869
 30
1.0823
 70
192
 0
VERTEX
 8
CYLINDER_7
 10
0.7892
 20
-0.1869
 30
1.0823
 70
192
 0
VERTEX
 8
CYLINDER_7
 10
-0.7973
 20
-0.1869
 30
1.0823
 70
192
 0
VERTEX
 8
CYLINDER_7
 10
-0.7973
 20
-0.1869
 30
1.0823
 70
192
 0
VERTEX
 8
CYLINDER_7
 10
0.7892
 20
-0.1894
 30
1.0817
 70
192
 0
VERTEX
 8
CYLINDER_7
 10
0.7892
 20
-0.1894
 30
1.0817
 70
192
 0
VERTEX
 8
CYLINDER_7
 10
-0.7973
 20
-0.1894
 30
1.0817
 70
192
 0
VERTEX
 8
CYLINDER_7
 10
-0.7973
 20
-0.1894
 30
1.0817
 70
192
 0
VERTEX
 8
CYLINDER_7
 10
0.7892
 20
-0.1921
 30
1.0815
 70
192
 0
VERTEX
 8
CYLINDER_7
 10
0.7892
 20
-0.1921
 30
1.0815
 70
192
 0
VERTEX
 8
CYLINDER_7
 10
-0.7973
 20
-0.1921
 30
1.0815
 70
192
 0
VERTEX
 8
CYLINDER_7
 10
-0.7973
 20
-0.1921
 30
1.0815
 70
192
 0
VERTEX
 8
CYLINDER_7
 10
0.7892
 20
-0.1947
 30
1.0818
 70
192
 0
VERTEX
 8
CYLINDER_7
 10
0.7892
 20
-0.1947
 30
1.0818
 70
192
 0
VERTEX
 8
CYLINDER_7
 10
-0.7973
 20
-0.1947
 30
1.0818
 70
192
 0
VERTEX
 8
CYLINDER_7
 10
-0.7973
 20
-0.1947
 30
1.0818
 70
192
 0
VERTEX
 8
CYLINDER_7
 10
0.7892
 20
-0.1972
 30
1.0826
 70
192
 0
VERTEX
 8
CYLINDER_7
 10
0.7892
 20
-0.1972
 30
1.0826
 70
192
 0
VERTEX
 8
CYLINDER_7
 10
-0.7973
 20
-0.1972
 30
1.0826
 70
192
 0
VERTEX
 8
CYLINDER_7
 10
-0.7973
 20
-0.1972
 30
1.0826
 70
192
 0
VERTEX
 8
CYLINDER_7
 10
0.7892
 20
-0.1996
 30
1.0837
 70
192
 0
VERTEX
 8
CYLINDER_7
 10
0.7892
 20
-0.1996
 30
1.0837
 70
192
 0
VERTEX
 8
CYLINDER_7
 10
-0.7973
 20
-0.1996
 30
1.0837
 70
192
 0
VERTEX
 8
CYLINDER_7
 10
-0.7973
 20
-0.1996
 30
1.0837
 70
192
 0
VERTEX
 8
CYLINDER_7
 10
0.7892
 20
-0.2017
 30
1.0853
 70
192
 0
VERTEX
 8
CYLINDER_7
 10
0.7892
 20
-0.2017
 30
1.0853
 70
192
 0
VERTEX
 8
CYLINDER_7
 10
-0.7973
 20
-0.2017
 30
1.0853
 70
192
 0
VERTEX
 8
CYLINDER_7
 10
-0.7973
 20
-0.2017
 30
1.0853
 70
192
 0
VERTEX
 8
CYLINDER_7
 10
0.7892
 20
-0.2036
 30
1.0872
 70
192
 0
VERTEX
 8
CYLINDER_7
 10
0.7892
 20
-0.2036
 30
1.0872
 70
192
 0
VERTEX
 8
CYLINDER_7
 10
-0.7973
 20
-0.2036
 30
1.0872
 70
192
 0
VERTEX
 8
CYLINDER_7
 10
-0.7973
 20
-0.2036
 30
1.0872
 70
192
 0
VERTEX
 8
CYLINDER_7
 10
0.7892
 20
-0.205
 30
1.0894
 70
192
 0
VERTEX
 8
CYLINDER_7
 10
0.7892
 20
-0.205
 30
1.0894
 70
192
 0
VERTEX
 8
CYLINDER_7
 10
-0.7973
 20
-0.205
 30
1.0894
 70
192
 0
VERTEX
 8
CYLINDER_7
 10
-0.7973
 20
-0.205
 30
1.0894
 70
192
 0
VERTEX
 8
CYLINDER_7
 10
0.7892
 20
-0.2061
 30
1.0918
 70
192
 0
VERTEX
 8
CYLINDER_7
 10
0.7892
 20
-0.2061
 30
1.0918
 70
192
 0
VERTEX
 8
CYLINDER_7
 10
-0.7973
 20
-0.2061
 30
1.0918
 70
192
 0
VERTEX
 8
CYLINDER_7
 10
-0.7973
 20
-0.2061
 30
1.0918
 70
192
 0
VERTEX
 8
CYLINDER_7
 10
0.7892
 20
-0.2067
 30
1.0944
 70
192
 0
VERTEX
 8
CYLINDER_7
 10
0.7892
 20
-0.2067
 30
1.0944
 70
192
 0
VERTEX
 8
CYLINDER_7
 10
-0.7973
 20
-0.2067
 30
1.0944
 70
192
 0
VERTEX
 8
CYLINDER_7
 10
-0.7973
 20
-0.2067
 30
1.0944
 70
192
 0
VERTEX
 8
CYLINDER_7
 10
0.7892
 20
-0.2069
 30
1.097
 70
192
 0
VERTEX
 8
CYLINDER_7
 10
0.7892
 20
-0.2069
 30
1.097
 70
192
 0
VERTEX
 8
CYLINDER_7
 10
-0.7973
 20
-0.2069
 30
1.097
 70
192
 0
VERTEX
 8
CYLINDER_7
 10
-0.7973
 20
-0.2069
 30
1.097
 70
192
 0
VERTEX
 8
CYLINDER_7
 10
0.7892
 20
-0.2066
 30
1.0996
 70
192
 0
VERTEX
 8
CYLINDER_7
 10
0.7892
 20
-0.2066
 30
1.0996
 70
192
 0
VERTEX
 8
CYLINDER_7
 10
-0.7973
 20
-0.2066
 30
1.0996
 70
192
 0
VERTEX
 8
CYLINDER_7
 10
-0.7973
 20
-0.2066
 30
1.0996
 70
192
 0
VERTEX
 8
CYLINDER_7
 10
0.7892
 20
-0.2059
 30
1.1022
 70
192
 0
VERTEX
 8
CYLINDER_7
 10
0.7892
 20
-0.2059
 30
1.1022
 70
192
 0
VERTEX
 8
CYLINDER_7
 10
-0.7973
 20
-0.2059
 30
1.1022
 70
192
 0
VERTEX
 8
CYLINDER_7
 10
-0.7973
 20
-0.2059
 30
1.1022
 70
192
 0
VERTEX
 8
CYLINDER_7
 10
0.7892
 20
-0.2047
 30
1.1045
 70
192
 0
VERTEX
 8
CYLINDER_7
 10
0.7892
 20
-0.2047
 30
1.1045
 70
192
 0
VERTEX
 8
CYLINDER_7
 10
-0.7973
 20
-0.2047
 30
1.1045
 70
192
 0
VERTEX
 8
CYLINDER_7
 10
-0.7973
 20
-0.2047
 30
1.1045
 70
192
 0
VERTEX
 8
CYLINDER_7
 10
0.7892
 20
-0.2032
 30
1.1067
 70
192
 0
VERTEX
 8
CYLINDER_7
 10
0.7892
 20
-0.2032
 30
1.1067
 70
192
 0
VERTEX
 8
CYLINDER_7
 10
-0.7973
 20
-0.2032
 30
1.1067
 70
192
 0
VERTEX
 8
CYLINDER_7
 10
-0.7973
 20
-0.2032
 30
1.1067
 70
192
 0
VERTEX
 8
CYLINDER_7
 10
0.7892
 20
-0.2012
 30
1.1085
 70
192
 0
VERTEX
 8
CYLINDER_7
 10
0.7892
 20
-0.2012
 30
1.1085
 70
192
 0
VERTEX
 8
CYLINDER_7
 10
-0.7973
 20
-0.2012
 30
1.1085
 70
192
 0
VERTEX
 8
CYLINDER_7
 10
-0.7973
 20
-0.2012
 30
1.1085
 70
192
 0
VERTEX
 8
CYLINDER_7
 10
0.7892
 20
-0.1991
 30
1.11
 70
192
 0
VERTEX
 8
CYLINDER_7
 10
0.7892
 20
-0.1991
 30
1.11
 70
192
 0
VERTEX
 8
CYLINDER_7
 10
-0.7973
 20
-0.1991
 30
1.11
 70
192
 0
VERTEX
 8
CYLINDER_7
 10
-0.7973
 20
-0.1991
 30
1.11
 70
192
 0
VERTEX
 8
CYLINDER_7
 10
0.7892
 20
-0.1966
 30
1.111
 70
192
 0
VERTEX
 8
CYLINDER_7
 10
0.7892
 20
-0.1966
 30
1.111
 70
192
 0
VERTEX
 8
CYLINDER_7
 10
-0.7973
 20
-0.1966
 30
1.111
 70
192
 0
VERTEX
 8
CYLINDER_7
 10
-0.7973
 20
-0.1966
 30
1.111
 70
192
 0
VERTEX
 8
CYLINDER_7
 10
0.7892
 20
-0.1941
 30
1.1117
 70
192
 0
VERTEX
 8
CYLINDER_7
 10
0.7892
 20
-0.1941
 30
1.1117
 70
192
 0
VERTEX
 8
CYLINDER_7
 10
-0.7973
 20
-0.1941
 30
1.1117
 70
192
 0
VERTEX
 8
CYLINDER_7
 10
-0.7973
 20
-0.1941
 30
1.1117
 70
192
 0
VERTEX
 8
CYLINDER_7
 10
0.7892
 20
-0.1914
 30
1.1118
 70
192
 0
VERTEX
 8
CYLINDER_7
 10
0.7892
 20
-0.1914
 30
1.1118
 70
192
 0
VERTEX
 8
CYLINDER_7
 10
-0.7973
 20
-0.1914
 30
1.1118
 70
192
 0
VERTEX
 8
CYLINDER_7
 10
-0.7973
 20
-0.1914
 30
1.1118
 70
192
 0
VERTEX
 8
CYLINDER_7
 10
0
 20
0
 30
0
 70
128
 71
1
 72
3
 73
7
 74
7
 0
VERTEX
 8
CYLINDER_7
 10
0
 20
0
 30
0
 70
128
 71
4
 72
5
 73
9
 74
8
 0
VERTEX
 8
CYLINDER_7
 10
0
 20
0
 30
0
 70
128
 71
6
 72
2
 73
10
 74
10
 0
VERTEX
 8
CYLINDER_7
 10
0
 20
0
 30
0
 70
128
 71
1
 72
7
 73
11
 74
11
 0
VERTEX
 8
CYLINDER_7
 10
0
 20
0
 30
0
 70
128
 71
8
 72
9
 73
13
 74
12
 0
VERTEX
 8
CYLINDER_7
 10
0
 20
0
 30
0
 70
128
 71
10
 72
2
 73
14
 74
14
 0
VERTEX
 8
CYLINDER_7
 10
0
 20
0
 30
0
 70
128
 71
1
 72
11
 73
15
 74
15
 0
VERTEX
 8
CYLINDER_7
 10
0
 20
0
 30
0
 70
128
 71
12
 72
13
 73
17
 74
16
 0
VERTEX
 8
CYLINDER_7
 10
0
 20
0
 30
0
 70
128
 71
14
 72
2
 73
18
 74
18
 0
VERTEX
 8
CYLINDER_7
 10
0
 20
0
 30
0
 70
128
 71
1
 72
15
 73
19
 74
19
 0
VERTEX
 8
CYLINDER_7
 10
0
 20
0
 30
0
 70
128
 71
16
 72
17
 73
21
 74
20
 0
VERTEX
 8
CYLINDER_7
 10
0
 20
0
 30
0
 70
128
 71
18
 72
2
 73
22
 74
22
 0
VERTEX
 8
CYLINDER_7
 10
0
 20
0
 30
0
 70
128
 71
1
 72
19
 73
23
 74
23
 0
VERTEX
 8
CYLINDER_7
 10
0
 20
0
 30
0
 70
128
 71
20
 72
21
 73
25
 74
24
 0
VERTEX
 8
CYLINDER_7
 10
0
 20
0
 30
0
 70
128
 71
22
 72
2
 73
26
 74
26
 0
VERTEX
 8
CYLINDER_7
 10
0
 20
0
 30
0
 70
128
 71
1
 72
23
 73
27
 74
27
 0
VERTEX
 8
CYLINDER_7
 10
0
 20
0
 30
0
 70
128
 71
24
 72
25
 73
29
 74
28
 0
VERTEX
 8
CYLINDER_7
 10
0
 20
0
 30
0
 70
128
 71
26
 72
2
 73
30
 74
30
 0
VERTEX
 8
CYLINDER_7
 10
0
 20
0
 30
0
 70
128
 71
1
 72
27
 73
31
 74
31
 0
VERTEX
 8
CYLINDER_7
 10
0
 20
0
 30
0
 70
128
 71
28
 72
29
 73
33
 74
32
 0
VERTEX
 8
CYLINDER_7
 10
0
 20
0
 30
0
 70
128
 71
30
 72
2
 73
34
 74
34
 0
VERTEX
 8
CYLINDER_7
 10
0
 20
0
 30
0
 70
128
 71
1
 72
31
 73
35
 74
35
 0
VERTEX
 8
CYLINDER_7
 10
0
 20
0
 30
0
 70
128
 71
32
 72
33
 73
37
 74
36
 0
VERTEX
 8
CYLINDER_7
 10
0
 20
0
 30
0
 70
128
 71
34
 72
2
 73
38
 74
38
 0
VERTEX
 8
CYLINDER_7
 10
0
 20
0
 30
0
 70
128
 71
1
 72
35
 73
39
 74
39
 0
VERTEX
 8
CYLINDER_7
 10
0
 20
0
 30
0
 70
128
 71
36
 72
37
 73
41
 74
40
 0
VERTEX
 8
CYLINDER_7
 10
0
 20
0
 30
0
 70
128
 71
38
 72
2
 73
42
 74
42
 0
VERTEX
 8
CYLINDER_7
 10
0
 20
0
 30
0
 70
128
 71
1
 72
39
 73
43
 74
43
 0
VERTEX
 8
CYLINDER_7
 10
0
 20
0
 30
0
 70
128
 71
40
 72
41
 73
45
 74
44
 0
VERTEX
 8
CYLINDER_7
 10
0
 20
0
 30
0
 70
128
 71
42
 72
2
 73
46
 74
46
 0
VERTEX
 8
CYLINDER_7
 10
0
 20
0
 30
0
 70
128
 71
1
 72
43
 73
47
 74
47
 0
VERTEX
 8
CYLINDER_7
 10
0
 20
0
 30
0
 70
128
 71
44
 72
45
 73
49
 74
48
 0
VERTEX
 8
CYLINDER_7
 10
0
 20
0
 30
0
 70
128
 71
46
 72
2
 73
50
 74
50
 0
VERTEX
 8
CYLINDER_7
 10
0
 20
0
 30
0
 70
128
 71
1
 72
47
 73
51
 74
51
 0
VERTEX
 8
CYLINDER_7
 10
0
 20
0
 30
0
 70
128
 71
48
 72
49
 73
53
 74
52
 0
VERTEX
 8
CYLINDER_7
 10
0
 20
0
 30
0
 70
128
 71
50
 72
2
 73
54
 74
54
 0
VERTEX
 8
CYLINDER_7
 10
0
 20
0
 30
0
 70
128
 71
1
 72
51
 73
55
 74
55
 0
VERTEX
 8
CYLINDER_7
 10
0
 20
0
 30
0
 70
128
 71
52
 72
53
 73
57
 74
56
 0
VERTEX
 8
CYLINDER_7
 10
0
 20
0
 30
0
 70
128
 71
54
 72
2
 73
58
 74
58
 0
VERTEX
 8
CYLINDER_7
 10
0
 20
0
 30
0
 70
128
 71
1
 72
55
 73
59
 74
59
 0
VERTEX
 8
CYLINDER_7
 10
0
 20
0
 30
0
 70
128
 71
56
 72
57
 73
61
 74
60
 0
VERTEX
 8
CYLINDER_7
 10
0
 20
0
 30
0
 70
128
 71
58
 72
2
 73
62
 74
62
 0
VERTEX
 8
CYLINDER_7
 10
0
 20
0
 30
0
 70
128
 71
1
 72
59
 73
63
 74
63
 0
VERTEX
 8
CYLINDER_7
 10
0
 20
0
 30
0
 70
128
 71
60
 72
61
 73
65
 74
64
 0
VERTEX
 8
CYLINDER_7
 10
0
 20
0
 30
0
 70
128
 71
62
 72
2
 73
66
 74
66
 0
VERTEX
 8
CYLINDER_7
 10
0
 20
0
 30
0
 70
128
 71
1
 72
63
 73
67
 74
67
 0
VERTEX
 8
CYLINDER_7
 10
0
 20
0
 30
0
 70
128
 71
64
 72
65
 73
69
 74
68
 0
VERTEX
 8
CYLINDER_7
 10
0
 20
0
 30
0
 70
128
 71
66
 72
2
 73
70
 74
70
 0
VERTEX
 8
CYLINDER_7
 10
0
 20
0
 30
0
 70
128
 71
1
 72
67
 73
71
 74
71
 0
VERTEX
 8
CYLINDER_7
 10
0
 20
0
 30
0
 70
128
 71
68
 72
69
 73
73
 74
72
 0
VERTEX
 8
CYLINDER_7
 10
0
 20
0
 30
0
 70
128
 71
70
 72
2
 73
74
 74
74
 0
VERTEX
 8
CYLINDER_7
 10
0
 20
0
 30
0
 70
128
 71
1
 72
71
 73
75
 74
75
 0
VERTEX
 8
CYLINDER_7
 10
0
 20
0
 30
0
 70
128
 71
72
 72
73
 73
77
 74
76
 0
VERTEX
 8
CYLINDER_7
 10
0
 20
0
 30
0
 70
128
 71
74
 72
2
 73
78
 74
78
 0
VERTEX
 8
CYLINDER_7
 10
0
 20
0
 30
0
 70
128
 71
1
 72
75
 73
79
 74
79
 0
VERTEX
 8
CYLINDER_7
 10
0
 20
0
 30
0
 70
128
 71
76
 72
77
 73
81
 74
80
 0
VERTEX
 8
CYLINDER_7
 10
0
 20
0
 30
0
 70
128
 71
78
 72
2
 73
82
 74
82
 0
VERTEX
 8
CYLINDER_7
 10
0
 20
0
 30
0
 70
128
 71
1
 72
79
 73
83
 74
83
 0
VERTEX
 8
CYLINDER_7
 10
0
 20
0
 30
0
 70
128
 71
80
 72
81
 73
85
 74
84
 0
VERTEX
 8
CYLINDER_7
 10
0
 20
0
 30
0
 70
128
 71
82
 72
2
 73
86
 74
86
 0
VERTEX
 8
CYLINDER_7
 10
0
 20
0
 30
0
 70
128
 71
1
 72
83
 73
87
 74
87
 0
VERTEX
 8
CYLINDER_7
 10
0
 20
0
 30
0
 70
128
 71
84
 72
85
 73
89
 74
88
 0
VERTEX
 8
CYLINDER_7
 10
0
 20
0
 30
0
 70
128
 71
86
 72
2
 73
90
 74
90
 0
VERTEX
 8
CYLINDER_7
 10
0
 20
0
 30
0
 70
128
 71
1
 72
87
 73
91
 74
91
 0
VERTEX
 8
CYLINDER_7
 10
0
 20
0
 30
0
 70
128
 71
88
 72
89
 73
93
 74
92
 0
VERTEX
 8
CYLINDER_7
 10
0
 20
0
 30
0
 70
128
 71
90
 72
2
 73
94
 74
94
 0
VERTEX
 8
CYLINDER_7
 10
0
 20
0
 30
0
 70
128
 71
1
 72
91
 73
95
 74
95
 0
VERTEX
 8
CYLINDER_7
 10
0
 20
0
 30
0
 70
128
 71
92
 72
93
 73
97
 74
96
 0
VERTEX
 8
CYLINDER_7
 10
0
 20
0
 30
0
 70
128
 71
94
 72
2
 73
98
 74
98
 0
VERTEX
 8
CYLINDER_7
 10
0
 20
0
 30
0
 70
128
 71
1
 72
95
 73
99
 74
99
 0
VERTEX
 8
CYLINDER_7
 10
0
 20
0
 30
0
 70
128
 71
96
 72
97
 73
101
 74
100
 0
VERTEX
 8
CYLINDER_7
 10
0
 20
0
 30
0
 70
128
 71
98
 72
2
 73
102
 74
102
 0
VERTEX
 8
CYLINDER_7
 10
0
 20
0
 30
0
 70
128
 71
1
 72
99
 73
103
 74
103
 0
VERTEX
 8
CYLINDER_7
 10
0
 20
0
 30
0
 70
128
 71
100
 72
101
 73
105
 74
104
 0
VERTEX
 8
CYLINDER_7
 10
0
 20
0
 30
0
 70
128
 71
102
 72
2
 73
106
 74
106
 0
VERTEX
 8
CYLINDER_7
 10
0
 20
0
 30
0
 70
128
 71
1
 72
103
 73
107
 74
107
 0
VERTEX
 8
CYLINDER_7
 10
0
 20
0
 30
0
 70
128
 71
104
 72
105
 73
109
 74
108
 0
VERTEX
 8
CYLINDER_7
 10
0
 20
0
 30
0
 70
128
 71
106
 72
2
 73
110
 74
110
 0
VERTEX
 8
CYLINDER_7
 10
0
 20
0
 30
0
 70
128
 71
1
 72
107
 73
111
 74
111
 0
VERTEX
 8
CYLINDER_7
 10
0
 20
0
 30
0
 70
128
 71
108
 72
109
 73
113
 74
112
 0
VERTEX
 8
CYLINDER_7
 10
0
 20
0
 30
0
 70
128
 71
110
 72
2
 73
114
 74
114
 0
VERTEX
 8
CYLINDER_7
 10
0
 20
0
 30
0
 70
128
 71
1
 72
111
 73
115
 74
115
 0
VERTEX
 8
CYLINDER_7
 10
0
 20
0
 30
0
 70
128
 71
112
 72
113
 73
117
 74
116
 0
VERTEX
 8
CYLINDER_7
 10
0
 20
0
 30
0
 70
128
 71
114
 72
2
 73
118
 74
118
 0
VERTEX
 8
CYLINDER_7
 10
0
 20
0
 30
0
 70
128
 71
1
 72
115
 73
119
 74
119
 0
VERTEX
 8
CYLINDER_7
 10
0
 20
0
 30
0
 70
128
 71
116
 72
117
 73
121
 74
120
 0
VERTEX
 8
CYLINDER_7
 10
0
 20
0
 30
0
 70
128
 71
118
 72
2
 73
122
 74
122
 0
VERTEX
 8
CYLINDER_7
 10
0
 20
0
 30
0
 70
128
 71
1
 72
119
 73
123
 74
123
 0
VERTEX
 8
CYLINDER_7
 10
0
 20
0
 30
0
 70
128
 71
120
 72
121
 73
125
 74
124
 0
VERTEX
 8
CYLINDER_7
 10
0
 20
0
 30
0
 70
128
 71
122
 72
2
 73
126
 74
126
 0
VERTEX
 8
CYLINDER_7
 10
0
 20
0
 30
0
 70
128
 71
1
 72
123
 73
127
 74
127
 0
VERTEX
 8
CYLINDER_7
 10
0
 20
0
 30
0
 70
128
 71
124
 72
125
 73
129
 74
128
 0
VERTEX
 8
CYLINDER_7
 10
0
 20
0
 30
0
 70
128
 71
126
 72
2
 73
130
 74
130
 0
VERTEX
 8
CYLINDER_7
 10
0
 20
0
 30
0
 70
128
 71
1
 72
127
 73
131
 74
131
 0
VERTEX
 8
CYLINDER_7
 10
0
 20
0
 30
0
 70
128
 71
128
 72
129
 73
133
 74
132
 0
VERTEX
 8
CYLINDER_7
 10
0
 20
0
 30
0
 70
128
 71
130
 72
2
 73
134
 74
134
 0
VERTEX
 8
CYLINDER_7
 10
0
 20
0
 30
0
 70
128
 71
1
 72
131
 73
135
 74
135
 0
VERTEX
 8
CYLINDER_7
 10
0
 20
0
 30
0
 70
128
 71
132
 72
133
 73
137
 74
136
 0
VERTEX
 8
CYLINDER_7
 10
0
 20
0
 30
0
 70
128
 71
134
 72
2
 73
138
 74
138
 0
VERTEX
 8
CYLINDER_7
 10
0
 20
0
 30
0
 70
128
 71
1
 72
135
 73
139
 74
139
 0
VERTEX
 8
CYLINDER_7
 10
0
 20
0
 30
0
 70
128
 71
136
 72
137
 73
141
 74
140
 0
VERTEX
 8
CYLINDER_7
 10
0
 20
0
 30
0
 70
128
 71
138
 72
2
 73
142
 74
142
 0
VERTEX
 8
CYLINDER_7
 10
0
 20
0
 30
0
 70
128
 71
1
 72
139
 73
143
 74
143
 0
VERTEX
 8
CYLINDER_7
 10
0
 20
0
 30
0
 70
128
 71
140
 72
141
 73
145
 74
144
 0
VERTEX
 8
CYLINDER_7
 10
0
 20
0
 30
0
 70
128
 71
142
 72
2
 73
146
 74
146
 0
VERTEX
 8
CYLINDER_7
 10
0
 20
0
 30
0
 70
128
 71
1
 72
143
 73
3
 74
3
 0
VERTEX
 8
CYLINDER_7
 10
0
 20
0
 30
0
 70
128
 71
144
 72
145
 73
5
 74
4
 0
VERTEX
 8
CYLINDER_7
 10
0
 20
0
 30
0
 70
128
 71
146
 72
2
 73
6
 74
6
 0
SEQEND
 0
POLYLINE
 8
CUBE_9
 66
1
 10
0.0
 20
0.0
 30
0.0
 70
64
 71
8
 72
6
 0
VERTEX
 8
CUBE_9
 10
0.7528
 20
0.1726
 30
-0.5126
 70
192
 0
VERTEX
 8
CUBE_9
 10
-0.8068
 20
0.1726
 30
1.2897
 70
192
 0
VERTEX
 8
CUBE_9
 10
0.768
 20
0.1726
 30
-0.4995
 70
192
 0
VERTEX
 8
CUBE_9
 10
-0.7917
 20
0.1726
 30
1.3027
 70
192
 0
VERTEX
 8
CUBE_9
 10
0.768
 20
0.1826
 30
-0.4995
 70
192
 0
VERTEX
 8
CUBE_9
 10
-0.7917
 20
0.1826
 30
1.3027
 70
192
 0
VERTEX
 8
CUBE_9
 10
0.7528
 20
0.1826
 30
-0.5126
 70
192
 0
VERTEX
 8
CUBE_9
 10
-0.8068
 20
0.1826
 30
1.2897
 70
192
 0
VERTEX
 8
CUBE_9
 10
0
 20
0
 30
0
 70
128
 71
1
 72
2
 73
4
 74
3
 0
VERTEX
 8
CUBE_9
 10
0
 20
0
 30
0
 70
128
 71
3
 72
4
 73
6
 74
5
 0
VERTEX
 8
CUBE_9
 10
0
 20
0
 30
0
 70
128
 71
5
 72
6
 73
8
 74
7
 0
VERTEX
 8
CUBE_9
 10
0
 20
0
 30
0
 70
128
 71
7
 72
8
 73
2
 74
1
 0
VERTEX
 8
CUBE_9
 10
0
 20
0
 30
0
 70
128
 71
2
 72
8
 73
6
 74
4
 0
VERTEX
 8
CUBE_9
 10
0
 20
0
 30
0
 70
128
 71
7
 72
1
 73
3
 74
5
 0
SEQEND
 0
POLYLINE
 8
CUBE_8
 66
1
 10
0.0
 20
0.0
 30
0.0
 70
64
 71
8
 72
6
 0
VERTEX
 8
CUBE_8
 10
-0.7624
 20
0.1726
 30
-0.5279
 70
192
 0
VERTEX
 8
CUBE_8
 10
0.7853
 20
0.1726
 30
1.2846
 70
192
 0
VERTEX
 8
CUBE_8
 10
-0.7472
 20
0.1726
 30
-0.5409
 70
192
 0
VERTEX
 8
CUBE_8
 10
0.8005
 20
0.1726
 30
1.2717
 70
192
 0
VERTEX
 8
CUBE_8
 10
-0.7472
 20
0.1826
 30
-0.5409
 70
192
 0
VERTEX
 8
CUBE_8
 10
0.8005
 20
0.1826
 30
1.2717
 70
192
 0
VERTEX
 8
CUBE_8
 10
-0.7624
 20
0.1826
 30
-0.5279
 70
192
 0
VERTEX
 8
CUBE_8
 10
0.7853
 20
0.1826
 30
1.2846
 70
192
 0
VERTEX
 8
CUBE_8
 10
0
 20
0
 30
0
 70
128
 71
1
 72
2
 73
4
 74
3
 0
VERTEX
 8
CUBE_8
 10
0
 20
0
 30
0
 70
128
 71
3
 72
4
 73
6
 74
5
 0
VERTEX
 8
CUBE_8
 10
0
 20
0
 30
0
 70
128
 71
5
 72
6
 73
8
 74
7
 0
VERTEX
 8
CUBE_8
 10
0
 20
0
 30
0
 70
128
 71
7
 72
8
 73
2
 74
1
 0
VERTEX
 8
CUBE_8
 10
0
 20
0
 30
0
 70
128
 71
2
 72
8
 73
6
 74
4
 0
VERTEX
 8
CUBE_8
 10
0
 20
0
 30
0
 70
128
 71
7
 72
1
 73
3
 74
5
 0
SEQEND
 0
POLYLINE
 8
CUBE
 66
1
 10
0.0
 20
0.0
 30
0.0
 70
64
 71
63
 72
58
 0
VERTEX
 8
CUBE
 10
-0.7723
 20
-0.2904
 30
-0.8639
 70
192
 0
VERTEX
 8
CUBE
 10
-0.7723
 20
-0.2904
 30
-0.697
 70
192
 0
VERTEX
 8
CUBE
 10
-0.2712
 20
-0.2904
 30
-0.8639
 70
192
 0
VERTEX
 8
CUBE
 10
-0.2712
 20
-0.2904
 30
-0.697
 70
192
 0
VERTEX
 8
CUBE
 10
-0.2712
 20
0.1186
 30
-0.8639
 70
192
 0
VERTEX
 8
CUBE
 10
-0.2712
 20
0.1186
 30
-0.697
 70
192
 0
VERTEX
 8
CUBE
 10
-0.7723
 20
0.1186
 30
-0.8639
 70
192
 0
VERTEX
 8
CUBE
 10
-0.7723
 20
0.1186
 30
-0.697
 70
192
 0
VERTEX
 8
CUBE
 10
-0.4764
 20
-0.2904
 30
-0.697
 70
192
 0
VERTEX
 8
CUBE
 10
-0.5911
 20
-0.2904
 30
-0.697
 70
192
 0
VERTEX
 8
CUBE
 10
-0.5882
 20
-0.2904
 30
-0.6982
 70
192
 0
VERTEX
 8
CUBE
 10
-0.59
 20
-0.2904
 30
-0.6974
 70
192
 0
VERTEX
 8
CUBE
 10
-0.5854
 20
-0.2904
 30
-0.7002
 70
192
 0
VERTEX
 8
CUBE
 10
-0.5868
 20
-0.2904
 30
-0.6991
 70
192
 0
VERTEX
 8
CUBE
 10
-0.5826
 20
-0.2904
 30
-0.703
 70
192
 0
VERTEX
 8
CUBE
 10
-0.584
 20
-0.2904
 30
-0.7015
 70
192
 0
VERTEX
 8
CUBE
 10
-0.5813
 20
-0.2904
 30
-0.7048
 70
192
 0
VERTEX
 8
CUBE
 10
-0.5802
 20
-0.2904
 30
-0.707
 70
192
 0
VERTEX
 8
CUBE
 10
-0.5791
 20
-0.2904
 30
-0.7094
 70
192
 0
VERTEX
 8
CUBE
 10
-0.5773
 20
-0.2904
 30
-0.7177
 70
192
 0
VERTEX
 8
CUBE
 10
-0.5778
 20
-0.2904
 30
-0.7143
 70
192
 0
VERTEX
 8
CUBE
 10
-0.577
 20
-0.2904
 30
-0.7177
 70
192
 0
VERTEX
 8
CUBE
 10
-0.5741
 20
-0.2904
 30
-0.7178
 70
192
 0
VERTEX
 8
CUBE
 10
-0.4828
 20
-0.2904
 30
-0.7172
 70
192
 0
VERTEX
 8
CUBE
 10
-0.4823
 20
-0.2904
 30
-0.7172
 70
192
 0
VERTEX
 8
CUBE
 10
-0.5782
 20
-0.2904
 30
-0.7122
 70
192
 0
VERTEX
 8
CUBE
 10
-0.4817
 20
-0.2904
 30
-0.7171
 70
192
 0
VERTEX
 8
CUBE
 10
-0.4817
 20
-0.2904
 30
-0.7169
 70
192
 0
VERTEX
 8
CUBE
 10
-0.4817
 20
-0.2904
 30
-0.7171
 70
192
 0
VERTEX
 8
CUBE
 10
-0.4817
 20
-0.2904
 30
-0.7166
 70
192
 0
VERTEX
 8
CUBE
 10
-0.4815
 20
-0.2904
 30
-0.7078
 70
192
 0
VERTEX
 8
CUBE
 10
-0.4811
 20
-0.2904
 30
-0.7052
 70
192
 0
VERTEX
 8
CUBE
 10
-0.4792
 20
-0.2904
 30
-0.7002
 70
192
 0
VERTEX
 8
CUBE
 10
-0.4798
 20
-0.2904
 30
-0.7014
 70
192
 0
VERTEX
 8
CUBE
 10
-0.4785
 20
-0.2904
 30
-0.6991
 70
192
 0
VERTEX
 8
CUBE
 10
-0.4777
 20
-0.2904
 30
-0.6981
 70
192
 0
VERTEX
 8
CUBE
 10
-0.4767
 20
-0.2904
 30
-0.6971
 70
192
 0
VERTEX
 8
CUBE
 10
-0.4806
 20
-0.2904
 30
-0.7033
 70
192
 0
VERTEX
 8
CUBE
 10
-0.5911
 20
-0.1253
 30
-0.697
 70
192
 0
VERTEX
 8
CUBE
 10
-0.4764
 20
-0.1253
 30
-0.697
 70
192
 0
VERTEX
 8
CUBE
 10
-0.5226
 20
-0.1253
 30
-0.697
 70
192
 0
VERTEX
 8
CUBE
 10
-0.5195
 20
-0.1253
 30
-0.697
 70
192
 0
VERTEX
 8
CUBE
 10
-0.5244
 20
-0.1253
 30
-0.697
 70
192
 0
VERTEX
 8
CUBE
 10
-0.526
 20
-0.1253
 30
-0.697
 70
192
 0
VERTEX
 8
CUBE
 10
-0.5284
 20
-0.1253
 30
-0.697
 70
192
 0
VERTEX
 8
CUBE
 10
-0.5339
 20
-0.1253
 30
-0.697
 70
192
 0
VERTEX
 8
CUBE
 10
-0.5341
 20
-0.1253
 30
-0.697
 70
192
 0
VERTEX
 8
CUBE
 10
-0.5341
 20
-0.1253
 30
-0.697
 70
192
 0
VERTEX
 8
CUBE
 10
-0.5347
 20
-0.1253
 30
-0.697
 70
192
 0
VERTEX
 8
CUBE
 10
-0.5351
 20
-0.1253
 30
-0.697
 70
192
 0
VERTEX
 8
CUBE
 10
-0.5359
 20
-0.1253
 30
-0.697
 70
192
 0
VERTEX
 8
CUBE
 10
-0.5371
 20
-0.1253
 30
-0.697
 70
192
 0
VERTEX
 8
CUBE
 10
-0.5385
 20
-0.1253
 30
-0.697
 70
192
 0
VERTEX
 8
CUBE
 10
-0.5406
 20
-0.1253
 30
-0.697
 70
192
 0
VERTEX
 8
CUBE
 10
-0.5433
 20
-0.1253
 30
-0.697
 70
192
 0
VERTEX
 8
CUBE
 10
-0.5472
 20
-0.1253
 30
-0.697
 70
192
 0
VERTEX
 8
CUBE
 10
-0.5527
 20
-0.1253
 30
-0.697
 70
192
 0
VERTEX
 8
CUBE
 10
-0.5605
 20
-0.1253
 30
-0.697
 70
192
 0
VERTEX
 8
CUBE
 10
-0.5765
 20
-0.1253
 30
-0.697
 70
192
 0
VERTEX
 8
CUBE
 10
-0.4826
 20
-0.1253
 30
-0.697
 70
192
 0
VERTEX
 8
CUBE
 10
-0.5019
 20
-0.1253
 30
-0.697
 70
192
 0
VERTEX
 8
CUBE
 10
-0.5111
 20
-0.1253
 30
-0.697
 70
192
 0
VERTEX
 8
CUBE
 10
-0.5163
 20
-0.1253
 30
-0.697
 70
192
 0
VERTEX
 8
CUBE
 10
0
 20
0
 30
0
 70
128
 71
4
 72
3
 73
29
 74
29
 0
VERTEX
 8
CUBE
 10
0
 20
0
 30
0
 70
128
 71
1
 72
2
 73
10
 74
10
 0
VERTEX
 8
CUBE
 10
0
 20
0
 30
0
 70
128
 71
37
 72
9
 73
4
 74
4
 0
VERTEX
 8
CUBE
 10
0
 20
0
 30
0
 70
128
 71
30
 72
31
 73
32
 74
38
 0
VERTEX
 8
CUBE
 10
0
 20
0
 30
0
 70
128
 71
35
 72
36
 73
4
 74
4
 0
VERTEX
 8
CUBE
 10
0
 20
0
 30
0
 70
128
 71
38
 72
34
 73
33
 74
33
 0
VERTEX
 8
CUBE
 10
0
 20
0
 30
0
 70
128
 71
15
 72
17
 73
18
 74
16
 0
VERTEX
 8
CUBE
 10
0
 20
0
 30
0
 70
128
 71
13
 72
16
 73
1
 74
1
 0
VERTEX
 8
CUBE
 10
0
 20
0
 30
0
 70
128
 71
10
 72
12
 73
1
 74
1
 0
VERTEX
 8
CUBE
 10
0
 20
0
 30
0
 70
128
 71
11
 72
14
 73
1
 74
1
 0
VERTEX
 8
CUBE
 10
0
 20
0
 30
0
 70
128
 71
1
 72
12
 73
11
 74
11
 0
VERTEX
 8
CUBE
 10
0
 20
0
 30
0
 70
128
 71
36
 72
37
 73
4
 74
4
 0
VERTEX
 8
CUBE
 10
0
 20
0
 30
0
 70
128
 71
19
 72
26
 73
21
 74
20
 0
VERTEX
 8
CUBE
 10
0
 20
0
 30
0
 70
128
 71
38
 72
33
 73
4
 74
4
 0
VERTEX
 8
CUBE
 10
0
 20
0
 30
0
 70
128
 71
1
 72
14
 73
13
 74
13
 0
VERTEX
 8
CUBE
 10
0
 20
0
 30
0
 70
128
 71
33
 72
35
 73
4
 74
4
 0
VERTEX
 8
CUBE
 10
0
 20
0
 30
0
 70
128
 71
16
 72
18
 73
19
 74
20
 0
VERTEX
 8
CUBE
 10
0
 20
0
 30
0
 70
128
 71
28
 72
30
 73
4
 74
4
 0
VERTEX
 8
CUBE
 10
0
 20
0
 30
0
 70
128
 71
30
 72
38
 73
4
 74
4
 0
VERTEX
 8
CUBE
 10
0
 20
0
 30
0
 70
128
 71
1
 72
16
 73
20
 74
20
 0
VERTEX
 8
CUBE
 10
0
 20
0
 30
0
 70
128
 71
29
 72
28
 73
4
 74
4
 0
VERTEX
 8
CUBE
 10
0
 20
0
 30
0
 70
128
 71
1
 72
20
 73
22
 74
22
 0
VERTEX
 8
CUBE
 10
0
 20
0
 30
0
 70
128
 71
27
 72
29
 73
3
 74
3
 0
VERTEX
 8
CUBE
 10
0
 20
0
 30
0
 70
128
 71
1
 72
22
 73
23
 74
23
 0
VERTEX
 8
CUBE
 10
0
 20
0
 30
0
 70
128
 71
1
 72
23
 73
24
 74
24
 0
VERTEX
 8
CUBE
 10
0
 20
0
 30
0
 70
128
 71
27
 72
3
 73
25
 74
25
 0
VERTEX
 8
CUBE
 10
0
 20
0
 30
0
 70
128
 71
1
 72
24
 73
25
 74
25
 0
VERTEX
 8
CUBE
 10
0
 20
0
 30
0
 70
128
 71
25
 72
3
 73
1
 74
1
 0
VERTEX
 8
CUBE
 10
0
 20
0
 30
0
 70
128
 71
3
 72
4
 73
6
 74
5
 0
VERTEX
 8
CUBE
 10
0
 20
0
 30
0
 70
128
 71
5
 72
6
 73
8
 74
7
 0
VERTEX
 8
CUBE
 10
0
 20
0
 30
0
 70
128
 71
7
 72
8
 73
2
 74
1
 0
VERTEX
 8
CUBE
 10
0
 20
0
 30
0
 70
128
 71
40
 72
60
 73
8
 74
6
 0
VERTEX
 8
CUBE
 10
0
 20
0
 30
0
 70
128
 71
42
 72
41
 73
8
 74
8
 0
VERTEX
 8
CUBE
 10
0
 20
0
 30
0
 70
128
 71
43
 72
44
 73
8
 74
8
 0
VERTEX
 8
CUBE
 10
0
 20
0
 30
0
 70
128
 71
55
 72
56
 73
8
 74
8
 0
VERTEX
 8
CUBE
 10
0
 20
0
 30
0
 70
128
 71
57
 72
58
 73
8
 74
8
 0
VERTEX
 8
CUBE
 10
0
 20
0
 30
0
 70
128
 71
51
 72
52
 73
8
 74
8
 0
VERTEX
 8
CUBE
 10
0
 20
0
 30
0
 70
128
 71
39
 72
10
 73
2
 74
8
 0
VERTEX
 8
CUBE
 10
0
 20
0
 30
0
 70
128
 71
6
 72
4
 73
9
 74
40
 0
VERTEX
 8
CUBE
 10
0
 20
0
 30
0
 70
128
 71
54
 72
55
 73
8
 74
8
 0
VERTEX
 8
CUBE
 10
0
 20
0
 30
0
 70
128
 71
58
 72
59
 73
8
 74
8
 0
VERTEX
 8
CUBE
 10
0
 20
0
 30
0
 70
128
 71
59
 72
39
 73
8
 74
8
 0
VERTEX
 8
CUBE
 10
0
 20
0
 30
0
 70
128
 71
8
 72
60
 73
61
 74
61
 0
VERTEX
 8
CUBE
 10
0
 20
0
 30
0
 70
128
 71
53
 72
54
 73
8
 74
8
 0
VERTEX
 8
CUBE
 10
0
 20
0
 30
0
 70
128
 71
56
 72
57
 73
8
 74
8
 0
VERTEX
 8
CUBE
 10
0
 20
0
 30
0
 70
128
 71
8
 72
61
 73
62
 74
62
 0
VERTEX
 8
CUBE
 10
0
 20
0
 30
0
 70
128
 71
52
 72
53
 73
8
 74
8
 0
VERTEX
 8
CUBE
 10
0
 20
0
 30
0
 70
128
 71
8
 72
62
 73
63
 74
63
 0
VERTEX
 8
CUBE
 10
0
 20
0
 30
0
 70
128
 71
50
 72
51
 73
8
 74
8
 0
VERTEX
 8
CUBE
 10
0
 20
0
 30
0
 70
128
 71
8
 72
63
 73
42
 74
42
 0
VERTEX
 8
CUBE
 10
0
 20
0
 30
0
 70
128
 71
49
 72
50
 73
8
 74
8
 0
VERTEX
 8
CUBE
 10
0
 20
0
 30
0
 70
128
 71
8
 72
41
 73
43
 74
43
 0
VERTEX
 8
CUBE
 10
0
 20
0
 30
0
 70
128
 71
48
 72
49
 73
8
 74
8
 0
VERTEX
 8
CUBE
 10
0
 20
0
 30
0
 70
128
 71
8
 72
44
 73
45
 74
45
 0
VERTEX
 8
CUBE
 10
0
 20
0
 30
0
 70
128
 71
47
 72
48
 73
8
 74
8
 0
VERTEX
 8
CUBE
 10
0
 20
0
 30
0
 70
128
 71
8
 72
45
 73
46
 74
46
 0
VERTEX
 8
CUBE
 10
0
 20
0
 30
0
 70
128
 71
46
 72
47
 73
8
 74
8
 0
VERTEX
 8
CUBE
 10
0
 20
0
 30
0
 70
128
 71
7
 72
1
 73
3
 74
5
 0
SEQEND
 0
POLYLINE
 8
EXTRUDE_2
 66
1
 10
0.0
 20
0.0
 30
0.0
 70
64
 71
60
 72
29
 0
VERTEX
 8
EXTRUDE_2
 10
-0.59
 20
-0.1253
 30
-0.6974
 70
192
 0
VERTEX
 8
EXTRUDE_2
 10
-0.5882
 20
-0.1253
 30
-0.6982
 70
192
 0
VERTEX
 8
EXTRUDE_2
 10
-0.5868
 20
-0.1253
 30
-0.6991
 70
192
 0
VERTEX
 8
EXTRUDE_2
 10
-0.5854
 20
-0.1253
 30
-0.7002
 70
192
 0
VERTEX
 8
EXTRUDE_2
 10
-0.584
 20
-0.1253
 30
-0.7015
 70
192
 0
VERTEX
 8
EXTRUDE_2
 10
-0.5826
 20
-0.1253
 30
-0.703
 70
192
 0
VERTEX
 8
EXTRUDE_2
 10
-0.5813
 20
-0.1253
 30
-0.7048
 70
192
 0
VERTEX
 8
EXTRUDE_2
 10
-0.5802
 20
-0.1253
 30
-0.707
 70
192
 0
VERTEX
 8
EXTRUDE_2
 10
-0.5791
 20
-0.1253
 30
-0.7094
 70
192
 0
VERTEX
 8
EXTRUDE_2
 10
-0.5782
 20
-0.1253
 30
-0.7122
 70
192
 0
VERTEX
 8
EXTRUDE_2
 10
-0.5778
 20
-0.1253
 30
-0.7143
 70
192
 0
VERTEX
 8
EXTRUDE_2
 10
-0.5773
 20
-0.1253
 30
-0.7177
 70
192
 0
VERTEX
 8
EXTRUDE_2
 10
-0.577
 20
-0.1253
 30
-0.7177
 70
192
 0
VERTEX
 8
EXTRUDE_2
 10
-0.5741
 20
-0.1253
 30
-0.7178
 70
192
 0
VERTEX
 8
EXTRUDE_2
 10
-0.4828
 20
-0.1253
 30
-0.7172
 70
192
 0
VERTEX
 8
EXTRUDE_2
 10
-0.4823
 20
-0.1253
 30
-0.7172
 70
192
 0
VERTEX
 8
EXTRUDE_2
 10
-0.4817
 20
-0.1253
 30
-0.7171
 70
192
 0
VERTEX
 8
EXTRUDE_2
 10
-0.4817
 20
-0.1253
 30
-0.7171
 70
192
 0
VERTEX
 8
EXTRUDE_2
 10
-0.4817
 20
-0.1253
 30
-0.7169
 70
192
 0
VERTEX
 8
EXTRUDE_2
 10
-0.4817
 20
-0.1253
 30
-0.7166
 70
192
 0
VERTEX
 8
EXTRUDE_2
 10
-0.4815
 20
-0.1253
 30
-0.7078
 70
192
 0
VERTEX
 8
EXTRUDE_2
 10
-0.4811
 20
-0.1253
 30
-0.7052
 70
192
 0
VERTEX
 8
EXTRUDE_2
 10
-0.4806
 20
-0.1253
 30
-0.7033
 70
192
 0
VERTEX
 8
EXTRUDE_2
 10
-0.4798
 20
-0.1253
 30
-0.7014
 70
192
 0
VERTEX
 8
EXTRUDE_2
 10
-0.4792
 20
-0.1253
 30
-0.7002
 70
192
 0
VERTEX
 8
EXTRUDE_2
 10
-0.4785
 20
-0.1253
 30
-0.6991
 70
192
 0
VERTEX
 8
EXTRUDE_2
 10
-0.4777
 20
-0.1253
 30
-0.6981
 70
192
 0
VERTEX
 8
EXTRUDE_2
 10
-0.4767
 20
-0.1253
 30
-0.6971
 70
192
 0
VERTEX
 8
EXTRUDE_2
 10
-0.59
 20
-0.2904
 30
-0.6974
 70
192
 0
VERTEX
 8
EXTRUDE_2
 10
-0.5802
 20
-0.2904
 30
-0.707
 70
192
 0
VERTEX
 8
EXTRUDE_2
 10
-0.5882
 20
-0.2904
 30
-0.6982
 70
192
 0
VERTEX
 8
EXTRUDE_2
 10
-0.5868
 20
-0.2904
 30
-0.6991
 70
192
 0
VERTEX
 8
EXTRUDE_2
 10
-0.5854
 20
-0.2904
 30
-0.7002
 70
192
 0
VERTEX
 8
EXTRUDE_2
 10
-0.584
 20
-0.2904
 30
-0.7015
 70
192
 0
VERTEX
 8
EXTRUDE_2
 10
-0.5826
 20
-0.2904
 30
-0.703
 70
192
 0
VERTEX
 8
EXTRUDE_2
 10
-0.5813
 20
-0.2904
 30
-0.7048
 70
192
 0
VERTEX
 8
EXTRUDE_2
 10
-0.577
 20
-0.2904
 30
-0.7177
 70
192
 0
VERTEX
 8
EXTRUDE_2
 10
-0.5791
 20
-0.2904
 30
-0.7094
 70
192
 0
VERTEX
 8
EXTRUDE_2
 10
-0.5782
 20
-0.2904
 30
-0.7122
 70
192
 0
VERTEX
 8
EXTRUDE_2
 10
-0.5778
 20
-0.2904
 30
-0.7143
 70
192
 0
VERTEX
 8
EXTRUDE_2
 10
-0.5773
 20
-0.2904
 30
-0.7177
 70
192
 0
VERTEX
 8
EXTRUDE_2
 10
-0.5741
 20
-0.2904
 30
-0.7178
 70
192
 0
VERTEX
 8
EXTRUDE_2
 10
-0.4815
 20
-0.2904
 30
-0.7078
 70
192
 0
VERTEX
 8
EXTRUDE_2
 10
-0.4828
 20
-0.2904
 30
-0.7172
 70
192
 0
VERTEX
 8
EXTRUDE_2
 10
-0.4823
 20
-0.2904
 30
-0.7172
 70
192
 0
VERTEX
 8
EXTRUDE_2
 10
-0.4817
 20
-0.2904
 30
-0.7171
 70
192
 0
VERTEX
 8
EXTRUDE_2
 10
-0.4817
 20
-0.2904
 30
-0.7171
 70
192
 0
VERTEX
 8
EXTRUDE_2
 10
-0.4817
 20
-0.2904
 30
-0.7169
 70
192
 0
VERTEX
 8
EXTRUDE_2
 10
-0.4817
 20
-0.2904
 30
-0.7166
 70
192
 0
VERTEX
 8
EXTRUDE_2
 10
-0.4785
 20
-0.2904
 30
-0.6991
 70
192
 0
VERTEX
 8
EXTRUDE_2
 10
-0.4811
 20
-0.2904
 30
-0.7052
 70
192
 0
VERTEX
 8
EXTRUDE_2
 10
-0.4806
 20
-0.2904
 30
-0.7033
 70
192
 0
VERTEX
 8
EXTRUDE_2
 10
-0.4798
 20
-0.2904
 30
-0.7014
 70
192
 0
VERTEX
 8
EXTRUDE_2
 10
-0.4792
 20
-0.2904
 30
-0.7002
 70
192
 0
VERTEX
 8
EXTRUDE_2
 10
-0.4777
 20
-0.2904
 30
-0.6981
 70
192
 0
VERTEX
 8
EXTRUDE_2
 10
-0.4764
 20
-0.1253
 30
-0.697
 70
192
 0
VERTEX
 8
EXTRUDE_2
 10
-0.4767
 20
-0.2904
 30
-0.6971
 70
192
 0
VERTEX
 8
EXTRUDE_2
 10
-0.5911
 20
-0.1253
 30
-0.697
 70
192
 0
VERTEX
 8
EXTRUDE_2
 10
-0.5911
 20
-0.2904
 30
-0.697
 70
192
 0
VERTEX
 8
EXTRUDE_2
 10
-0.4764
 20
-0.2904
 30
-0.697
 70
192
 0
VERTEX
 8
EXTRUDE_2
 10
0
 20
0
 30
0
 70
128
 71
1
 72
29
 73
59
 74
58
 0
VERTEX
 8
EXTRUDE_2
 10
0
 20
0
 30
0
 70
128
 71
2
 72
31
 73
29
 74
1
 0
VERTEX
 8
EXTRUDE_2
 10
0
 20
0
 30
0
 70
128
 71
3
 72
32
 73
31
 74
2
 0
VERTEX
 8
EXTRUDE_2
 10
0
 20
0
 30
0
 70
128
 71
4
 72
33
 73
32
 74
3
 0
VERTEX
 8
EXTRUDE_2
 10
0
 20
0
 30
0
 70
128
 71
5
 72
34
 73
33
 74
4
 0
VERTEX
 8
EXTRUDE_2
 10
0
 20
0
 30
0
 70
128
 71
6
 72
35
 73
34
 74
5
 0
VERTEX
 8
EXTRUDE_2
 10
0
 20
0
 30
0
 70
128
 71
7
 72
36
 73
35
 74
6
 0
VERTEX
 8
EXTRUDE_2
 10
0
 20
0
 30
0
 70
128
 71
8
 72
30
 73
36
 74
7
 0
VERTEX
 8
EXTRUDE_2
 10
0
 20
0
 30
0
 70
128
 71
9
 72
38
 73
30
 74
8
 0
VERTEX
 8
EXTRUDE_2
 10
0
 20
0
 30
0
 70
128
 71
10
 72
39
 73
38
 74
9
 0
VERTEX
 8
EXTRUDE_2
 10
0
 20
0
 30
0
 70
128
 71
11
 72
40
 73
39
 74
10
 0
VERTEX
 8
EXTRUDE_2
 10
0
 20
0
 30
0
 70
128
 71
12
 72
41
 73
40
 74
11
 0
VERTEX
 8
EXTRUDE_2
 10
0
 20
0
 30
0
 70
128
 71
13
 72
37
 73
41
 74
12
 0
VERTEX
 8
EXTRUDE_2
 10
0
 20
0
 30
0
 70
128
 71
14
 72
42
 73
37
 74
13
 0
VERTEX
 8
EXTRUDE_2
 10
0
 20
0
 30
0
 70
128
 71
15
 72
44
 73
42
 74
14
 0
VERTEX
 8
EXTRUDE_2
 10
0
 20
0
 30
0
 70
128
 71
16
 72
45
 73
44
 74
15
 0
VERTEX
 8
EXTRUDE_2
 10
0
 20
0
 30
0
 70
128
 71
17
 72
46
 73
45
 74
16
 0
VERTEX
 8
EXTRUDE_2
 10
0
 20
0
 30
0
 70
128
 71
18
 72
47
 73
46
 74
17
 0
VERTEX
 8
EXTRUDE_2
 10
0
 20
0
 30
0
 70
128
 71
19
 72
48
 73
47
 74
18
 0
VERTEX
 8
EXTRUDE_2
 10
0
 20
0
 30
0
 70
128
 71
20
 72
49
 73
48
 74
19
 0
VERTEX
 8
EXTRUDE_2
 10
0
 20
0
 30
0
 70
128
 71
21
 72
43
 73
49
 74
20
 0
VERTEX
 8
EXTRUDE_2
 10
0
 20
0
 30
0
 70
128
 71
22
 72
51
 73
43
 74
21
 0
VERTEX
 8
EXTRUDE_2
 10
0
 20
0
 30
0
 70
128
 71
23
 72
52
 73
51
 74
22
 0
VERTEX
 8
EXTRUDE_2
 10
0
 20
0
 30
0
 70
128
 71
24
 72
53
 73
52
 74
23
 0
VERTEX
 8
EXTRUDE_2
 10
0
 20
0
 30
0
 70
128
 71
25
 72
54
 73
53
 74
24
 0
VERTEX
 8
EXTRUDE_2
 10
0
 20
0
 30
0
 70
128
 71
26
 72
50
 73
54
 74
25
 0
VERTEX
 8
EXTRUDE_2
 10
0
 20
0
 30
0
 70
128
 71
27
 72
55
 73
50
 74
26
 0
VERTEX
 8
EXTRUDE_2
 10
0
 20
0
 30
0
 70
128
 71
28
 72
57
 73
55
 74
27
 0
VERTEX
 8
EXTRUDE_2
 10
0
 20
0
 30
0
 70
128
 71
56
 72
60
 73
57
 74
28
 0
SEQEND
 0
POLYLINE
 8
CAP_2_1
 66
1
 10
0.0
 20
0.0
 30
0.0
 70
64
 71
53
 72
29
 0
VERTEX
 8
CAP_2_1
 10
-0.59
 20
-0.1253
 30
-0.6974
 70
192
 0
VERTEX
 8
CAP_2_1
 10
-0.5882
 20
-0.1253
 30
-0.6982
 70
192
 0
VERTEX
 8
CAP_2_1
 10
-0.5868
 20
-0.1253
 30
-0.6991
 70
192
 0
VERTEX
 8
CAP_2_1
 10
-0.5854
 20
-0.1253
 30
-0.7002
 70
192
 0
VERTEX
 8
CAP_2_1
 10
-0.584
 20
-0.1253
 30
-0.7015
 70
192
 0
VERTEX
 8
CAP_2_1
 10
-0.5826
 20
-0.1253
 30
-0.703
 70
192
 0
VERTEX
 8
CAP_2_1
 10
-0.5813
 20
-0.1253
 30
-0.7048
 70
192
 0
VERTEX
 8
CAP_2_1
 10
-0.5802
 20
-0.1253
 30
-0.707
 70
192
 0
VERTEX
 8
CAP_2_1
 10
-0.5791
 20
-0.1253
 30
-0.7094
 70
192
 0
VERTEX
 8
CAP_2_1
 10
-0.5782
 20
-0.1253
 30
-0.7122
 70
192
 0
VERTEX
 8
CAP_2_1
 10
-0.5778
 20
-0.1253
 30
-0.7143
 70
192
 0
VERTEX
 8
CAP_2_1
 10
-0.5773
 20
-0.1253
 30
-0.7177
 70
192
 0
VERTEX
 8
CAP_2_1
 10
-0.577
 20
-0.1253
 30
-0.7177
 70
192
 0
VERTEX
 8
CAP_2_1
 10
-0.5741
 20
-0.1253
 30
-0.7178
 70
192
 0
VERTEX
 8
CAP_2_1
 10
-0.4828
 20
-0.1253
 30
-0.7172
 70
192
 0
VERTEX
 8
CAP_2_1
 10
-0.4823
 20
-0.1253
 30
-0.7172
 70
192
 0
VERTEX
 8
CAP_2_1
 10
-0.4817
 20
-0.1253
 30
-0.7171
 70
192
 0
VERTEX
 8
CAP_2_1
 10
-0.4817
 20
-0.1253
 30
-0.7171
 70
192
 0
VERTEX
 8
CAP_2_1
 10
-0.4817
 20
-0.1253
 30
-0.7169
 70
192
 0
VERTEX
 8
CAP_2_1
 10
-0.4817
 20
-0.1253
 30
-0.7166
 70
192
 0
VERTEX
 8
CAP_2_1
 10
-0.4815
 20
-0.1253
 30
-0.7078
 70
192
 0
VERTEX
 8
CAP_2_1
 10
-0.4811
 20
-0.1253
 30
-0.7052
 70
192
 0
VERTEX
 8
CAP_2_1
 10
-0.4806
 20
-0.1253
 30
-0.7033
 70
192
 0
VERTEX
 8
CAP_2_1
 10
-0.4798
 20
-0.1253
 30
-0.7014
 70
192
 0
VERTEX
 8
CAP_2_1
 10
-0.4792
 20
-0.1253
 30
-0.7002
 70
192
 0
VERTEX
 8
CAP_2_1
 10
-0.4785
 20
-0.1253
 30
-0.6991
 70
192
 0
VERTEX
 8
CAP_2_1
 10
-0.4777
 20
-0.1253
 30
-0.6981
 70
192
 0
VERTEX
 8
CAP_2_1
 10
-0.4767
 20
-0.1253
 30
-0.6971
 70
192
 0
VERTEX
 8
CAP_2_1
 10
-0.5226
 20
-0.1253
 30
-0.697
 70
192
 0
VERTEX
 8
CAP_2_1
 10
-0.5195
 20
-0.1253
 30
-0.697
 70
192
 0
VERTEX
 8
CAP_2_1
 10
-0.5244
 20
-0.1253
 30
-0.697
 70
192
 0
VERTEX
 8
CAP_2_1
 10
-0.526
 20
-0.1253
 30
-0.697
 70
192
 0
VERTEX
 8
CAP_2_1
 10
-0.5284
 20
-0.1253
 30
-0.697
 70
192
 0
VERTEX
 8
CAP_2_1
 10
-0.5339
 20
-0.1253
 30
-0.697
 70
192
 0
VERTEX
 8
CAP_2_1
 10
-0.5341
 20
-0.1253
 30
-0.697
 70
192
 0
VERTEX
 8
CAP_2_1
 10
-0.5341
 20
-0.1253
 30
-0.697
 70
192
 0
VERTEX
 8
CAP_2_1
 10
-0.5347
 20
-0.1253
 30
-0.697
 70
192
 0
VERTEX
 8
CAP_2_1
 10
-0.5351
 20
-0.1253
 30
-0.697
 70
192
 0
VERTEX
 8
CAP_2_1
 10
-0.5359
 20
-0.1253
 30
-0.697
 70
192
 0
VERTEX
 8
CAP_2_1
 10
-0.5371
 20
-0.1253
 30
-0.697
 70
192
 0
VERTEX
 8
CAP_2_1
 10
-0.5385
 20
-0.1253
 30
-0.697
 70
192
 0
VERTEX
 8
CAP_2_1
 10
-0.5406
 20
-0.1253
 30
-0.697
 70
192
 0
VERTEX
 8
CAP_2_1
 10
-0.5433
 20
-0.1253
 30
-0.697
 70
192
 0
VERTEX
 8
CAP_2_1
 10
-0.5472
 20
-0.1253
 30
-0.697
 70
192
 0
VERTEX
 8
CAP_2_1
 10
-0.5527
 20
-0.1253
 30
-0.697
 70
192
 0
VERTEX
 8
CAP_2_1
 10
-0.5605
 20
-0.1253
 30
-0.697
 70
192
 0
VERTEX
 8
CAP_2_1
 10
-0.5765
 20
-0.1253
 30
-0.697
 70
192
 0
VERTEX
 8
CAP_2_1
 10
-0.5911
 20
-0.1253
 30
-0.697
 70
192
 0
VERTEX
 8
CAP_2_1
 10
-0.4826
 20
-0.1253
 30
-0.697
 70
192
 0
VERTEX
 8
CAP_2_1
 10
-0.4764
 20
-0.1253
 30
-0.697
 70
192
 0
VERTEX
 8
CAP_2_1
 10
-0.5019
 20
-0.1253
 30
-0.697
 70
192
 0
VERTEX
 8
CAP_2_1
 10
-0.5111
 20
-0.1253
 30
-0.697
 70
192
 0
VERTEX
 8
CAP_2_1
 10
-0.5163
 20
-0.1253
 30
-0.697
 70
192
 0
VERTEX
 8
CAP_2_1
 10
0
 20
0
 30
0
 70
128
 71
19
 72
18
 73
17
 74
17
 0
VERTEX
 8
CAP_2_1
 10
0
 20
0
 30
0
 70
128
 71
19
 72
17
 73
20
 74
20
 0
VERTEX
 8
CAP_2_1
 10
0
 20
0
 30
0
 70
128
 71
20
 72
17
 73
16
 74
16
 0
VERTEX
 8
CAP_2_1
 10
0
 20
0
 30
0
 70
128
 71
15
 72
20
 73
16
 74
16
 0
VERTEX
 8
CAP_2_1
 10
0
 20
0
 30
0
 70
128
 71
21
 72
20
 73
15
 74
15
 0
VERTEX
 8
CAP_2_1
 10
0
 20
0
 30
0
 70
128
 71
23
 72
29
 73
30
 74
24
 0
VERTEX
 8
CAP_2_1
 10
0
 20
0
 30
0
 70
128
 71
22
 72
31
 73
29
 74
23
 0
VERTEX
 8
CAP_2_1
 10
0
 20
0
 30
0
 70
128
 71
22
 72
21
 73
32
 74
31
 0
VERTEX
 8
CAP_2_1
 10
0
 20
0
 30
0
 70
128
 71
21
 72
15
 73
33
 74
32
 0
VERTEX
 8
CAP_2_1
 10
0
 20
0
 30
0
 70
128
 71
34
 72
33
 73
15
 74
14
 0
VERTEX
 8
CAP_2_1
 10
0
 20
0
 30
0
 70
128
 71
14
 72
13
 73
35
 74
34
 0
VERTEX
 8
CAP_2_1
 10
0
 20
0
 30
0
 70
128
 71
13
 72
12
 73
36
 74
35
 0
VERTEX
 8
CAP_2_1
 10
0
 20
0
 30
0
 70
128
 71
11
 72
37
 73
36
 74
12
 0
VERTEX
 8
CAP_2_1
 10
0
 20
0
 30
0
 70
128
 71
10
 72
38
 73
37
 74
11
 0
VERTEX
 8
CAP_2_1
 10
0
 20
0
 30
0
 70
128
 71
9
 72
39
 73
38
 74
10
 0
VERTEX
 8
CAP_2_1
 10
0
 20
0
 30
0
 70
128
 71
9
 72
8
 73
40
 74
39
 0
VERTEX
 8
CAP_2_1
 10
0
 20
0
 30
0
 70
128
 71
8
 72
7
 73
41
 74
40
 0
VERTEX
 8
CAP_2_1
 10
0
 20
0
 30
0
 70
128
 71
7
 72
6
 73
42
 74
41
 0
VERTEX
 8
CAP_2_1
 10
0
 20
0
 30
0
 70
128
 71
6
 72
5
 73
43
 74
42
 0
VERTEX
 8
CAP_2_1
 10
0
 20
0
 30
0
 70
128
 71
5
 72
4
 73
44
 74
43
 0
VERTEX
 8
CAP_2_1
 10
0
 20
0
 30
0
 70
128
 71
4
 72
3
 73
45
 74
44
 0
VERTEX
 8
CAP_2_1
 10
0
 20
0
 30
0
 70
128
 71
3
 72
2
 73
46
 74
45
 0
VERTEX
 8
CAP_2_1
 10
0
 20
0
 30
0
 70
128
 71
2
 72
1
 73
47
 74
46
 0
VERTEX
 8
CAP_2_1
 10
0
 20
0
 30
0
 70
128
 71
1
 72
48
 73
47
 74
47
 0
VERTEX
 8
CAP_2_1
 10
0
 20
0
 30
0
 70
128
 71
28
 72
49
 73
50
 74
50
 0
VERTEX
 8
CAP_2_1
 10
0
 20
0
 30
0
 70
128
 71
27
 72
51
 73
49
 74
28
 0
VERTEX
 8
CAP_2_1
 10
0
 20
0
 30
0
 70
128
 71
26
 72
52
 73
51
 74
27
 0
VERTEX
 8
CAP_2_1
 10
0
 20
0
 30
0
 70
128
 71
25
 72
53
 73
52
 74
26
 0
VERTEX
 8
CAP_2_1
 10
0
 20
0
 30
0
 70
128
 71
24
 72
30
 73
53
 74
25
 0
SEQEND
 0
POLYLINE
 8
CUBE_1
 66
1
 10
0.0
 20
0.0
 30
0.0
 70
64
 71
63
 72
58
 0
VERTEX
 8
CUBE_1
 10
-0.7723
 20
-0.2904
 30
-1.0733
 70
192
 0
VERTEX
 8
CUBE_1
 10
-0.7723
 20
-0.2904
 30
-0.9063
 70
192
 0
VERTEX
 8
CUBE_1
 10
-0.2712
 20
-0.2904
 30
-1.0733
 70
192
 0
VERTEX
 8
CUBE_1
 10
-0.2712
 20
-0.2904
 30
-0.9063
 70
192
 0
VERTEX
 8
CUBE_1
 10
-0.2712
 20
0.1186
 30
-1.0733
 70
192
 0
VERTEX
 8
CUBE_1
 10
-0.2712
 20
0.1186
 30
-0.9063
 70
192
 0
VERTEX
 8
CUBE_1
 10
-0.7723
 20
0.1186
 30
-1.0733
 70
192
 0
VERTEX
 8
CUBE_1
 10
-0.7723
 20
0.1186
 30
-0.9063
 70
192
 0
VERTEX
 8
CUBE_1
 10
-0.4764
 20
-0.2904
 30
-0.9063
 70
192
 0
VERTEX
 8
CUBE_1
 10
-0.5911
 20
-0.2904
 30
-0.9063
 70
192
 0
VERTEX
 8
CUBE_1
 10
-0.59
 20
-0.2904
 30
-0.9067
 70
192
 0
VERTEX
 8
CUBE_1
 10
-0.5882
 20
-0.2904
 30
-0.9076
 70
192
 0
VERTEX
 8
CUBE_1
 10
-0.5868
 20
-0.2904
 30
-0.9084
 70
192
 0
VERTEX
 8
CUBE_1
 10
-0.5854
 20
-0.2904
 30
-0.9095
 70
192
 0
VERTEX
 8
CUBE_1
 10
-0.5826
 20
-0.2904
 30
-0.9124
 70
192
 0
VERTEX
 8
CUBE_1
 10
-0.584
 20
-0.2904
 30
-0.9108
 70
192
 0
VERTEX
 8
CUBE_1
 10
-0.5813
 20
-0.2904
 30
-0.9142
 70
192
 0
VERTEX
 8
CUBE_1
 10
-0.5802
 20
-0.2904
 30
-0.9163
 70
192
 0
VERTEX
 8
CUBE_1
 10
-0.5791
 20
-0.2904
 30
-0.9188
 70
192
 0
VERTEX
 8
CUBE_1
 10
-0.5778
 20
-0.2904
 30
-0.9236
 70
192
 0
VERTEX
 8
CUBE_1
 10
-0.5773
 20
-0.2904
 30
-0.927
 70
192
 0
VERTEX
 8
CUBE_1
 10
-0.577
 20
-0.2904
 30
-0.9271
 70
192
 0
VERTEX
 8
CUBE_1
 10
-0.5741
 20
-0.2904
 30
-0.9272
 70
192
 0
VERTEX
 8
CUBE_1
 10
-0.4828
 20
-0.2904
 30
-0.9266
 70
192
 0
VERTEX
 8
CUBE_1
 10
-0.4823
 20
-0.2904
 30
-0.9266
 70
192
 0
VERTEX
 8
CUBE_1
 10
-0.5782
 20
-0.2904
 30
-0.9215
 70
192
 0
VERTEX
 8
CUBE_1
 10
-0.4817
 20
-0.2904
 30
-0.9265
 70
192
 0
VERTEX
 8
CUBE_1
 10
-0.4817
 20
-0.2904
 30
-0.9263
 70
192
 0
VERTEX
 8
CUBE_1
 10
-0.4817
 20
-0.2904
 30
-0.9264
 70
192
 0
VERTEX
 8
CUBE_1
 10
-0.4817
 20
-0.2904
 30
-0.9259
 70
192
 0
VERTEX
 8
CUBE_1
 10
-0.4815
 20
-0.2904
 30
-0.9172
 70
192
 0
VERTEX
 8
CUBE_1
 10
-0.4811
 20
-0.2904
 30
-0.9146
 70
192
 0
VERTEX
 8
CUBE_1
 10
-0.4798
 20
-0.2904
 30
-0.9107
 70
192
 0
VERTEX
 8
CUBE_1
 10
-0.4792
 20
-0.2904
 30
-0.9096
 70
192
 0
VERTEX
 8
CUBE_1
 10
-0.4785
 20
-0.2904
 30
-0.9084
 70
192
 0
VERTEX
 8
CUBE_1
 10
-0.4777
 20
-0.2904
 30
-0.9074
 70
192
 0
VERTEX
 8
CUBE_1
 10
-0.4767
 20
-0.2904
 30
-0.9065
 70
192
 0
VERTEX
 8
CUBE_1
 10
-0.4806
 20
-0.2904
 30
-0.9126
 70
192
 0
VERTEX
 8
CUBE_1
 10
-0.5911
 20
-0.1453
 30
-0.9063
 70
192
 0
VERTEX
 8
CUBE_1
 10
-0.4764
 20
-0.1453
 30
-0.9063
 70
192
 0
VERTEX
 8
CUBE_1
 10
-0.5226
 20
-0.1453
 30
-0.9063
 70
192
 0
VERTEX
 8
CUBE_1
 10
-0.5195
 20
-0.1453
 30
-0.9063
 70
192
 0
VERTEX
 8
CUBE_1
 10
-0.5244
 20
-0.1453
 30
-0.9063
 70
192
 0
VERTEX
 8
CUBE_1
 10
-0.526
 20
-0.1453
 30
-0.9063
 70
192
 0
VERTEX
 8
CUBE_1
 10
-0.5284
 20
-0.1453
 30
-0.9063
 70
192
 0
VERTEX
 8
CUBE_1
 10
-0.5339
 20
-0.1453
 30
-0.9063
 70
192
 0
VERTEX
 8
CUBE_1
 10
-0.5341
 20
-0.1453
 30
-0.9063
 70
192
 0
VERTEX
 8
CUBE_1
 10
-0.5341
 20
-0.1453
 30
-0.9063
 70
192
 0
VERTEX
 8
CUBE_1
 10
-0.5347
 20
-0.1453
 30
-0.9063
 70
192
 0
VERTEX
 8
CUBE_1
 10
-0.5351
 20
-0.1453
 30
-0.9063
 70
192
 0
VERTEX
 8
CUBE_1
 10
-0.5359
 20
-0.1453
 30
-0.9063
 70
192
 0
VERTEX
 8
CUBE_1
 10
-0.5371
 20
-0.1453
 30
-0.9063
 70
192
 0
VERTEX
 8
CUBE_1
 10
-0.5385
 20
-0.1453
 30
-0.9063
 70
192
 0
VERTEX
 8
CUBE_1
 10
-0.5406
 20
-0.1453
 30
-0.9063
 70
192
 0
VERTEX
 8
CUBE_1
 10
-0.5433
 20
-0.1453
 30
-0.9063
 70
192
 0
VERTEX
 8
CUBE_1
 10
-0.5472
 20
-0.1453
 30
-0.9063
 70
192
 0
VERTEX
 8
CUBE_1
 10
-0.5527
 20
-0.1453
 30
-0.9063
 70
192
 0
VERTEX
 8
CUBE_1
 10
-0.5605
 20
-0.1453
 30
-0.9063
 70
192
 0
VERTEX
 8
CUBE_1
 10
-0.5765
 20
-0.1453
 30
-0.9063
 70
192
 0
VERTEX
 8
CUBE_1
 10
-0.4826
 20
-0.1453
 30
-0.9063
 70
192
 0
VERTEX
 8
CUBE_1
 10
-0.5019
 20
-0.1453
 30
-0.9063
 70
192
 0
VERTEX
 8
CUBE_1
 10
-0.5111
 20
-0.1453
 30
-0.9063
 70
192
 0
VERTEX
 8
CUBE_1
 10
-0.5163
 20
-0.1453
 30
-0.9063
 70
192
 0
VERTEX
 8
CUBE_1
 10
0
 20
0
 30
0
 70
128
 71
4
 72
3
 73
29
 74
29
 0
VERTEX
 8
CUBE_1
 10
0
 20
0
 30
0
 70
128
 71
1
 72
2
 73
10
 74
10
 0
VERTEX
 8
CUBE_1
 10
0
 20
0
 30
0
 70
128
 71
37
 72
9
 73
4
 74
4
 0
VERTEX
 8
CUBE_1
 10
0
 20
0
 30
0
 70
128
 71
30
 72
31
 73
32
 74
38
 0
VERTEX
 8
CUBE_1
 10
0
 20
0
 30
0
 70
128
 71
35
 72
36
 73
4
 74
4
 0
VERTEX
 8
CUBE_1
 10
0
 20
0
 30
0
 70
128
 71
38
 72
33
 73
34
 74
34
 0
VERTEX
 8
CUBE_1
 10
0
 20
0
 30
0
 70
128
 71
15
 72
17
 73
18
 74
16
 0
VERTEX
 8
CUBE_1
 10
0
 20
0
 30
0
 70
128
 71
14
 72
16
 73
1
 74
1
 0
VERTEX
 8
CUBE_1
 10
0
 20
0
 30
0
 70
128
 71
10
 72
11
 73
1
 74
1
 0
VERTEX
 8
CUBE_1
 10
0
 20
0
 30
0
 70
128
 71
12
 72
13
 73
1
 74
1
 0
VERTEX
 8
CUBE_1
 10
0
 20
0
 30
0
 70
128
 71
1
 72
11
 73
12
 74
12
 0
VERTEX
 8
CUBE_1
 10
0
 20
0
 30
0
 70
128
 71
36
 72
37
 73
4
 74
4
 0
VERTEX
 8
CUBE_1
 10
0
 20
0
 30
0
 70
128
 71
19
 72
26
 73
20
 74
21
 0
VERTEX
 8
CUBE_1
 10
0
 20
0
 30
0
 70
128
 71
38
 72
34
 73
4
 74
4
 0
VERTEX
 8
CUBE_1
 10
0
 20
0
 30
0
 70
128
 71
1
 72
13
 73
14
 74
14
 0
VERTEX
 8
CUBE_1
 10
0
 20
0
 30
0
 70
128
 71
34
 72
35
 73
4
 74
4
 0
VERTEX
 8
CUBE_1
 10
0
 20
0
 30
0
 70
128
 71
16
 72
18
 73
19
 74
21
 0
VERTEX
 8
CUBE_1
 10
0
 20
0
 30
0
 70
128
 71
28
 72
30
 73
4
 74
4
 0
VERTEX
 8
CUBE_1
 10
0
 20
0
 30
0
 70
128
 71
30
 72
38
 73
4
 74
4
 0
VERTEX
 8
CUBE_1
 10
0
 20
0
 30
0
 70
128
 71
1
 72
16
 73
21
 74
21
 0
VERTEX
 8
CUBE_1
 10
0
 20
0
 30
0
 70
128
 71
29
 72
28
 73
4
 74
4
 0
VERTEX
 8
CUBE_1
 10
0
 20
0
 30
0
 70
128
 71
1
 72
21
 73
22
 74
22
 0
VERTEX
 8
CUBE_1
 10
0
 20
0
 30
0
 70
128
 71
27
 72
29
 73
3
 74
3
 0
VERTEX
 8
CUBE_1
 10
0
 20
0
 30
0
 70
128
 71
1
 72
22
 73
23
 74
23
 0
VERTEX
 8
CUBE_1
 10
0
 20
0
 30
0
 70
128
 71
1
 72
23
 73
24
 74
24
 0
VERTEX
 8
CUBE_1
 10
0
 20
0
 30
0
 70
128
 71
27
 72
3
 73
25
 74
25
 0
VERTEX
 8
CUBE_1
 10
0
 20
0
 30
0
 70
128
 71
1
 72
24
 73
25
 74
25
 0
VERTEX
 8
CUBE_1
 10
0
 20
0
 30
0
 70
128
 71
25
 72
3
 73
1
 74
1
 0
VERTEX
 8
CUBE_1
 10
0
 20
0
 30
0
 70
128
 71
3
 72
4
 73
6
 74
5
 0
VERTEX
 8
CUBE_1
 10
0
 20
0
 30
0
 70
128
 71
5
 72
6
 73
8
 74
7
 0
VERTEX
 8
CUBE_1
 10
0
 20
0
 30
0
 70
128
 71
7
 72
8
 73
2
 74
1
 0
VERTEX
 8
CUBE_1
 10
0
 20
0
 30
0
 70
128
 71
10
 72
2
 73
8
 74
39
 0
VERTEX
 8
CUBE_1
 10
0
 20
0
 30
0
 70
128
 71
47
 72
48
 73
8
 74
8
 0
VERTEX
 8
CUBE_1
 10
0
 20
0
 30
0
 70
128
 71
56
 72
57
 73
8
 74
8
 0
VERTEX
 8
CUBE_1
 10
0
 20
0
 30
0
 70
128
 71
43
 72
44
 73
45
 74
45
 0
VERTEX
 8
CUBE_1
 10
0
 20
0
 30
0
 70
128
 71
6
 72
4
 73
9
 74
40
 0
VERTEX
 8
CUBE_1
 10
0
 20
0
 30
0
 70
128
 71
46
 72
47
 73
8
 74
8
 0
VERTEX
 8
CUBE_1
 10
0
 20
0
 30
0
 70
128
 71
55
 72
56
 73
8
 74
8
 0
VERTEX
 8
CUBE_1
 10
0
 20
0
 30
0
 70
128
 71
59
 72
39
 73
8
 74
8
 0
VERTEX
 8
CUBE_1
 10
0
 20
0
 30
0
 70
128
 71
8
 72
6
 73
40
 74
60
 0
VERTEX
 8
CUBE_1
 10
0
 20
0
 30
0
 70
128
 71
58
 72
59
 73
8
 74
8
 0
VERTEX
 8
CUBE_1
 10
0
 20
0
 30
0
 70
128
 71
8
 72
60
 73
61
 74
61
 0
VERTEX
 8
CUBE_1
 10
0
 20
0
 30
0
 70
128
 71
8
 72
61
 73
62
 74
62
 0
VERTEX
 8
CUBE_1
 10
0
 20
0
 30
0
 70
128
 71
8
 72
62
 73
63
 74
63
 0
VERTEX
 8
CUBE_1
 10
0
 20
0
 30
0
 70
128
 71
8
 72
63
 73
42
 74
42
 0
VERTEX
 8
CUBE_1
 10
0
 20
0
 30
0
 70
128
 71
8
 72
42
 73
41
 74
41
 0
VERTEX
 8
CUBE_1
 10
0
 20
0
 30
0
 70
128
 71
8
 72
41
 73
43
 74
43
 0
VERTEX
 8
CUBE_1
 10
0
 20
0
 30
0
 70
128
 71
8
 72
43
 73
45
 74
45
 0
VERTEX
 8
CUBE_1
 10
0
 20
0
 30
0
 70
128
 71
8
 72
45
 73
46
 74
46
 0
VERTEX
 8
CUBE_1
 10
0
 20
0
 30
0
 70
128
 71
57
 72
58
 73
8
 74
8
 0
VERTEX
 8
CUBE_1
 10
0
 20
0
 30
0
 70
128
 71
54
 72
55
 73
8
 74
8
 0
VERTEX
 8
CUBE_1
 10
0
 20
0
 30
0
 70
128
 71
53
 72
54
 73
8
 74
8
 0
VERTEX
 8
CUBE_1
 10
0
 20
0
 30
0
 70
128
 71
52
 72
53
 73
8
 74
8
 0
VERTEX
 8
CUBE_1
 10
0
 20
0
 30
0
 70
128
 71
51
 72
52
 73
8
 74
8
 0
VERTEX
 8
CUBE_1
 10
0
 20
0
 30
0
 70
128
 71
50
 72
51
 73
8
 74
8
 0
VERTEX
 8
CUBE_1
 10
0
 20
0
 30
0
 70
128
 71
49
 72
50
 73
8
 74
8
 0
VERTEX
 8
CUBE_1
 10
0
 20
0
 30
0
 70
128
 71
48
 72
49
 73
8
 74
8
 0
VERTEX
 8
CUBE_1
 10
0
 20
0
 30
0
 70
128
 71
7
 72
1
 73
3
 74
5
 0
SEQEND
 0
POLYLINE
 8
EXTRUDE_3
 66
1
 10
0.0
 20
0.0
 30
0.0
 70
64
 71
60
 72
29
 0
VERTEX
 8
EXTRUDE_3
 10
-0.59
 20
-0.1453
 30
-0.9067
 70
192
 0
VERTEX
 8
EXTRUDE_3
 10
-0.5882
 20
-0.1453
 30
-0.9076
 70
192
 0
VERTEX
 8
EXTRUDE_3
 10
-0.5868
 20
-0.1453
 30
-0.9084
 70
192
 0
VERTEX
 8
EXTRUDE_3
 10
-0.5854
 20
-0.1453
 30
-0.9095
 70
192
 0
VERTEX
 8
EXTRUDE_3
 10
-0.584
 20
-0.1453
 30
-0.9108
 70
192
 0
VERTEX
 8
EXTRUDE_3
 10
-0.5826
 20
-0.1453
 30
-0.9124
 70
192
 0
VERTEX
 8
EXTRUDE_3
 10
-0.5813
 20
-0.1453
 30
-0.9142
 70
192
 0
VERTEX
 8
EXTRUDE_3
 10
-0.5802
 20
-0.1453
 30
-0.9163
 70
192
 0
VERTEX
 8
EXTRUDE_3
 10
-0.5791
 20
-0.1453
 30
-0.9188
 70
192
 0
VERTEX
 8
EXTRUDE_3
 10
-0.5782
 20
-0.1453
 30
-0.9215
 70
192
 0
VERTEX
 8
EXTRUDE_3
 10
-0.5778
 20
-0.1453
 30
-0.9236
 70
192
 0
VERTEX
 8
EXTRUDE_3
 10
-0.5773
 20
-0.1453
 30
-0.927
 70
192
 0
VERTEX
 8
EXTRUDE_3
 10
-0.577
 20
-0.1453
 30
-0.9271
 70
192
 0
VERTEX
 8
EXTRUDE_3
 10
-0.5741
 20
-0.1453
 30
-0.9272
 70
192
 0
VERTEX
 8
EXTRUDE_3
 10
-0.4828
 20
-0.1453
 30
-0.9266
 70
192
 0
VERTEX
 8
EXTRUDE_3
 10
-0.4823
 20
-0.1453
 30
-0.9266
 70
192
 0
VERTEX
 8
EXTRUDE_3
 10
-0.4817
 20
-0.1453
 30
-0.9265
 70
192
 0
VERTEX
 8
EXTRUDE_3
 10
-0.4817
 20
-0.1453
 30
-0.9264
 70
192
 0
VERTEX
 8
EXTRUDE_3
 10
-0.4817
 20
-0.1453
 30
-0.9263
 70
192
 0
VERTEX
 8
EXTRUDE_3
 10
-0.4817
 20
-0.1453
 30
-0.9259
 70
192
 0
VERTEX
 8
EXTRUDE_3
 10
-0.4815
 20
-0.1453
 30
-0.9172
 70
192
 0
VERTEX
 8
EXTRUDE_3
 10
-0.4811
 20
-0.1453
 30
-0.9146
 70
192
 0
VERTEX
 8
EXTRUDE_3
 10
-0.4806
 20
-0.1453
 30
-0.9126
 70
192
 0
VERTEX
 8
EXTRUDE_3
 10
-0.4798
 20
-0.1453
 30
-0.9107
 70
192
 0
VERTEX
 8
EXTRUDE_3
 10
-0.4792
 20
-0.1453
 30
-0.9096
 70
192
 0
VERTEX
 8
EXTRUDE_3
 10
-0.4785
 20
-0.1453
 30
-0.9084
 70
192
 0
VERTEX
 8
EXTRUDE_3
 10
-0.4777
 20
-0.1453
 30
-0.9074
 70
192
 0
VERTEX
 8
EXTRUDE_3
 10
-0.4767
 20
-0.1453
 30
-0.9065
 70
192
 0
VERTEX
 8
EXTRUDE_3
 10
-0.59
 20
-0.2904
 30
-0.9067
 70
192
 0
VERTEX
 8
EXTRUDE_3
 10
-0.5802
 20
-0.2904
 30
-0.9163
 70
192
 0
VERTEX
 8
EXTRUDE_3
 10
-0.5882
 20
-0.2904
 30
-0.9076
 70
192
 0
VERTEX
 8
EXTRUDE_3
 10
-0.5868
 20
-0.2904
 30
-0.9084
 70
192
 0
VERTEX
 8
EXTRUDE_3
 10
-0.5854
 20
-0.2904
 30
-0.9095
 70
192
 0
VERTEX
 8
EXTRUDE_3
 10
-0.584
 20
-0.2904
 30
-0.9108
 70
192
 0
VERTEX
 8
EXTRUDE_3
 10
-0.5826
 20
-0.2904
 30
-0.9124
 70
192
 0
VERTEX
 8
EXTRUDE_3
 10
-0.5813
 20
-0.2904
 30
-0.9142
 70
192
 0
VERTEX
 8
EXTRUDE_3
 10
-0.577
 20
-0.2904
 30
-0.9271
 70
192
 0
VERTEX
 8
EXTRUDE_3
 10
-0.5791
 20
-0.2904
 30
-0.9188
 70
192
 0
VERTEX
 8
EXTRUDE_3
 10
-0.5782
 20
-0.2904
 30
-0.9215
 70
192
 0
VERTEX
 8
EXTRUDE_3
 10
-0.5778
 20
-0.2904
 30
-0.9236
 70
192
 0
VERTEX
 8
EXTRUDE_3
 10
-0.5773
 20
-0.2904
 30
-0.927
 70
192
 0
VERTEX
 8
EXTRUDE_3
 10
-0.5741
 20
-0.2904
 30
-0.9272
 70
192
 0
VERTEX
 8
EXTRUDE_3
 10
-0.4815
 20
-0.2904
 30
-0.9172
 70
192
 0
VERTEX
 8
EXTRUDE_3
 10
-0.4828
 20
-0.2904
 30
-0.9266
 70
192
 0
VERTEX
 8
EXTRUDE_3
 10
-0.4823
 20
-0.2904
 30
-0.9266
 70
192
 0
VERTEX
 8
EXTRUDE_3
 10
-0.4817
 20
-0.2904
 30
-0.9265
 70
192
 0
VERTEX
 8
EXTRUDE_3
 10
-0.4817
 20
-0.2904
 30
-0.9264
 70
192
 0
VERTEX
 8
EXTRUDE_3
 10
-0.4817
 20
-0.2904
 30
-0.9263
 70
192
 0
VERTEX
 8
EXTRUDE_3
 10
-0.4817
 20
-0.2904
 30
-0.9259
 70
192
 0
VERTEX
 8
EXTRUDE_3
 10
-0.4785
 20
-0.2904
 30
-0.9084
 70
192
 0
VERTEX
 8
EXTRUDE_3
 10
-0.4811
 20
-0.2904
 30
-0.9146
 70
192
 0
VERTEX
 8
EXTRUDE_3
 10
-0.4806
 20
-0.2904
 30
-0.9126
 70
192
 0
VERTEX
 8
EXTRUDE_3
 10
-0.4798
 20
-0.2904
 30
-0.9107
 70
192
 0
VERTEX
 8
EXTRUDE_3
 10
-0.4792
 20
-0.2904
 30
-0.9096
 70
192
 0
VERTEX
 8
EXTRUDE_3
 10
-0.4777
 20
-0.2904
 30
-0.9074
 70
192
 0
VERTEX
 8
EXTRUDE_3
 10
-0.4764
 20
-0.1453
 30
-0.9063
 70
192
 0
VERTEX
 8
EXTRUDE_3
 10
-0.4767
 20
-0.2904
 30
-0.9065
 70
192
 0
VERTEX
 8
EXTRUDE_3
 10
-0.5911
 20
-0.1453
 30
-0.9063
 70
192
 0
VERTEX
 8
EXTRUDE_3
 10
-0.5911
 20
-0.2904
 30
-0.9063
 70
192
 0
VERTEX
 8
EXTRUDE_3
 10
-0.4764
 20
-0.2904
 30
-0.9063
 70
192
 0
VERTEX
 8
EXTRUDE_3
 10
0
 20
0
 30
0
 70
128
 71
1
 72
29
 73
59
 74
58
 0
VERTEX
 8
EXTRUDE_3
 10
0
 20
0
 30
0
 70
128
 71
2
 72
31
 73
29
 74
1
 0
VERTEX
 8
EXTRUDE_3
 10
0
 20
0
 30
0
 70
128
 71
3
 72
32
 73
31
 74
2
 0
VERTEX
 8
EXTRUDE_3
 10
0
 20
0
 30
0
 70
128
 71
4
 72
33
 73
32
 74
3
 0
VERTEX
 8
EXTRUDE_3
 10
0
 20
0
 30
0
 70
128
 71
5
 72
34
 73
33
 74
4
 0
VERTEX
 8
EXTRUDE_3
 10
0
 20
0
 30
0
 70
128
 71
6
 72
35
 73
34
 74
5
 0
VERTEX
 8
EXTRUDE_3
 10
0
 20
0
 30
0
 70
128
 71
7
 72
36
 73
35
 74
6
 0
VERTEX
 8
EXTRUDE_3
 10
0
 20
0
 30
0
 70
128
 71
8
 72
30
 73
36
 74
7
 0
VERTEX
 8
EXTRUDE_3
 10
0
 20
0
 30
0
 70
128
 71
9
 72
38
 73
30
 74
8
 0
VERTEX
 8
EXTRUDE_3
 10
0
 20
0
 30
0
 70
128
 71
10
 72
39
 73
38
 74
9
 0
VERTEX
 8
EXTRUDE_3
 10
0
 20
0
 30
0
 70
128
 71
11
 72
40
 73
39
 74
10
 0
VERTEX
 8
EXTRUDE_3
 10
0
 20
0
 30
0
 70
128
 71
12
 72
41
 73
40
 74
11
 0
VERTEX
 8
EXTRUDE_3
 10
0
 20
0
 30
0
 70
128
 71
13
 72
37
 73
41
 74
12
 0
VERTEX
 8
EXTRUDE_3
 10
0
 20
0
 30
0
 70
128
 71
14
 72
42
 73
37
 74
13
 0
VERTEX
 8
EXTRUDE_3
 10
0
 20
0
 30
0
 70
128
 71
15
 72
44
 73
42
 74
14
 0
VERTEX
 8
EXTRUDE_3
 10
0
 20
0
 30
0
 70
128
 71
16
 72
45
 73
44
 74
15
 0
VERTEX
 8
EXTRUDE_3
 10
0
 20
0
 30
0
 70
128
 71
17
 72
46
 73
45
 74
16
 0
VERTEX
 8
EXTRUDE_3
 10
0
 20
0
 30
0
 70
128
 71
18
 72
47
 73
46
 74
17
 0
VERTEX
 8
EXTRUDE_3
 10
0
 20
0
 30
0
 70
128
 71
19
 72
48
 73
47
 74
18
 0
VERTEX
 8
EXTRUDE_3
 10
0
 20
0
 30
0
 70
128
 71
20
 72
49
 73
48
 74
19
 0
VERTEX
 8
EXTRUDE_3
 10
0
 20
0
 30
0
 70
128
 71
21
 72
43
 73
49
 74
20
 0
VERTEX
 8
EXTRUDE_3
 10
0
 20
0
 30
0
 70
128
 71
22
 72
51
 73
43
 74
21
 0
VERTEX
 8
EXTRUDE_3
 10
0
 20
0
 30
0
 70
128
 71
23
 72
52
 73
51
 74
22
 0
VERTEX
 8
EXTRUDE_3
 10
0
 20
0
 30
0
 70
128
 71
24
 72
53
 73
52
 74
23
 0
VERTEX
 8
EXTRUDE_3
 10
0
 20
0
 30
0
 70
128
 71
25
 72
54
 73
53
 74
24
 0
VERTEX
 8
EXTRUDE_3
 10
0
 20
0
 30
0
 70
128
 71
26
 72
50
 73
54
 74
25
 0
VERTEX
 8
EXTRUDE_3
 10
0
 20
0
 30
0
 70
128
 71
27
 72
55
 73
50
 74
26
 0
VERTEX
 8
EXTRUDE_3
 10
0
 20
0
 30
0
 70
128
 71
28
 72
57
 73
55
 74
27
 0
VERTEX
 8
EXTRUDE_3
 10
0
 20
0
 30
0
 70
128
 71
56
 72
60
 73
57
 74
28
 0
SEQEND
 0
POLYLINE
 8
CAP_2_2
 66
1
 10
0.0
 20
0.0
 30
0.0
 70
64
 71
53
 72
29
 0
VERTEX
 8
CAP_2_2
 10
-0.59
 20
-0.1453
 30
-0.9067
 70
192
 0
VERTEX
 8
CAP_2_2
 10
-0.5882
 20
-0.1453
 30
-0.9076
 70
192
 0
VERTEX
 8
CAP_2_2
 10
-0.5868
 20
-0.1453
 30
-0.9084
 70
192
 0
VERTEX
 8
CAP_2_2
 10
-0.5854
 20
-0.1453
 30
-0.9095
 70
192
 0
VERTEX
 8
CAP_2_2
 10
-0.584
 20
-0.1453
 30
-0.9108
 70
192
 0
VERTEX
 8
CAP_2_2
 10
-0.5826
 20
-0.1453
 30
-0.9124
 70
192
 0
VERTEX
 8
CAP_2_2
 10
-0.5813
 20
-0.1453
 30
-0.9142
 70
192
 0
VERTEX
 8
CAP_2_2
 10
-0.5802
 20
-0.1453
 30
-0.9163
 70
192
 0
VERTEX
 8
CAP_2_2
 10
-0.5791
 20
-0.1453
 30
-0.9188
 70
192
 0
VERTEX
 8
CAP_2_2
 10
-0.5782
 20
-0.1453
 30
-0.9215
 70
192
 0
VERTEX
 8
CAP_2_2
 10
-0.5778
 20
-0.1453
 30
-0.9236
 70
192
 0
VERTEX
 8
CAP_2_2
 10
-0.5773
 20
-0.1453
 30
-0.927
 70
192
 0
VERTEX
 8
CAP_2_2
 10
-0.577
 20
-0.1453
 30
-0.9271
 70
192
 0
VERTEX
 8
CAP_2_2
 10
-0.5741
 20
-0.1453
 30
-0.9272
 70
192
 0
VERTEX
 8
CAP_2_2
 10
-0.4828
 20
-0.1453
 30
-0.9266
 70
192
 0
VERTEX
 8
CAP_2_2
 10
-0.4823
 20
-0.1453
 30
-0.9266
 70
192
 0
VERTEX
 8
CAP_2_2
 10
-0.4817
 20
-0.1453
 30
-0.9265
 70
192
 0
VERTEX
 8
CAP_2_2
 10
-0.4817
 20
-0.1453
 30
-0.9264
 70
192
 0
VERTEX
 8
CAP_2_2
 10
-0.4817
 20
-0.1453
 30
-0.9263
 70
192
 0
VERTEX
 8
CAP_2_2
 10
-0.4817
 20
-0.1453
 30
-0.9259
 70
192
 0
VERTEX
 8
CAP_2_2
 10
-0.4815
 20
-0.1453
 30
-0.9172
 70
192
 0
VERTEX
 8
CAP_2_2
 10
-0.4811
 20
-0.1453
 30
-0.9146
 70
192
 0
VERTEX
 8
CAP_2_2
 10
-0.4806
 20
-0.1453
 30
-0.9126
 70
192
 0
VERTEX
 8
CAP_2_2
 10
-0.4798
 20
-0.1453
 30
-0.9107
 70
192
 0
VERTEX
 8
CAP_2_2
 10
-0.4792
 20
-0.1453
 30
-0.9096
 70
192
 0
VERTEX
 8
CAP_2_2
 10
-0.4785
 20
-0.1453
 30
-0.9084
 70
192
 0
VERTEX
 8
CAP_2_2
 10
-0.4777
 20
-0.1453
 30
-0.9074
 70
192
 0
VERTEX
 8
CAP_2_2
 10
-0.4767
 20
-0.1453
 30
-0.9065
 70
192
 0
VERTEX
 8
CAP_2_2
 10
-0.5226
 20
-0.1453
 30
-0.9063
 70
192
 0
VERTEX
 8
CAP_2_2
 10
-0.5195
 20
-0.1453
 30
-0.9063
 70
192
 0
VERTEX
 8
CAP_2_2
 10
-0.5244
 20
-0.1453
 30
-0.9063
 70
192
 0
VERTEX
 8
CAP_2_2
 10
-0.526
 20
-0.1453
 30
-0.9063
 70
192
 0
VERTEX
 8
CAP_2_2
 10
-0.5284
 20
-0.1453
 30
-0.9063
 70
192
 0
VERTEX
 8
CAP_2_2
 10
-0.5339
 20
-0.1453
 30
-0.9063
 70
192
 0
VERTEX
 8
CAP_2_2
 10
-0.5341
 20
-0.1453
 30
-0.9063
 70
192
 0
VERTEX
 8
CAP_2_2
 10
-0.5341
 20
-0.1453
 30
-0.9063
 70
192
 0
VERTEX
 8
CAP_2_2
 10
-0.5347
 20
-0.1453
 30
-0.9063
 70
192
 0
VERTEX
 8
CAP_2_2
 10
-0.5351
 20
-0.1453
 30
-0.9063
 70
192
 0
VERTEX
 8
CAP_2_2
 10
-0.5359
 20
-0.1453
 30
-0.9063
 70
192
 0
VERTEX
 8
CAP_2_2
 10
-0.5371
 20
-0.1453
 30
-0.9063
 70
192
 0
VERTEX
 8
CAP_2_2
 10
-0.5385
 20
-0.1453
 30
-0.9063
 70
192
 0
VERTEX
 8
CAP_2_2
 10
-0.5406
 20
-0.1453
 30
-0.9063
 70
192
 0
VERTEX
 8
CAP_2_2
 10
-0.5433
 20
-0.1453
 30
-0.9063
 70
192
 0
VERTEX
 8
CAP_2_2
 10
-0.5472
 20
-0.1453
 30
-0.9063
 70
192
 0
VERTEX
 8
CAP_2_2
 10
-0.5527
 20
-0.1453
 30
-0.9063
 70
192
 0
VERTEX
 8
CAP_2_2
 10
-0.5605
 20
-0.1453
 30
-0.9063
 70
192
 0
VERTEX
 8
CAP_2_2
 10
-0.5765
 20
-0.1453
 30
-0.9063
 70
192
 0
VERTEX
 8
CAP_2_2
 10
-0.5911
 20
-0.1453
 30
-0.9063
 70
192
 0
VERTEX
 8
CAP_2_2
 10
-0.4826
 20
-0.1453
 30
-0.9063
 70
192
 0
VERTEX
 8
CAP_2_2
 10
-0.4764
 20
-0.1453
 30
-0.9063
 70
192
 0
VERTEX
 8
CAP_2_2
 10
-0.5019
 20
-0.1453
 30
-0.9063
 70
192
 0
VERTEX
 8
CAP_2_2
 10
-0.5111
 20
-0.1453
 30
-0.9063
 70
192
 0
VERTEX
 8
CAP_2_2
 10
-0.5163
 20
-0.1453
 30
-0.9063
 70
192
 0
VERTEX
 8
CAP_2_2
 10
0
 20
0
 30
0
 70
128
 71
19
 72
18
 73
17
 74
17
 0
VERTEX
 8
CAP_2_2
 10
0
 20
0
 30
0
 70
128
 71
19
 72
17
 73
20
 74
20
 0
VERTEX
 8
CAP_2_2
 10
0
 20
0
 30
0
 70
128
 71
20
 72
17
 73
16
 74
16
 0
VERTEX
 8
CAP_2_2
 10
0
 20
0
 30
0
 70
128
 71
15
 72
20
 73
16
 74
16
 0
VERTEX
 8
CAP_2_2
 10
0
 20
0
 30
0
 70
128
 71
21
 72
20
 73
15
 74
15
 0
VERTEX
 8
CAP_2_2
 10
0
 20
0
 30
0
 70
128
 71
23
 72
29
 73
30
 74
24
 0
VERTEX
 8
CAP_2_2
 10
0
 20
0
 30
0
 70
128
 71
22
 72
31
 73
29
 74
23
 0
VERTEX
 8
CAP_2_2
 10
0
 20
0
 30
0
 70
128
 71
22
 72
21
 73
32
 74
31
 0
VERTEX
 8
CAP_2_2
 10
0
 20
0
 30
0
 70
128
 71
21
 72
15
 73
33
 74
32
 0
VERTEX
 8
CAP_2_2
 10
0
 20
0
 30
0
 70
128
 71
34
 72
33
 73
15
 74
14
 0
VERTEX
 8
CAP_2_2
 10
0
 20
0
 30
0
 70
128
 71
14
 72
13
 73
35
 74
34
 0
VERTEX
 8
CAP_2_2
 10
0
 20
0
 30
0
 70
128
 71
13
 72
12
 73
36
 74
35
 0
VERTEX
 8
CAP_2_2
 10
0
 20
0
 30
0
 70
128
 71
11
 72
37
 73
36
 74
12
 0
VERTEX
 8
CAP_2_2
 10
0
 20
0
 30
0
 70
128
 71
10
 72
38
 73
37
 74
11
 0
VERTEX
 8
CAP_2_2
 10
0
 20
0
 30
0
 70
128
 71
9
 72
39
 73
38
 74
10
 0
VERTEX
 8
CAP_2_2
 10
0
 20
0
 30
0
 70
128
 71
9
 72
8
 73
40
 74
39
 0
VERTEX
 8
CAP_2_2
 10
0
 20
0
 30
0
 70
128
 71
8
 72
7
 73
41
 74
40
 0
VERTEX
 8
CAP_2_2
 10
0
 20
0
 30
0
 70
128
 71
7
 72
6
 73
42
 74
41
 0
VERTEX
 8
CAP_2_2
 10
0
 20
0
 30
0
 70
128
 71
6
 72
5
 73
43
 74
42
 0
VERTEX
 8
CAP_2_2
 10
0
 20
0
 30
0
 70
128
 71
5
 72
4
 73
44
 74
43
 0
VERTEX
 8
CAP_2_2
 10
0
 20
0
 30
0
 70
128
 71
4
 72
3
 73
45
 74
44
 0
VERTEX
 8
CAP_2_2
 10
0
 20
0
 30
0
 70
128
 71
3
 72
2
 73
46
 74
45
 0
VERTEX
 8
CAP_2_2
 10
0
 20
0
 30
0
 70
128
 71
2
 72
1
 73
47
 74
46
 0
VERTEX
 8
CAP_2_2
 10
0
 20
0
 30
0
 70
128
 71
1
 72
48
 73
47
 74
47
 0
VERTEX
 8
CAP_2_2
 10
0
 20
0
 30
0
 70
128
 71
28
 72
49
 73
50
 74
50
 0
VERTEX
 8
CAP_2_2
 10
0
 20
0
 30
0
 70
128
 71
27
 72
51
 73
49
 74
28
 0
VERTEX
 8
CAP_2_2
 10
0
 20
0
 30
0
 70
128
 71
26
 72
52
 73
51
 74
27
 0
VERTEX
 8
CAP_2_2
 10
0
 20
0
 30
0
 70
128
 71
25
 72
53
 73
52
 74
26
 0
VERTEX
 8
CAP_2_2
 10
0
 20
0
 30
0
 70
128
 71
24
 72
30
 73
53
 74
25
 0
SEQEND
 0
POLYLINE
 8
CUBE_2
 66
1
 10
0.0
 20
0.0
 30
0.0
 70
64
 71
63
 72
58
 0
VERTEX
 8
CUBE_2
 10
0.2867
 20
-0.2904
 30
-1.0733
 70
192
 0
VERTEX
 8
CUBE_2
 10
0.2867
 20
-0.2904
 30
-0.9063
 70
192
 0
VERTEX
 8
CUBE_2
 10
0.7878
 20
-0.2904
 30
-1.0733
 70
192
 0
VERTEX
 8
CUBE_2
 10
0.7878
 20
-0.2904
 30
-0.9063
 70
192
 0
VERTEX
 8
CUBE_2
 10
0.7878
 20
0.1186
 30
-1.0733
 70
192
 0
VERTEX
 8
CUBE_2
 10
0.7878
 20
0.1186
 30
-0.9063
 70
192
 0
VERTEX
 8
CUBE_2
 10
0.2867
 20
0.1186
 30
-1.0733
 70
192
 0
VERTEX
 8
CUBE_2
 10
0.2867
 20
0.1186
 30
-0.9063
 70
192
 0
VERTEX
 8
CUBE_2
 10
0.5825
 20
-0.2904
 30
-0.9063
 70
192
 0
VERTEX
 8
CUBE_2
 10
0.4679
 20
-0.2904
 30
-0.9063
 70
192
 0
VERTEX
 8
CUBE_2
 10
0.469
 20
-0.2904
 30
-0.9067
 70
192
 0
VERTEX
 8
CUBE_2
 10
0.4707
 20
-0.2904
 30
-0.9076
 70
192
 0
VERTEX
 8
CUBE_2
 10
0.4721
 20
-0.2904
 30
-0.9084
 70
192
 0
VERTEX
 8
CUBE_2
 10
0.4735
 20
-0.2904
 30
-0.9095
 70
192
 0
VERTEX
 8
CUBE_2
 10
0.4763
 20
-0.2904
 30
-0.9124
 70
192
 0
VERTEX
 8
CUBE_2
 10
0.4749
 20
-0.2904
 30
-0.9108
 70
192
 0
VERTEX
 8
CUBE_2
 10
0.4776
 20
-0.2904
 30
-0.9142
 70
192
 0
VERTEX
 8
CUBE_2
 10
0.4788
 20
-0.2904
 30
-0.9163
 70
192
 0
VERTEX
 8
CUBE_2
 10
0.4799
 20
-0.2904
 30
-0.9188
 70
192
 0
VERTEX
 8
CUBE_2
 10
0.4812
 20
-0.2904
 30
-0.9236
 70
192
 0
VERTEX
 8
CUBE_2
 10
0.4817
 20
-0.2904
 30
-0.927
 70
192
 0
VERTEX
 8
CUBE_2
 10
0.4819
 20
-0.2904
 30
-0.9271
 70
192
 0
VERTEX
 8
CUBE_2
 10
0.4849
 20
-0.2904
 30
-0.9272
 70
192
 0
VERTEX
 8
CUBE_2
 10
0.5761
 20
-0.2904
 30
-0.9266
 70
192
 0
VERTEX
 8
CUBE_2
 10
0.5767
 20
-0.2904
 30
-0.9266
 70
192
 0
VERTEX
 8
CUBE_2
 10
0.4807
 20
-0.2904
 30
-0.9215
 70
192
 0
VERTEX
 8
CUBE_2
 10
0.5772
 20
-0.2904
 30
-0.9265
 70
192
 0
VERTEX
 8
CUBE_2
 10
0.5773
 20
-0.2904
 30
-0.9263
 70
192
 0
VERTEX
 8
CUBE_2
 10
0.5773
 20
-0.2904
 30
-0.9264
 70
192
 0
VERTEX
 8
CUBE_2
 10
0.5773
 20
-0.2904
 30
-0.9259
 70
192
 0
VERTEX
 8
CUBE_2
 10
0.5775
 20
-0.2904
 30
-0.9172
 70
192
 0
VERTEX
 8
CUBE_2
 10
0.5779
 20
-0.2904
 30
-0.9146
 70
192
 0
VERTEX
 8
CUBE_2
 10
0.5791
 20
-0.2904
 30
-0.9107
 70
192
 0
VERTEX
 8
CUBE_2
 10
0.5797
 20
-0.2904
 30
-0.9096
 70
192
 0
VERTEX
 8
CUBE_2
 10
0.5805
 20
-0.2904
 30
-0.9084
 70
192
 0
VERTEX
 8
CUBE_2
 10
0.5813
 20
-0.2904
 30
-0.9074
 70
192
 0
VERTEX
 8
CUBE_2
 10
0.5823
 20
-0.2904
 30
-0.9065
 70
192
 0
VERTEX
 8
CUBE_2
 10
0.5784
 20
-0.2904
 30
-0.9126
 70
192
 0
VERTEX
 8
CUBE_2
 10
0.4679
 20
-0.1453
 30
-0.9063
 70
192
 0
VERTEX
 8
CUBE_2
 10
0.5825
 20
-0.1453
 30
-0.9063
 70
192
 0
VERTEX
 8
CUBE_2
 10
0.5364
 20
-0.1453
 30
-0.9063
 70
192
 0
VERTEX
 8
CUBE_2
 10
0.5394
 20
-0.1453
 30
-0.9063
 70
192
 0
VERTEX
 8
CUBE_2
 10
0.5345
 20
-0.1453
 30
-0.9063
 70
192
 0
VERTEX
 8
CUBE_2
 10
0.533
 20
-0.1453
 30
-0.9063
 70
192
 0
VERTEX
 8
CUBE_2
 10
0.5305
 20
-0.1453
 30
-0.9063
 70
192
 0
VERTEX
 8
CUBE_2
 10
0.5251
 20
-0.1453
 30
-0.9063
 70
192
 0
VERTEX
 8
CUBE_2
 10
0.5249
 20
-0.1453
 30
-0.9063
 70
192
 0
VERTEX
 8
CUBE_2
 10
0.5248
 20
-0.1453
 30
-0.9063
 70
192
 0
VERTEX
 8
CUBE_2
 10
0.5243
 20
-0.1453
 30
-0.9063
 70
192
 0
VERTEX
 8
CUBE_2
 10
0.5239
 20
-0.1453
 30
-0.9063
 70
192
 0
VERTEX
 8
CUBE_2
 10
0.523
 20
-0.1453
 30
-0.9063
 70
192
 0
VERTEX
 8
CUBE_2
 10
0.5219
 20
-0.1453
 30
-0.9063
 70
192
 0
VERTEX
 8
CUBE_2
 10
0.5204
 20
-0.1453
 30
-0.9063
 70
192
 0
VERTEX
 8
CUBE_2
 10
0.5184
 20
-0.1453
 30
-0.9063
 70
192
 0
VERTEX
 8
CUBE_2
 10
0.5156
 20
-0.1453
 30
-0.9063
 70
192
 0
VERTEX
 8
CUBE_2
 10
0.5117
 20
-0.1453
 30
-0.9063
 70
192
 0
VERTEX
 8
CUBE_2
 10
0.5063
 20
-0.1453
 30
-0.9063
 70
192
 0
VERTEX
 8
CUBE_2
 10
0.4984
 20
-0.1453
 30
-0.9063
 70
192
 0
VERTEX
 8
CUBE_2
 10
0.4824
 20
-0.1453
 30
-0.9063
 70
192
 0
VERTEX
 8
CUBE_2
 10
0.5763
 20
-0.1453
 30
-0.9063
 70
192
 0
VERTEX
 8
CUBE_2
 10
0.557
 20
-0.1453
 30
-0.9063
 70
192
 0
VERTEX
 8
CUBE_2
 10
0.5479
 20
-0.1453
 30
-0.9063
 70
192
 0
VERTEX
 8
CUBE_2
 10
0.5427
 20
-0.1453
 30
-0.9063
 70
192
 0
VERTEX
 8
CUBE_2
 10
0
 20
0
 30
0
 70
128
 71
4
 72
3
 73
29
 74
29
 0
VERTEX
 8
CUBE_2
 10
0
 20
0
 30
0
 70
128
 71
1
 72
2
 73
10
 74
10
 0
VERTEX
 8
CUBE_2
 10
0
 20
0
 30
0
 70
128
 71
37
 72
9
 73
4
 74
4
 0
VERTEX
 8
CUBE_2
 10
0
 20
0
 30
0
 70
128
 71
30
 72
31
 73
32
 74
38
 0
VERTEX
 8
CUBE_2
 10
0
 20
0
 30
0
 70
128
 71
35
 72
36
 73
4
 74
4
 0
VERTEX
 8
CUBE_2
 10
0
 20
0
 30
0
 70
128
 71
38
 72
33
 73
34
 74
34
 0
VERTEX
 8
CUBE_2
 10
0
 20
0
 30
0
 70
128
 71
15
 72
17
 73
18
 74
16
 0
VERTEX
 8
CUBE_2
 10
0
 20
0
 30
0
 70
128
 71
14
 72
16
 73
1
 74
1
 0
VERTEX
 8
CUBE_2
 10
0
 20
0
 30
0
 70
128
 71
10
 72
11
 73
1
 74
1
 0
VERTEX
 8
CUBE_2
 10
0
 20
0
 30
0
 70
128
 71
12
 72
13
 73
1
 74
1
 0
VERTEX
 8
CUBE_2
 10
0
 20
0
 30
0
 70
128
 71
1
 72
11
 73
12
 74
12
 0
VERTEX
 8
CUBE_2
 10
0
 20
0
 30
0
 70
128
 71
36
 72
37
 73
4
 74
4
 0
VERTEX
 8
CUBE_2
 10
0
 20
0
 30
0
 70
128
 71
19
 72
26
 73
20
 74
21
 0
VERTEX
 8
CUBE_2
 10
0
 20
0
 30
0
 70
128
 71
38
 72
34
 73
4
 74
4
 0
VERTEX
 8
CUBE_2
 10
0
 20
0
 30
0
 70
128
 71
1
 72
13
 73
14
 74
14
 0
VERTEX
 8
CUBE_2
 10
0
 20
0
 30
0
 70
128
 71
34
 72
35
 73
4
 74
4
 0
VERTEX
 8
CUBE_2
 10
0
 20
0
 30
0
 70
128
 71
16
 72
18
 73
19
 74
21
 0
VERTEX
 8
CUBE_2
 10
0
 20
0
 30
0
 70
128
 71
28
 72
30
 73
4
 74
4
 0
VERTEX
 8
CUBE_2
 10
0
 20
0
 30
0
 70
128
 71
30
 72
38
 73
4
 74
4
 0
VERTEX
 8
CUBE_2
 10
0
 20
0
 30
0
 70
128
 71
1
 72
16
 73
21
 74
21
 0
VERTEX
 8
CUBE_2
 10
0
 20
0
 30
0
 70
128
 71
29
 72
28
 73
4
 74
4
 0
VERTEX
 8
CUBE_2
 10
0
 20
0
 30
0
 70
128
 71
1
 72
21
 73
22
 74
22
 0
VERTEX
 8
CUBE_2
 10
0
 20
0
 30
0
 70
128
 71
27
 72
29
 73
3
 74
3
 0
VERTEX
 8
CUBE_2
 10
0
 20
0
 30
0
 70
128
 71
1
 72
22
 73
23
 74
23
 0
VERTEX
 8
CUBE_2
 10
0
 20
0
 30
0
 70
128
 71
1
 72
23
 73
24
 74
24
 0
VERTEX
 8
CUBE_2
 10
0
 20
0
 30
0
 70
128
 71
27
 72
3
 73
25
 74
25
 0
VERTEX
 8
CUBE_2
 10
0
 20
0
 30
0
 70
128
 71
1
 72
24
 73
25
 74
25
 0
VERTEX
 8
CUBE_2
 10
0
 20
0
 30
0
 70
128
 71
25
 72
3
 73
1
 74
1
 0
VERTEX
 8
CUBE_2
 10
0
 20
0
 30
0
 70
128
 71
3
 72
4
 73
6
 74
5
 0
VERTEX
 8
CUBE_2
 10
0
 20
0
 30
0
 70
128
 71
5
 72
6
 73
8
 74
7
 0
VERTEX
 8
CUBE_2
 10
0
 20
0
 30
0
 70
128
 71
7
 72
8
 73
2
 74
1
 0
VERTEX
 8
CUBE_2
 10
0
 20
0
 30
0
 70
128
 71
10
 72
2
 73
8
 74
39
 0
VERTEX
 8
CUBE_2
 10
0
 20
0
 30
0
 70
128
 71
47
 72
48
 73
8
 74
8
 0
VERTEX
 8
CUBE_2
 10
0
 20
0
 30
0
 70
128
 71
56
 72
57
 73
8
 74
8
 0
VERTEX
 8
CUBE_2
 10
0
 20
0
 30
0
 70
128
 71
43
 72
44
 73
45
 74
45
 0
VERTEX
 8
CUBE_2
 10
0
 20
0
 30
0
 70
128
 71
6
 72
4
 73
9
 74
40
 0
VERTEX
 8
CUBE_2
 10
0
 20
0
 30
0
 70
128
 71
46
 72
47
 73
8
 74
8
 0
VERTEX
 8
CUBE_2
 10
0
 20
0
 30
0
 70
128
 71
55
 72
56
 73
8
 74
8
 0
VERTEX
 8
CUBE_2
 10
0
 20
0
 30
0
 70
128
 71
59
 72
39
 73
8
 74
8
 0
VERTEX
 8
CUBE_2
 10
0
 20
0
 30
0
 70
128
 71
8
 72
6
 73
40
 74
60
 0
VERTEX
 8
CUBE_2
 10
0
 20
0
 30
0
 70
128
 71
58
 72
59
 73
8
 74
8
 0
VERTEX
 8
CUBE_2
 10
0
 20
0
 30
0
 70
128
 71
8
 72
60
 73
61
 74
61
 0
VERTEX
 8
CUBE_2
 10
0
 20
0
 30
0
 70
128
 71
8
 72
61
 73
62
 74
62
 0
VERTEX
 8
CUBE_2
 10
0
 20
0
 30
0
 70
128
 71
8
 72
62
 73
63
 74
63
 0
VERTEX
 8
CUBE_2
 10
0
 20
0
 30
0
 70
128
 71
8
 72
63
 73
42
 74
42
 0
VERTEX
 8
CUBE_2
 10
0
 20
0
 30
0
 70
128
 71
8
 72
42
 73
41
 74
41
 0
VERTEX
 8
CUBE_2
 10
0
 20
0
 30
0
 70
128
 71
8
 72
41
 73
43
 74
43
 0
VERTEX
 8
CUBE_2
 10
0
 20
0
 30
0
 70
128
 71
8
 72
43
 73
45
 74
45
 0
VERTEX
 8
CUBE_2
 10
0
 20
0
 30
0
 70
128
 71
8
 72
45
 73
46
 74
46
 0
VERTEX
 8
CUBE_2
 10
0
 20
0
 30
0
 70
128
 71
57
 72
58
 73
8
 74
8
 0
VERTEX
 8
CUBE_2
 10
0
 20
0
 30
0
 70
128
 71
54
 72
55
 73
8
 74
8
 0
VERTEX
 8
CUBE_2
 10
0
 20
0
 30
0
 70
128
 71
53
 72
54
 73
8
 74
8
 0
VERTEX
 8
CUBE_2
 10
0
 20
0
 30
0
 70
128
 71
52
 72
53
 73
8
 74
8
 0
VERTEX
 8
CUBE_2
 10
0
 20
0
 30
0
 70
128
 71
51
 72
52
 73
8
 74
8
 0
VERTEX
 8
CUBE_2
 10
0
 20
0
 30
0
 70
128
 71
50
 72
51
 73
8
 74
8
 0
VERTEX
 8
CUBE_2
 10
0
 20
0
 30
0
 70
128
 71
49
 72
50
 73
8
 74
8
 0
VERTEX
 8
CUBE_2
 10
0
 20
0
 30
0
 70
128
 71
48
 72
49
 73
8
 74
8
 0
VERTEX
 8
CUBE_2
 10
0
 20
0
 30
0
 70
128
 71
7
 72
1
 73
3
 74
5
 0
SEQEND
 0
POLYLINE
 8
EXTRUDE_4
 66
1
 10
0.0
 20
0.0
 30
0.0
 70
64
 71
60
 72
29
 0
VERTEX
 8
EXTRUDE_4
 10
0.469
 20
-0.1453
 30
-0.9067
 70
192
 0
VERTEX
 8
EXTRUDE_4
 10
0.4707
 20
-0.1453
 30
-0.9076
 70
192
 0
VERTEX
 8
EXTRUDE_4
 10
0.4721
 20
-0.1453
 30
-0.9084
 70
192
 0
VERTEX
 8
EXTRUDE_4
 10
0.4735
 20
-0.1453
 30
-0.9095
 70
192
 0
VERTEX
 8
EXTRUDE_4
 10
0.4749
 20
-0.1453
 30
-0.9108
 70
192
 0
VERTEX
 8
EXTRUDE_4
 10
0.4763
 20
-0.1453
 30
-0.9124
 70
192
 0
VERTEX
 8
EXTRUDE_4
 10
0.4776
 20
-0.1453
 30
-0.9142
 70
192
 0
VERTEX
 8
EXTRUDE_4
 10
0.4788
 20
-0.1453
 30
-0.9163
 70
192
 0
VERTEX
 8
EXTRUDE_4
 10
0.4799
 20
-0.1453
 30
-0.9188
 70
192
 0
VERTEX
 8
EXTRUDE_4
 10
0.4807
 20
-0.1453
 30
-0.9215
 70
192
 0
VERTEX
 8
EXTRUDE_4
 10
0.4812
 20
-0.1453
 30
-0.9236
 70
192
 0
VERTEX
 8
EXTRUDE_4
 10
0.4817
 20
-0.1453
 30
-0.927
 70
192
 0
VERTEX
 8
EXTRUDE_4
 10
0.4819
 20
-0.1453
 30
-0.9271
 70
192
 0
VERTEX
 8
EXTRUDE_4
 10
0.4849
 20
-0.1453
 30
-0.9272
 70
192
 0
VERTEX
 8
EXTRUDE_4
 10
0.5761
 20
-0.1453
 30
-0.9266
 70
192
 0
VERTEX
 8
EXTRUDE_4
 10
0.5767
 20
-0.1453
 30
-0.9266
 70
192
 0
VERTEX
 8
EXTRUDE_4
 10
0.5772
 20
-0.1453
 30
-0.9265
 70
192
 0
VERTEX
 8
EXTRUDE_4
 10
0.5773
 20
-0.1453
 30
-0.9264
 70
192
 0
VERTEX
 8
EXTRUDE_4
 10
0.5773
 20
-0.1453
 30
-0.9263
 70
192
 0
VERTEX
 8
EXTRUDE_4
 10
0.5773
 20
-0.1453
 30
-0.9259
 70
192
 0
VERTEX
 8
EXTRUDE_4
 10
0.5775
 20
-0.1453
 30
-0.9172
 70
192
 0
VERTEX
 8
EXTRUDE_4
 10
0.5779
 20
-0.1453
 30
-0.9146
 70
192
 0
VERTEX
 8
EXTRUDE_4
 10
0.5784
 20
-0.1453
 30
-0.9126
 70
192
 0
VERTEX
 8
EXTRUDE_4
 10
0.5791
 20
-0.1453
 30
-0.9107
 70
192
 0
VERTEX
 8
EXTRUDE_4
 10
0.5797
 20
-0.1453
 30
-0.9096
 70
192
 0
VERTEX
 8
EXTRUDE_4
 10
0.5805
 20
-0.1453
 30
-0.9084
 70
192
 0
VERTEX
 8
EXTRUDE_4
 10
0.5813
 20
-0.1453
 30
-0.9074
 70
192
 0
VERTEX
 8
EXTRUDE_4
 10
0.5823
 20
-0.1453
 30
-0.9065
 70
192
 0
VERTEX
 8
EXTRUDE_4
 10
0.469
 20
-0.2904
 30
-0.9067
 70
192
 0
VERTEX
 8
EXTRUDE_4
 10
0.4788
 20
-0.2904
 30
-0.9163
 70
192
 0
VERTEX
 8
EXTRUDE_4
 10
0.4707
 20
-0.2904
 30
-0.9076
 70
192
 0
VERTEX
 8
EXTRUDE_4
 10
0.4721
 20
-0.2904
 30
-0.9084
 70
192
 0
VERTEX
 8
EXTRUDE_4
 10
0.4735
 20
-0.2904
 30
-0.9095
 70
192
 0
VERTEX
 8
EXTRUDE_4
 10
0.4749
 20
-0.2904
 30
-0.9108
 70
192
 0
VERTEX
 8
EXTRUDE_4
 10
0.4763
 20
-0.2904
 30
-0.9124
 70
192
 0
VERTEX
 8
EXTRUDE_4
 10
0.4776
 20
-0.2904
 30
-0.9142
 70
192
 0
VERTEX
 8
EXTRUDE_4
 10
0.4819
 20
-0.2904
 30
-0.9271
 70
192
 0
VERTEX
 8
EXTRUDE_4
 10
0.4799
 20
-0.2904
 30
-0.9188
 70
192
 0
VERTEX
 8
EXTRUDE_4
 10
0.4807
 20
-0.2904
 30
-0.9215
 70
192
 0
VERTEX
 8
EXTRUDE_4
 10
0.4812
 20
-0.2904
 30
-0.9236
 70
192
 0
VERTEX
 8
EXTRUDE_4
 10
0.4817
 20
-0.2904
 30
-0.927
 70
192
 0
VERTEX
 8
EXTRUDE_4
 10
0.4849
 20
-0.2904
 30
-0.9272
 70
192
 0
VERTEX
 8
EXTRUDE_4
 10
0.5775
 20
-0.2904
 30
-0.9172
 70
192
 0
VERTEX
 8
EXTRUDE_4
 10
0.5761
 20
-0.2904
 30
-0.9266
 70
192
 0
VERTEX
 8
EXTRUDE_4
 10
0.5767
 20
-0.2904
 30
-0.9266
 70
192
 0
VERTEX
 8
EXTRUDE_4
 10
0.5772
 20
-0.2904
 30
-0.9265
 70
192
 0
VERTEX
 8
EXTRUDE_4
 10
0.5773
 20
-0.2904
 30
-0.9264
 70
192
 0
VERTEX
 8
EXTRUDE_4
 10
0.5773
 20
-0.2904
 30
-0.9263
 70
192
 0
VERTEX
 8
EXTRUDE_4
 10
0.5773
 20
-0.2904
 30
-0.9259
 70
192
 0
VERTEX
 8
EXTRUDE_4
 10
0.5805
 20
-0.2904
 30
-0.9084
 70
192
 0
VERTEX
 8
EXTRUDE_4
 10
0.5779
 20
-0.2904
 30
-0.9146
 70
192
 0
VERTEX
 8
EXTRUDE_4
 10
0.5784
 20
-0.2904
 30
-0.9126
 70
192
 0
VERTEX
 8
EXTRUDE_4
 10
0.5791
 20
-0.2904
 30
-0.9107
 70
192
 0
VERTEX
 8
EXTRUDE_4
 10
0.5797
 20
-0.2904
 30
-0.9096
 70
192
 0
VERTEX
 8
EXTRUDE_4
 10
0.5813
 20
-0.2904
 30
-0.9074
 70
192
 0
VERTEX
 8
EXTRUDE_4
 10
0.5825
 20
-0.1453
 30
-0.9063
 70
192
 0
VERTEX
 8
EXTRUDE_4
 10
0.5823
 20
-0.2904
 30
-0.9065
 70
192
 0
VERTEX
 8
EXTRUDE_4
 10
0.4679
 20
-0.1453
 30
-0.9063
 70
192
 0
VERTEX
 8
EXTRUDE_4
 10
0.4679
 20
-0.2904
 30
-0.9063
 70
192
 0
VERTEX
 8
EXTRUDE_4
 10
0.5825
 20
-0.2904
 30
-0.9063
 70
192
 0
VERTEX
 8
EXTRUDE_4
 10
0
 20
0
 30
0
 70
128
 71
1
 72
29
 73
59
 74
58
 0
VERTEX
 8
EXTRUDE_4
 10
0
 20
0
 30
0
 70
128
 71
2
 72
31
 73
29
 74
1
 0
VERTEX
 8
EXTRUDE_4
 10
0
 20
0
 30
0
 70
128
 71
3
 72
32
 73
31
 74
2
 0
VERTEX
 8
EXTRUDE_4
 10
0
 20
0
 30
0
 70
128
 71
4
 72
33
 73
32
 74
3
 0
VERTEX
 8
EXTRUDE_4
 10
0
 20
0
 30
0
 70
128
 71
5
 72
34
 73
33
 74
4
 0
VERTEX
 8
EXTRUDE_4
 10
0
 20
0
 30
0
 70
128
 71
6
 72
35
 73
34
 74
5
 0
VERTEX
 8
EXTRUDE_4
 10
0
 20
0
 30
0
 70
128
 71
7
 72
36
 73
35
 74
6
 0
VERTEX
 8
EXTRUDE_4
 10
0
 20
0
 30
0
 70
128
 71
8
 72
30
 73
36
 74
7
 0
VERTEX
 8
EXTRUDE_4
 10
0
 20
0
 30
0
 70
128
 71
9
 72
38
 73
30
 74
8
 0
VERTEX
 8
EXTRUDE_4
 10
0
 20
0
 30
0
 70
128
 71
10
 72
39
 73
38
 74
9
 0
VERTEX
 8
EXTRUDE_4
 10
0
 20
0
 30
0
 70
128
 71
11
 72
40
 73
39
 74
10
 0
VERTEX
 8
EXTRUDE_4
 10
0
 20
0
 30
0
 70
128
 71
12
 72
41
 73
40
 74
11
 0
VERTEX
 8
EXTRUDE_4
 10
0
 20
0
 30
0
 70
128
 71
13
 72
37
 73
41
 74
12
 0
VERTEX
 8
EXTRUDE_4
 10
0
 20
0
 30
0
 70
128
 71
14
 72
42
 73
37
 74
13
 0
VERTEX
 8
EXTRUDE_4
 10
0
 20
0
 30
0
 70
128
 71
15
 72
44
 73
42
 74
14
 0
VERTEX
 8
EXTRUDE_4
 10
0
 20
0
 30
0
 70
128
 71
16
 72
45
 73
44
 74
15
 0
VERTEX
 8
EXTRUDE_4
 10
0
 20
0
 30
0
 70
128
 71
17
 72
46
 73
45
 74
16
 0
VERTEX
 8
EXTRUDE_4
 10
0
 20
0
 30
0
 70
128
 71
18
 72
47
 73
46
 74
17
 0
VERTEX
 8
EXTRUDE_4
 10
0
 20
0
 30
0
 70
128
 71
19
 72
48
 73
47
 74
18
 0
VERTEX
 8
EXTRUDE_4
 10
0
 20
0
 30
0
 70
128
 71
20
 72
49
 73
48
 74
19
 0
VERTEX
 8
EXTRUDE_4
 10
0
 20
0
 30
0
 70
128
 71
21
 72
43
 73
49
 74
20
 0
VERTEX
 8
EXTRUDE_4
 10
0
 20
0
 30
0
 70
128
 71
22
 72
51
 73
43
 74
21
 0
VERTEX
 8
EXTRUDE_4
 10
0
 20
0
 30
0
 70
128
 71
23
 72
52
 73
51
 74
22
 0
VERTEX
 8
EXTRUDE_4
 10
0
 20
0
 30
0
 70
128
 71
24
 72
53
 73
52
 74
23
 0
VERTEX
 8
EXTRUDE_4
 10
0
 20
0
 30
0
 70
128
 71
25
 72
54
 73
53
 74
24
 0
VERTEX
 8
EXTRUDE_4
 10
0
 20
0
 30
0
 70
128
 71
26
 72
50
 73
54
 74
25
 0
VERTEX
 8
EXTRUDE_4
 10
0
 20
0
 30
0
 70
128
 71
27
 72
55
 73
50
 74
26
 0
VERTEX
 8
EXTRUDE_4
 10
0
 20
0
 30
0
 70
128
 71
28
 72
57
 73
55
 74
27
 0
VERTEX
 8
EXTRUDE_4
 10
0
 20
0
 30
0
 70
128
 71
56
 72
60
 73
57
 74
28
 0
SEQEND
 0
POLYLINE
 8
CAP_2_3
 66
1
 10
0.0
 20
0.0
 30
0.0
 70
64
 71
53
 72
29
 0
VERTEX
 8
CAP_2_3
 10
0.469
 20
-0.1453
 30
-0.9067
 70
192
 0
VERTEX
 8
CAP_2_3
 10
0.4707
 20
-0.1453
 30
-0.9076
 70
192
 0
VERTEX
 8
CAP_2_3
 10
0.4721
 20
-0.1453
 30
-0.9084
 70
192
 0
VERTEX
 8
CAP_2_3
 10
0.4735
 20
-0.1453
 30
-0.9095
 70
192
 0
VERTEX
 8
CAP_2_3
 10
0.4749
 20
-0.1453
 30
-0.9108
 70
192
 0
VERTEX
 8
CAP_2_3
 10
0.4763
 20
-0.1453
 30
-0.9124
 70
192
 0
VERTEX
 8
CAP_2_3
 10
0.4776
 20
-0.1453
 30
-0.9142
 70
192
 0
VERTEX
 8
CAP_2_3
 10
0.4788
 20
-0.1453
 30
-0.9163
 70
192
 0
VERTEX
 8
CAP_2_3
 10
0.4799
 20
-0.1453
 30
-0.9188
 70
192
 0
VERTEX
 8
CAP_2_3
 10
0.4807
 20
-0.1453
 30
-0.9215
 70
192
 0
VERTEX
 8
CAP_2_3
 10
0.4812
 20
-0.1453
 30
-0.9236
 70
192
 0
VERTEX
 8
CAP_2_3
 10
0.4817
 20
-0.1453
 30
-0.927
 70
192
 0
VERTEX
 8
CAP_2_3
 10
0.4819
 20
-0.1453
 30
-0.9271
 70
192
 0
VERTEX
 8
CAP_2_3
 10
0.4849
 20
-0.1453
 30
-0.9272
 70
192
 0
VERTEX
 8
CAP_2_3
 10
0.5761
 20
-0.1453
 30
-0.9266
 70
192
 0
VERTEX
 8
CAP_2_3
 10
0.5767
 20
-0.1453
 30
-0.9266
 70
192
 0
VERTEX
 8
CAP_2_3
 10
0.5772
 20
-0.1453
 30
-0.9265
 70
192
 0
VERTEX
 8
CAP_2_3
 10
0.5773
 20
-0.1453
 30
-0.9264
 70
192
 0
VERTEX
 8
CAP_2_3
 10
0.5773
 20
-0.1453
 30
-0.9263
 70
192
 0
VERTEX
 8
CAP_2_3
 10
0.5773
 20
-0.1453
 30
-0.9259
 70
192
 0
VERTEX
 8
CAP_2_3
 10
0.5775
 20
-0.1453
 30
-0.9172
 70
192
 0
VERTEX
 8
CAP_2_3
 10
0.5779
 20
-0.1453
 30
-0.9146
 70
192
 0
VERTEX
 8
CAP_2_3
 10
0.5784
 20
-0.1453
 30
-0.9126
 70
192
 0
VERTEX
 8
CAP_2_3
 10
0.5791
 20
-0.1453
 30
-0.9107
 70
192
 0
VERTEX
 8
CAP_2_3
 10
0.5797
 20
-0.1453
 30
-0.9096
 70
192
 0
VERTEX
 8
CAP_2_3
 10
0.5805
 20
-0.1453
 30
-0.9084
 70
192
 0
VERTEX
 8
CAP_2_3
 10
0.5813
 20
-0.1453
 30
-0.9074
 70
192
 0
VERTEX
 8
CAP_2_3
 10
0.5823
 20
-0.1453
 30
-0.9065
 70
192
 0
VERTEX
 8
CAP_2_3
 10
0.5364
 20
-0.1453
 30
-0.9063
 70
192
 0
VERTEX
 8
CAP_2_3
 10
0.5394
 20
-0.1453
 30
-0.9063
 70
192
 0
VERTEX
 8
CAP_2_3
 10
0.5345
 20
-0.1453
 30
-0.9063
 70
192
 0
VERTEX
 8
CAP_2_3
 10
0.533
 20
-0.1453
 30
-0.9063
 70
192
 0
VERTEX
 8
CAP_2_3
 10
0.5305
 20
-0.1453
 30
-0.9063
 70
192
 0
VERTEX
 8
CAP_2_3
 10
0.5251
 20
-0.1453
 30
-0.9063
 70
192
 0
VERTEX
 8
CAP_2_3
 10
0.5249
 20
-0.1453
 30
-0.9063
 70
192
 0
VERTEX
 8
CAP_2_3
 10
0.5248
 20
-0.1453
 30
-0.9063
 70
192
 0
VERTEX
 8
CAP_2_3
 10
0.5243
 20
-0.1453
 30
-0.9063
 70
192
 0
VERTEX
 8
CAP_2_3
 10
0.5239
 20
-0.1453
 30
-0.9063
 70
192
 0
VERTEX
 8
CAP_2_3
 10
0.523
 20
-0.1453
 30
-0.9063
 70
192
 0
VERTEX
 8
CAP_2_3
 10
0.5219
 20
-0.1453
 30
-0.9063
 70
192
 0
VERTEX
 8
CAP_2_3
 10
0.5204
 20
-0.1453
 30
-0.9063
 70
192
 0
VERTEX
 8
CAP_2_3
 10
0.5184
 20
-0.1453
 30
-0.9063
 70
192
 0
VERTEX
 8
CAP_2_3
 10
0.5156
 20
-0.1453
 30
-0.9063
 70
192
 0
VERTEX
 8
CAP_2_3
 10
0.5117
 20
-0.1453
 30
-0.9063
 70
192
 0
VERTEX
 8
CAP_2_3
 10
0.5063
 20
-0.1453
 30
-0.9063
 70
192
 0
VERTEX
 8
CAP_2_3
 10
0.4984
 20
-0.1453
 30
-0.9063
 70
192
 0
VERTEX
 8
CAP_2_3
 10
0.4824
 20
-0.1453
 30
-0.9063
 70
192
 0
VERTEX
 8
CAP_2_3
 10
0.4679
 20
-0.1453
 30
-0.9063
 70
192
 0
VERTEX
 8
CAP_2_3
 10
0.5763
 20
-0.1453
 30
-0.9063
 70
192
 0
VERTEX
 8
CAP_2_3
 10
0.5825
 20
-0.1453
 30
-0.9063
 70
192
 0
VERTEX
 8
CAP_2_3
 10
0.557
 20
-0.1453
 30
-0.9063
 70
192
 0
VERTEX
 8
CAP_2_3
 10
0.5479
 20
-0.1453
 30
-0.9063
 70
192
 0
VERTEX
 8
CAP_2_3
 10
0.5427
 20
-0.1453
 30
-0.9063
 70
192
 0
VERTEX
 8
CAP_2_3
 10
0
 20
0
 30
0
 70
128
 71
19
 72
18
 73
17
 74
17
 0
VERTEX
 8
CAP_2_3
 10
0
 20
0
 30
0
 70
128
 71
19
 72
17
 73
20
 74
20
 0
VERTEX
 8
CAP_2_3
 10
0
 20
0
 30
0
 70
128
 71
20
 72
17
 73
16
 74
16
 0
VERTEX
 8
CAP_2_3
 10
0
 20
0
 30
0
 70
128
 71
15
 72
20
 73
16
 74
16
 0
VERTEX
 8
CAP_2_3
 10
0
 20
0
 30
0
 70
128
 71
21
 72
20
 73
15
 74
15
 0
VERTEX
 8
CAP_2_3
 10
0
 20
0
 30
0
 70
128
 71
23
 72
29
 73
30
 74
24
 0
VERTEX
 8
CAP_2_3
 10
0
 20
0
 30
0
 70
128
 71
22
 72
31
 73
29
 74
23
 0
VERTEX
 8
CAP_2_3
 10
0
 20
0
 30
0
 70
128
 71
22
 72
21
 73
32
 74
31
 0
VERTEX
 8
CAP_2_3
 10
0
 20
0
 30
0
 70
128
 71
21
 72
15
 73
33
 74
32
 0
VERTEX
 8
CAP_2_3
 10
0
 20
0
 30
0
 70
128
 71
34
 72
33
 73
15
 74
14
 0
VERTEX
 8
CAP_2_3
 10
0
 20
0
 30
0
 70
128
 71
14
 72
13
 73
35
 74
34
 0
VERTEX
 8
CAP_2_3
 10
0
 20
0
 30
0
 70
128
 71
13
 72
12
 73
36
 74
35
 0
VERTEX
 8
CAP_2_3
 10
0
 20
0
 30
0
 70
128
 71
11
 72
37
 73
36
 74
12
 0
VERTEX
 8
CAP_2_3
 10
0
 20
0
 30
0
 70
128
 71
10
 72
38
 73
37
 74
11
 0
VERTEX
 8
CAP_2_3
 10
0
 20
0
 30
0
 70
128
 71
9
 72
39
 73
38
 74
10
 0
VERTEX
 8
CAP_2_3
 10
0
 20
0
 30
0
 70
128
 71
9
 72
8
 73
40
 74
39
 0
VERTEX
 8
CAP_2_3
 10
0
 20
0
 30
0
 70
128
 71
8
 72
7
 73
41
 74
40
 0
VERTEX
 8
CAP_2_3
 10
0
 20
0
 30
0
 70
128
 71
7
 72
6
 73
42
 74
41
 0
VERTEX
 8
CAP_2_3
 10
0
 20
0
 30
0
 70
128
 71
6
 72
5
 73
43
 74
42
 0
VERTEX
 8
CAP_2_3
 10
0
 20
0
 30
0
 70
128
 71
5
 72
4
 73
44
 74
43
 0
VERTEX
 8
CAP_2_3
 10
0
 20
0
 30
0
 70
128
 71
4
 72
3
 73
45
 74
44
 0
VERTEX
 8
CAP_2_3
 10
0
 20
0
 30
0
 70
128
 71
3
 72
2
 73
46
 74
45
 0
VERTEX
 8
CAP_2_3
 10
0
 20
0
 30
0
 70
128
 71
2
 72
1
 73
47
 74
46
 0
VERTEX
 8
CAP_2_3
 10
0
 20
0
 30
0
 70
128
 71
1
 72
48
 73
47
 74
47
 0
VERTEX
 8
CAP_2_3
 10
0
 20
0
 30
0
 70
128
 71
28
 72
49
 73
50
 74
50
 0
VERTEX
 8
CAP_2_3
 10
0
 20
0
 30
0
 70
128
 71
27
 72
51
 73
49
 74
28
 0
VERTEX
 8
CAP_2_3
 10
0
 20
0
 30
0
 70
128
 71
26
 72
52
 73
51
 74
27
 0
VERTEX
 8
CAP_2_3
 10
0
 20
0
 30
0
 70
128
 71
25
 72
53
 73
52
 74
26
 0
VERTEX
 8
CAP_2_3
 10
0
 20
0
 30
0
 70
128
 71
24
 72
30
 73
53
 74
25
 0
SEQEND
 0
POLYLINE
 8
CUBE_3
 66
1
 10
0.0
 20
0.0
 30
0.0
 70
64
 71
63
 72
58
 0
VERTEX
 8
CUBE_3
 10
0.2867
 20
-0.2904
 30
-0.8651
 70
192
 0
VERTEX
 8
CUBE_3
 10
0.2867
 20
-0.2904
 30
-0.6982
 70
192
 0
VERTEX
 8
CUBE_3
 10
0.7878
 20
-0.2904
 30
-0.8651
 70
192
 0
VERTEX
 8
CUBE_3
 10
0.7878
 20
-0.2904
 30
-0.6982
 70
192
 0
VERTEX
 8
CUBE_3
 10
0.7878
 20
0.1186
 30
-0.8651
 70
192
 0
VERTEX
 8
CUBE_3
 10
0.7878
 20
0.1186
 30
-0.6982
 70
192
 0
VERTEX
 8
CUBE_3
 10
0.2867
 20
0.1186
 30
-0.8651
 70
192
 0
VERTEX
 8
CUBE_3
 10
0.2867
 20
0.1186
 30
-0.6982
 70
192
 0
VERTEX
 8
CUBE_3
 10
0.5825
 20
-0.2904
 30
-0.6982
 70
192
 0
VERTEX
 8
CUBE_3
 10
0.4679
 20
-0.2904
 30
-0.6982
 70
192
 0
VERTEX
 8
CUBE_3
 10
0.4707
 20
-0.2904
 30
-0.6994
 70
192
 0
VERTEX
 8
CUBE_3
 10
0.469
 20
-0.2904
 30
-0.6986
 70
192
 0
VERTEX
 8
CUBE_3
 10
0.4735
 20
-0.2904
 30
-0.7013
 70
192
 0
VERTEX
 8
CUBE_3
 10
0.4721
 20
-0.2904
 30
-0.7003
 70
192
 0
VERTEX
 8
CUBE_3
 10
0.4763
 20
-0.2904
 30
-0.7042
 70
192
 0
VERTEX
 8
CUBE_3
 10
0.4749
 20
-0.2904
 30
-0.7026
 70
192
 0
VERTEX
 8
CUBE_3
 10
0.4776
 20
-0.2904
 30
-0.706
 70
192
 0
VERTEX
 8
CUBE_3
 10
0.4788
 20
-0.2904
 30
-0.7082
 70
192
 0
VERTEX
 8
CUBE_3
 10
0.4799
 20
-0.2904
 30
-0.7106
 70
192
 0
VERTEX
 8
CUBE_3
 10
0.4817
 20
-0.2904
 30
-0.7189
 70
192
 0
VERTEX
 8
CUBE_3
 10
0.4812
 20
-0.2904
 30
-0.7154
 70
192
 0
VERTEX
 8
CUBE_3
 10
0.4819
 20
-0.2904
 30
-0.7189
 70
192
 0
VERTEX
 8
CUBE_3
 10
0.4849
 20
-0.2904
 30
-0.719
 70
192
 0
VERTEX
 8
CUBE_3
 10
0.5761
 20
-0.2904
 30
-0.7184
 70
192
 0
VERTEX
 8
CUBE_3
 10
0.5767
 20
-0.2904
 30
-0.7184
 70
192
 0
VERTEX
 8
CUBE_3
 10
0.4807
 20
-0.2904
 30
-0.7134
 70
192
 0
VERTEX
 8
CUBE_3
 10
0.5772
 20
-0.2904
 30
-0.7183
 70
192
 0
VERTEX
 8
CUBE_3
 10
0.5773
 20
-0.2904
 30
-0.7181
 70
192
 0
VERTEX
 8
CUBE_3
 10
0.5773
 20
-0.2904
 30
-0.7182
 70
192
 0
VERTEX
 8
CUBE_3
 10
0.5773
 20
-0.2904
 30
-0.7178
 70
192
 0
VERTEX
 8
CUBE_3
 10
0.5775
 20
-0.2904
 30
-0.709
 70
192
 0
VERTEX
 8
CUBE_3
 10
0.5779
 20
-0.2904
 30
-0.7064
 70
192
 0
VERTEX
 8
CUBE_3
 10
0.5797
 20
-0.2904
 30
-0.7014
 70
192
 0
VERTEX
 8
CUBE_3
 10
0.5791
 20
-0.2904
 30
-0.7026
 70
192
 0
VERTEX
 8
CUBE_3
 10
0.5805
 20
-0.2904
 30
-0.7003
 70
192
 0
VERTEX
 8
CUBE_3
 10
0.5813
 20
-0.2904
 30
-0.6993
 70
192
 0
VERTEX
 8
CUBE_3
 10
0.5823
 20
-0.2904
 30
-0.6983
 70
192
 0
VERTEX
 8
CUBE_3
 10
0.5784
 20
-0.2904
 30
-0.7045
 70
192
 0
VERTEX
 8
CUBE_3
 10
0.4679
 20
-0.1253
 30
-0.6982
 70
192
 0
VERTEX
 8
CUBE_3
 10
0.5825
 20
-0.1253
 30
-0.6982
 70
192
 0
VERTEX
 8
CUBE_3
 10
0.5364
 20
-0.1253
 30
-0.6982
 70
192
 0
VERTEX
 8
CUBE_3
 10
0.5394
 20
-0.1253
 30
-0.6982
 70
192
 0
VERTEX
 8
CUBE_3
 10
0.5345
 20
-0.1253
 30
-0.6982
 70
192
 0
VERTEX
 8
CUBE_3
 10
0.533
 20
-0.1253
 30
-0.6982
 70
192
 0
VERTEX
 8
CUBE_3
 10
0.5305
 20
-0.1253
 30
-0.6982
 70
192
 0
VERTEX
 8
CUBE_3
 10
0.5251
 20
-0.1253
 30
-0.6982
 70
192
 0
VERTEX
 8
CUBE_3
 10
0.5249
 20
-0.1253
 30
-0.6982
 70
192
 0
VERTEX
 8
CUBE_3
 10
0.5248
 20
-0.1253
 30
-0.6982
 70
192
 0
VERTEX
 8
CUBE_3
 10
0.5243
 20
-0.1253
 30
-0.6982
 70
192
 0
VERTEX
 8
CUBE_3
 10
0.5239
 20
-0.1253
 30
-0.6982
 70
192
 0
VERTEX
 8
CUBE_3
 10
0.523
 20
-0.1253
 30
-0.6982
 70
192
 0
VERTEX
 8
CUBE_3
 10
0.5219
 20
-0.1253
 30
-0.6982
 70
192
 0
VERTEX
 8
CUBE_3
 10
0.5204
 20
-0.1253
 30
-0.6982
 70
192
 0
VERTEX
 8
CUBE_3
 10
0.5184
 20
-0.1253
 30
-0.6982
 70
192
 0
VERTEX
 8
CUBE_3
 10
0.5156
 20
-0.1253
 30
-0.6982
 70
192
 0
VERTEX
 8
CUBE_3
 10
0.5117
 20
-0.1253
 30
-0.6982
 70
192
 0
VERTEX
 8
CUBE_3
 10
0.5063
 20
-0.1253
 30
-0.6982
 70
192
 0
VERTEX
 8
CUBE_3
 10
0.4984
 20
-0.1253
 30
-0.6982
 70
192
 0
VERTEX
 8
CUBE_3
 10
0.4824
 20
-0.1253
 30
-0.6982
 70
192
 0
VERTEX
 8
CUBE_3
 10
0.5763
 20
-0.1253
 30
-0.6982
 70
192
 0
VERTEX
 8
CUBE_3
 10
0.557
 20
-0.1253
 30
-0.6982
 70
192
 0
VERTEX
 8
CUBE_3
 10
0.5479
 20
-0.1253
 30
-0.6982
 70
192
 0
VERTEX
 8
CUBE_3
 10
0.5427
 20
-0.1253
 30
-0.6982
 70
192
 0
VERTEX
 8
CUBE_3
 10
0
 20
0
 30
0
 70
128
 71
4
 72
3
 73
29
 74
29
 0
VERTEX
 8
CUBE_3
 10
0
 20
0
 30
0
 70
128
 71
1
 72
2
 73
10
 74
10
 0
VERTEX
 8
CUBE_3
 10
0
 20
0
 30
0
 70
128
 71
37
 72
9
 73
4
 74
4
 0
VERTEX
 8
CUBE_3
 10
0
 20
0
 30
0
 70
128
 71
30
 72
31
 73
32
 74
38
 0
VERTEX
 8
CUBE_3
 10
0
 20
0
 30
0
 70
128
 71
35
 72
36
 73
4
 74
4
 0
VERTEX
 8
CUBE_3
 10
0
 20
0
 30
0
 70
128
 71
38
 72
34
 73
33
 74
33
 0
VERTEX
 8
CUBE_3
 10
0
 20
0
 30
0
 70
128
 71
15
 72
17
 73
18
 74
16
 0
VERTEX
 8
CUBE_3
 10
0
 20
0
 30
0
 70
128
 71
13
 72
16
 73
1
 74
1
 0
VERTEX
 8
CUBE_3
 10
0
 20
0
 30
0
 70
128
 71
10
 72
12
 73
1
 74
1
 0
VERTEX
 8
CUBE_3
 10
0
 20
0
 30
0
 70
128
 71
11
 72
14
 73
1
 74
1
 0
VERTEX
 8
CUBE_3
 10
0
 20
0
 30
0
 70
128
 71
1
 72
12
 73
11
 74
11
 0
VERTEX
 8
CUBE_3
 10
0
 20
0
 30
0
 70
128
 71
36
 72
37
 73
4
 74
4
 0
VERTEX
 8
CUBE_3
 10
0
 20
0
 30
0
 70
128
 71
19
 72
26
 73
21
 74
20
 0
VERTEX
 8
CUBE_3
 10
0
 20
0
 30
0
 70
128
 71
38
 72
33
 73
4
 74
4
 0
VERTEX
 8
CUBE_3
 10
0
 20
0
 30
0
 70
128
 71
1
 72
14
 73
13
 74
13
 0
VERTEX
 8
CUBE_3
 10
0
 20
0
 30
0
 70
128
 71
33
 72
35
 73
4
 74
4
 0
VERTEX
 8
CUBE_3
 10
0
 20
0
 30
0
 70
128
 71
16
 72
18
 73
19
 74
20
 0
VERTEX
 8
CUBE_3
 10
0
 20
0
 30
0
 70
128
 71
28
 72
30
 73
4
 74
4
 0
VERTEX
 8
CUBE_3
 10
0
 20
0
 30
0
 70
128
 71
30
 72
38
 73
4
 74
4
 0
VERTEX
 8
CUBE_3
 10
0
 20
0
 30
0
 70
128
 71
1
 72
16
 73
20
 74
20
 0
VERTEX
 8
CUBE_3
 10
0
 20
0
 30
0
 70
128
 71
29
 72
28
 73
4
 74
4
 0
VERTEX
 8
CUBE_3
 10
0
 20
0
 30
0
 70
128
 71
1
 72
20
 73
22
 74
22
 0
VERTEX
 8
CUBE_3
 10
0
 20
0
 30
0
 70
128
 71
27
 72
29
 73
3
 74
3
 0
VERTEX
 8
CUBE_3
 10
0
 20
0
 30
0
 70
128
 71
1
 72
22
 73
23
 74
23
 0
VERTEX
 8
CUBE_3
 10
0
 20
0
 30
0
 70
128
 71
1
 72
23
 73
24
 74
24
 0
VERTEX
 8
CUBE_3
 10
0
 20
0
 30
0
 70
128
 71
27
 72
3
 73
25
 74
25
 0
VERTEX
 8
CUBE_3
 10
0
 20
0
 30
0
 70
128
 71
1
 72
24
 73
25
 74
25
 0
VERTEX
 8
CUBE_3
 10
0
 20
0
 30
0
 70
128
 71
25
 72
3
 73
1
 74
1
 0
VERTEX
 8
CUBE_3
 10
0
 20
0
 30
0
 70
128
 71
3
 72
4
 73
6
 74
5
 0
VERTEX
 8
CUBE_3
 10
0
 20
0
 30
0
 70
128
 71
5
 72
6
 73
8
 74
7
 0
VERTEX
 8
CUBE_3
 10
0
 20
0
 30
0
 70
128
 71
7
 72
8
 73
2
 74
1
 0
VERTEX
 8
CUBE_3
 10
0
 20
0
 30
0
 70
128
 71
40
 72
60
 73
8
 74
6
 0
VERTEX
 8
CUBE_3
 10
0
 20
0
 30
0
 70
128
 71
42
 72
41
 73
8
 74
8
 0
VERTEX
 8
CUBE_3
 10
0
 20
0
 30
0
 70
128
 71
43
 72
44
 73
8
 74
8
 0
VERTEX
 8
CUBE_3
 10
0
 20
0
 30
0
 70
128
 71
55
 72
56
 73
8
 74
8
 0
VERTEX
 8
CUBE_3
 10
0
 20
0
 30
0
 70
128
 71
57
 72
58
 73
8
 74
8
 0
VERTEX
 8
CUBE_3
 10
0
 20
0
 30
0
 70
128
 71
51
 72
52
 73
8
 74
8
 0
VERTEX
 8
CUBE_3
 10
0
 20
0
 30
0
 70
128
 71
39
 72
10
 73
2
 74
8
 0
VERTEX
 8
CUBE_3
 10
0
 20
0
 30
0
 70
128
 71
6
 72
4
 73
9
 74
40
 0
VERTEX
 8
CUBE_3
 10
0
 20
0
 30
0
 70
128
 71
54
 72
55
 73
8
 74
8
 0
VERTEX
 8
CUBE_3
 10
0
 20
0
 30
0
 70
128
 71
58
 72
59
 73
8
 74
8
 0
VERTEX
 8
CUBE_3
 10
0
 20
0
 30
0
 70
128
 71
59
 72
39
 73
8
 74
8
 0
VERTEX
 8
CUBE_3
 10
0
 20
0
 30
0
 70
128
 71
8
 72
60
 73
61
 74
61
 0
VERTEX
 8
CUBE_3
 10
0
 20
0
 30
0
 70
128
 71
53
 72
54
 73
8
 74
8
 0
VERTEX
 8
CUBE_3
 10
0
 20
0
 30
0
 70
128
 71
56
 72
57
 73
8
 74
8
 0
VERTEX
 8
CUBE_3
 10
0
 20
0
 30
0
 70
128
 71
8
 72
61
 73
62
 74
62
 0
VERTEX
 8
CUBE_3
 10
0
 20
0
 30
0
 70
128
 71
52
 72
53
 73
8
 74
8
 0
VERTEX
 8
CUBE_3
 10
0
 20
0
 30
0
 70
128
 71
8
 72
62
 73
63
 74
63
 0
VERTEX
 8
CUBE_3
 10
0
 20
0
 30
0
 70
128
 71
50
 72
51
 73
8
 74
8
 0
VERTEX
 8
CUBE_3
 10
0
 20
0
 30
0
 70
128
 71
8
 72
63
 73
42
 74
42
 0
VERTEX
 8
CUBE_3
 10
0
 20
0
 30
0
 70
128
 71
49
 72
50
 73
8
 74
8
 0
VERTEX
 8
CUBE_3
 10
0
 20
0
 30
0
 70
128
 71
8
 72
41
 73
43
 74
43
 0
VERTEX
 8
CUBE_3
 10
0
 20
0
 30
0
 70
128
 71
48
 72
49
 73
8
 74
8
 0
VERTEX
 8
CUBE_3
 10
0
 20
0
 30
0
 70
128
 71
8
 72
44
 73
45
 74
45
 0
VERTEX
 8
CUBE_3
 10
0
 20
0
 30
0
 70
128
 71
47
 72
48
 73
8
 74
8
 0
VERTEX
 8
CUBE_3
 10
0
 20
0
 30
0
 70
128
 71
8
 72
45
 73
46
 74
46
 0
VERTEX
 8
CUBE_3
 10
0
 20
0
 30
0
 70
128
 71
46
 72
47
 73
8
 74
8
 0
VERTEX
 8
CUBE_3
 10
0
 20
0
 30
0
 70
128
 71
7
 72
1
 73
3
 74
5
 0
SEQEND
 0
POLYLINE
 8
EXTRUDE_5
 66
1
 10
0.0
 20
0.0
 30
0.0
 70
64
 71
60
 72
29
 0
VERTEX
 8
EXTRUDE_5
 10
0.469
 20
-0.1253
 30
-0.6986
 70
192
 0
VERTEX
 8
EXTRUDE_5
 10
0.4707
 20
-0.1253
 30
-0.6994
 70
192
 0
VERTEX
 8
EXTRUDE_5
 10
0.4721
 20
-0.1253
 30
-0.7003
 70
192
 0
VERTEX
 8
EXTRUDE_5
 10
0.4735
 20
-0.1253
 30
-0.7013
 70
192
 0
VERTEX
 8
EXTRUDE_5
 10
0.4749
 20
-0.1253
 30
-0.7026
 70
192
 0
VERTEX
 8
EXTRUDE_5
 10
0.4763
 20
-0.1253
 30
-0.7042
 70
192
 0
VERTEX
 8
EXTRUDE_5
 10
0.4776
 20
-0.1253
 30
-0.706
 70
192
 0
VERTEX
 8
EXTRUDE_5
 10
0.4788
 20
-0.1253
 30
-0.7082
 70
192
 0
VERTEX
 8
EXTRUDE_5
 10
0.4799
 20
-0.1253
 30
-0.7106
 70
192
 0
VERTEX
 8
EXTRUDE_5
 10
0.4807
 20
-0.1253
 30
-0.7134
 70
192
 0
VERTEX
 8
EXTRUDE_5
 10
0.4812
 20
-0.1253
 30
-0.7154
 70
192
 0
VERTEX
 8
EXTRUDE_5
 10
0.4817
 20
-0.1253
 30
-0.7189
 70
192
 0
VERTEX
 8
EXTRUDE_5
 10
0.4819
 20
-0.1253
 30
-0.7189
 70
192
 0
VERTEX
 8
EXTRUDE_5
 10
0.4849
 20
-0.1253
 30
-0.719
 70
192
 0
VERTEX
 8
EXTRUDE_5
 10
0.5761
 20
-0.1253
 30
-0.7184
 70
192
 0
VERTEX
 8
EXTRUDE_5
 10
0.5767
 20
-0.1253
 30
-0.7184
 70
192
 0
VERTEX
 8
EXTRUDE_5
 10
0.5772
 20
-0.1253
 30
-0.7183
 70
192
 0
VERTEX
 8
EXTRUDE_5
 10
0.5773
 20
-0.1253
 30
-0.7182
 70
192
 0
VERTEX
 8
EXTRUDE_5
 10
0.5773
 20
-0.1253
 30
-0.7181
 70
192
 0
VERTEX
 8
EXTRUDE_5
 10
0.5773
 20
-0.1253
 30
-0.7178
 70
192
 0
VERTEX
 8
EXTRUDE_5
 10
0.5775
 20
-0.1253
 30
-0.709
 70
192
 0
VERTEX
 8
EXTRUDE_5
 10
0.5779
 20
-0.1253
 30
-0.7064
 70
192
 0
VERTEX
 8
EXTRUDE_5
 10
0.5784
 20
-0.1253
 30
-0.7045
 70
192
 0
VERTEX
 8
EXTRUDE_5
 10
0.5791
 20
-0.1253
 30
-0.7026
 70
192
 0
VERTEX
 8
EXTRUDE_5
 10
0.5797
 20
-0.1253
 30
-0.7014
 70
192
 0
VERTEX
 8
EXTRUDE_5
 10
0.5805
 20
-0.1253
 30
-0.7003
 70
192
 0
VERTEX
 8
EXTRUDE_5
 10
0.5813
 20
-0.1253
 30
-0.6993
 70
192
 0
VERTEX
 8
EXTRUDE_5
 10
0.5823
 20
-0.1253
 30
-0.6983
 70
192
 0
VERTEX
 8
EXTRUDE_5
 10
0.469
 20
-0.2904
 30
-0.6986
 70
192
 0
VERTEX
 8
EXTRUDE_5
 10
0.4788
 20
-0.2904
 30
-0.7082
 70
192
 0
VERTEX
 8
EXTRUDE_5
 10
0.4707
 20
-0.2904
 30
-0.6994
 70
192
 0
VERTEX
 8
EXTRUDE_5
 10
0.4721
 20
-0.2904
 30
-0.7003
 70
192
 0
VERTEX
 8
EXTRUDE_5
 10
0.4735
 20
-0.2904
 30
-0.7013
 70
192
 0
VERTEX
 8
EXTRUDE_5
 10
0.4749
 20
-0.2904
 30
-0.7026
 70
192
 0
VERTEX
 8
EXTRUDE_5
 10
0.4763
 20
-0.2904
 30
-0.7042
 70
192
 0
VERTEX
 8
EXTRUDE_5
 10
0.4776
 20
-0.2904
 30
-0.706
 70
192
 0
VERTEX
 8
EXTRUDE_5
 10
0.4819
 20
-0.2904
 30
-0.7189
 70
192
 0
VERTEX
 8
EXTRUDE_5
 10
0.4799
 20
-0.2904
 30
-0.7106
 70
192
 0
VERTEX
 8
EXTRUDE_5
 10
0.4807
 20
-0.2904
 30
-0.7134
 70
192
 0
VERTEX
 8
EXTRUDE_5
 10
0.4812
 20
-0.2904
 30
-0.7154
 70
192
 0
VERTEX
 8
EXTRUDE_5
 10
0.4817
 20
-0.2904
 30
-0.7189
 70
192
 0
VERTEX
 8
EXTRUDE_5
 10
0.4849
 20
-0.2904
 30
-0.719
 70
192
 0
VERTEX
 8
EXTRUDE_5
 10
0.5775
 20
-0.2904
 30
-0.709
 70
192
 0
VERTEX
 8
EXTRUDE_5
 10
0.5761
 20
-0.2904
 30
-0.7184
 70
192
 0
VERTEX
 8
EXTRUDE_5
 10
0.5767
 20
-0.2904
 30
-0.7184
 70
192
 0
VERTEX
 8
EXTRUDE_5
 10
0.5772
 20
-0.2904
 30
-0.7183
 70
192
 0
VERTEX
 8
EXTRUDE_5
 10
0.5773
 20
-0.2904
 30
-0.7182
 70
192
 0
VERTEX
 8
EXTRUDE_5
 10
0.5773
 20
-0.2904
 30
-0.7181
 70
192
 0
VERTEX
 8
EXTRUDE_5
 10
0.5773
 20
-0.2904
 30
-0.7178
 70
192
 0
VERTEX
 8
EXTRUDE_5
 10
0.5805
 20
-0.2904
 30
-0.7003
 70
192
 0
VERTEX
 8
EXTRUDE_5
 10
0.5779
 20
-0.2904
 30
-0.7064
 70
192
 0
VERTEX
 8
EXTRUDE_5
 10
0.5784
 20
-0.2904
 30
-0.7045
 70
192
 0
VERTEX
 8
EXTRUDE_5
 10
0.5791
 20
-0.2904
 30
-0.7026
 70
192
 0
VERTEX
 8
EXTRUDE_5
 10
0.5797
 20
-0.2904
 30
-0.7014
 70
192
 0
VERTEX
 8
EXTRUDE_5
 10
0.5813
 20
-0.2904
 30
-0.6993
 70
192
 0
VERTEX
 8
EXTRUDE_5
 10
0.5825
 20
-0.1253
 30
-0.6982
 70
192
 0
VERTEX
 8
EXTRUDE_5
 10
0.5823
 20
-0.2904
 30
-0.6983
 70
192
 0
VERTEX
 8
EXTRUDE_5
 10
0.4679
 20
-0.1253
 30
-0.6982
 70
192
 0
VERTEX
 8
EXTRUDE_5
 10
0.4679
 20
-0.2904
 30
-0.6982
 70
192
 0
VERTEX
 8
EXTRUDE_5
 10
0.5825
 20
-0.2904
 30
-0.6982
 70
192
 0
VERTEX
 8
EXTRUDE_5
 10
0
 20
0
 30
0
 70
128
 71
1
 72
29
 73
59
 74
58
 0
VERTEX
 8
EXTRUDE_5
 10
0
 20
0
 30
0
 70
128
 71
2
 72
31
 73
29
 74
1
 0
VERTEX
 8
EXTRUDE_5
 10
0
 20
0
 30
0
 70
128
 71
3
 72
32
 73
31
 74
2
 0
VERTEX
 8
EXTRUDE_5
 10
0
 20
0
 30
0
 70
128
 71
4
 72
33
 73
32
 74
3
 0
VERTEX
 8
EXTRUDE_5
 10
0
 20
0
 30
0
 70
128
 71
5
 72
34
 73
33
 74
4
 0
VERTEX
 8
EXTRUDE_5
 10
0
 20
0
 30
0
 70
128
 71
6
 72
35
 73
34
 74
5
 0
VERTEX
 8
EXTRUDE_5
 10
0
 20
0
 30
0
 70
128
 71
7
 72
36
 73
35
 74
6
 0
VERTEX
 8
EXTRUDE_5
 10
0
 20
0
 30
0
 70
128
 71
8
 72
30
 73
36
 74
7
 0
VERTEX
 8
EXTRUDE_5
 10
0
 20
0
 30
0
 70
128
 71
9
 72
38
 73
30
 74
8
 0
VERTEX
 8
EXTRUDE_5
 10
0
 20
0
 30
0
 70
128
 71
10
 72
39
 73
38
 74
9
 0
VERTEX
 8
EXTRUDE_5
 10
0
 20
0
 30
0
 70
128
 71
11
 72
40
 73
39
 74
10
 0
VERTEX
 8
EXTRUDE_5
 10
0
 20
0
 30
0
 70
128
 71
12
 72
41
 73
40
 74
11
 0
VERTEX
 8
EXTRUDE_5
 10
0
 20
0
 30
0
 70
128
 71
13
 72
37
 73
41
 74
12
 0
VERTEX
 8
EXTRUDE_5
 10
0
 20
0
 30
0
 70
128
 71
14
 72
42
 73
37
 74
13
 0
VERTEX
 8
EXTRUDE_5
 10
0
 20
0
 30
0
 70
128
 71
15
 72
44
 73
42
 74
14
 0
VERTEX
 8
EXTRUDE_5
 10
0
 20
0
 30
0
 70
128
 71
16
 72
45
 73
44
 74
15
 0
VERTEX
 8
EXTRUDE_5
 10
0
 20
0
 30
0
 70
128
 71
17
 72
46
 73
45
 74
16
 0
VERTEX
 8
EXTRUDE_5
 10
0
 20
0
 30
0
 70
128
 71
18
 72
47
 73
46
 74
17
 0
VERTEX
 8
EXTRUDE_5
 10
0
 20
0
 30
0
 70
128
 71
19
 72
48
 73
47
 74
18
 0
VERTEX
 8
EXTRUDE_5
 10
0
 20
0
 30
0
 70
128
 71
20
 72
49
 73
48
 74
19
 0
VERTEX
 8
EXTRUDE_5
 10
0
 20
0
 30
0
 70
128
 71
21
 72
43
 73
49
 74
20
 0
VERTEX
 8
EXTRUDE_5
 10
0
 20
0
 30
0
 70
128
 71
22
 72
51
 73
43
 74
21
 0
VERTEX
 8
EXTRUDE_5
 10
0
 20
0
 30
0
 70
128
 71
23
 72
52
 73
51
 74
22
 0
VERTEX
 8
EXTRUDE_5
 10
0
 20
0
 30
0
 70
128
 71
24
 72
53
 73
52
 74
23
 0
VERTEX
 8
EXTRUDE_5
 10
0
 20
0
 30
0
 70
128
 71
25
 72
54
 73
53
 74
24
 0
VERTEX
 8
EXTRUDE_5
 10
0
 20
0
 30
0
 70
128
 71
26
 72
50
 73
54
 74
25
 0
VERTEX
 8
EXTRUDE_5
 10
0
 20
0
 30
0
 70
128
 71
27
 72
55
 73
50
 74
26
 0
VERTEX
 8
EXTRUDE_5
 10
0
 20
0
 30
0
 70
128
 71
28
 72
57
 73
55
 74
27
 0
VERTEX
 8
EXTRUDE_5
 10
0
 20
0
 30
0
 70
128
 71
56
 72
60
 73
57
 74
28
 0
SEQEND
 0
POLYLINE
 8
CAP_2_4
 66
1
 10
0.0
 20
0.0
 30
0.0
 70
64
 71
53
 72
29
 0
VERTEX
 8
CAP_2_4
 10
0.469
 20
-0.1253
 30
-0.6986
 70
192
 0
VERTEX
 8
CAP_2_4
 10
0.4707
 20
-0.1253
 30
-0.6994
 70
192
 0
VERTEX
 8
CAP_2_4
 10
0.4721
 20
-0.1253
 30
-0.7003
 70
192
 0
VERTEX
 8
CAP_2_4
 10
0.4735
 20
-0.1253
 30
-0.7013
 70
192
 0
VERTEX
 8
CAP_2_4
 10
0.4749
 20
-0.1253
 30
-0.7026
 70
192
 0
VERTEX
 8
CAP_2_4
 10
0.4763
 20
-0.1253
 30
-0.7042
 70
192
 0
VERTEX
 8
CAP_2_4
 10
0.4776
 20
-0.1253
 30
-0.706
 70
192
 0
VERTEX
 8
CAP_2_4
 10
0.4788
 20
-0.1253
 30
-0.7082
 70
192
 0
VERTEX
 8
CAP_2_4
 10
0.4799
 20
-0.1253
 30
-0.7106
 70
192
 0
VERTEX
 8
CAP_2_4
 10
0.4807
 20
-0.1253
 30
-0.7134
 70
192
 0
VERTEX
 8
CAP_2_4
 10
0.4812
 20
-0.1253
 30
-0.7154
 70
192
 0
VERTEX
 8
CAP_2_4
 10
0.4817
 20
-0.1253
 30
-0.7189
 70
192
 0
VERTEX
 8
CAP_2_4
 10
0.4819
 20
-0.1253
 30
-0.7189
 70
192
 0
VERTEX
 8
CAP_2_4
 10
0.4849
 20
-0.1253
 30
-0.719
 70
192
 0
VERTEX
 8
CAP_2_4
 10
0.5761
 20
-0.1253
 30
-0.7184
 70
192
 0
VERTEX
 8
CAP_2_4
 10
0.5767
 20
-0.1253
 30
-0.7184
 70
192
 0
VERTEX
 8
CAP_2_4
 10
0.5772
 20
-0.1253
 30
-0.7183
 70
192
 0
VERTEX
 8
CAP_2_4
 10
0.5773
 20
-0.1253
 30
-0.7182
 70
192
 0
VERTEX
 8
CAP_2_4
 10
0.5773
 20
-0.1253
 30
-0.7181
 70
192
 0
VERTEX
 8
CAP_2_4
 10
0.5773
 20
-0.1253
 30
-0.7178
 70
192
 0
VERTEX
 8
CAP_2_4
 10
0.5775
 20
-0.1253
 30
-0.709
 70
192
 0
VERTEX
 8
CAP_2_4
 10
0.5779
 20
-0.1253
 30
-0.7064
 70
192
 0
VERTEX
 8
CAP_2_4
 10
0.5784
 20
-0.1253
 30
-0.7045
 70
192
 0
VERTEX
 8
CAP_2_4
 10
0.5791
 20
-0.1253
 30
-0.7026
 70
192
 0
VERTEX
 8
CAP_2_4
 10
0.5797
 20
-0.1253
 30
-0.7014
 70
192
 0
VERTEX
 8
CAP_2_4
 10
0.5805
 20
-0.1253
 30
-0.7003
 70
192
 0
VERTEX
 8
CAP_2_4
 10
0.5813
 20
-0.1253
 30
-0.6993
 70
192
 0
VERTEX
 8
CAP_2_4
 10
0.5823
 20
-0.1253
 30
-0.6983
 70
192
 0
VERTEX
 8
CAP_2_4
 10
0.5364
 20
-0.1253
 30
-0.6982
 70
192
 0
VERTEX
 8
CAP_2_4
 10
0.5394
 20
-0.1253
 30
-0.6982
 70
192
 0
VERTEX
 8
CAP_2_4
 10
0.5345
 20
-0.1253
 30
-0.6982
 70
192
 0
VERTEX
 8
CAP_2_4
 10
0.533
 20
-0.1253
 30
-0.6982
 70
192
 0
VERTEX
 8
CAP_2_4
 10
0.5305
 20
-0.1253
 30
-0.6982
 70
192
 0
VERTEX
 8
CAP_2_4
 10
0.5251
 20
-0.1253
 30
-0.6982
 70
192
 0
VERTEX
 8
CAP_2_4
 10
0.5249
 20
-0.1253
 30
-0.6982
 70
192
 0
VERTEX
 8
CAP_2_4
 10
0.5248
 20
-0.1253
 30
-0.6982
 70
192
 0
VERTEX
 8
CAP_2_4
 10
0.5243
 20
-0.1253
 30
-0.6982
 70
192
 0
VERTEX
 8
CAP_2_4
 10
0.5239
 20
-0.1253
 30
-0.6982
 70
192
 0
VERTEX
 8
CAP_2_4
 10
0.523
 20
-0.1253
 30
-0.6982
 70
192
 0
VERTEX
 8
CAP_2_4
 10
0.5219
 20
-0.1253
 30
-0.6982
 70
192
 0
VERTEX
 8
CAP_2_4
 10
0.5204
 20
-0.1253
 30
-0.6982
 70
192
 0
VERTEX
 8
CAP_2_4
 10
0.5184
 20
-0.1253
 30
-0.6982
 70
192
 0
VERTEX
 8
CAP_2_4
 10
0.5156
 20
-0.1253
 30
-0.6982
 70
192
 0
VERTEX
 8
CAP_2_4
 10
0.5117
 20
-0.1253
 30
-0.6982
 70
192
 0
VERTEX
 8
CAP_2_4
 10
0.5063
 20
-0.1253
 30
-0.6982
 70
192
 0
VERTEX
 8
CAP_2_4
 10
0.4984
 20
-0.1253
 30
-0.6982
 70
192
 0
VERTEX
 8
CAP_2_4
 10
0.4824
 20
-0.1253
 30
-0.6982
 70
192
 0
VERTEX
 8
CAP_2_4
 10
0.4679
 20
-0.1253
 30
-0.6982
 70
192
 0
VERTEX
 8
CAP_2_4
 10
0.5763
 20
-0.1253
 30
-0.6982
 70
192
 0
VERTEX
 8
CAP_2_4
 10
0.5825
 20
-0.1253
 30
-0.6982
 70
192
 0
VERTEX
 8
CAP_2_4
 10
0.557
 20
-0.1253
 30
-0.6982
 70
192
 0
VERTEX
 8
CAP_2_4
 10
0.5479
 20
-0.1253
 30
-0.6982
 70
192
 0
VERTEX
 8
CAP_2_4
 10
0.5427
 20
-0.1253
 30
-0.6982
 70
192
 0
VERTEX
 8
CAP_2_4
 10
0
 20
0
 30
0
 70
128
 71
19
 72
18
 73
17
 74
17
 0
VERTEX
 8
CAP_2_4
 10
0
 20
0
 30
0
 70
128
 71
19
 72
17
 73
20
 74
20
 0
VERTEX
 8
CAP_2_4
 10
0
 20
0
 30
0
 70
128
 71
20
 72
17
 73
16
 74
16
 0
VERTEX
 8
CAP_2_4
 10
0
 20
0
 30
0
 70
128
 71
15
 72
20
 73
16
 74
16
 0
VERTEX
 8
CAP_2_4
 10
0
 20
0
 30
0
 70
128
 71
21
 72
20
 73
15
 74
15
 0
VERTEX
 8
CAP_2_4
 10
0
 20
0
 30
0
 70
128
 71
23
 72
29
 73
30
 74
24
 0
VERTEX
 8
CAP_2_4
 10
0
 20
0
 30
0
 70
128
 71
22
 72
31
 73
29
 74
23
 0
VERTEX
 8
CAP_2_4
 10
0
 20
0
 30
0
 70
128
 71
22
 72
21
 73
32
 74
31
 0
VERTEX
 8
CAP_2_4
 10
0
 20
0
 30
0
 70
128
 71
21
 72
15
 73
33
 74
32
 0
VERTEX
 8
CAP_2_4
 10
0
 20
0
 30
0
 70
128
 71
34
 72
33
 73
15
 74
14
 0
VERTEX
 8
CAP_2_4
 10
0
 20
0
 30
0
 70
128
 71
14
 72
13
 73
35
 74
34
 0
VERTEX
 8
CAP_2_4
 10
0
 20
0
 30
0
 70
128
 71
13
 72
12
 73
36
 74
35
 0
VERTEX
 8
CAP_2_4
 10
0
 20
0
 30
0
 70
128
 71
11
 72
37
 73
36
 74
12
 0
VERTEX
 8
CAP_2_4
 10
0
 20
0
 30
0
 70
128
 71
10
 72
38
 73
37
 74
11
 0
VERTEX
 8
CAP_2_4
 10
0
 20
0
 30
0
 70
128
 71
9
 72
39
 73
38
 74
10
 0
VERTEX
 8
CAP_2_4
 10
0
 20
0
 30
0
 70
128
 71
9
 72
8
 73
40
 74
39
 0
VERTEX
 8
CAP_2_4
 10
0
 20
0
 30
0
 70
128
 71
8
 72
7
 73
41
 74
40
 0
VERTEX
 8
CAP_2_4
 10
0
 20
0
 30
0
 70
128
 71
7
 72
6
 73
42
 74
41
 0
VERTEX
 8
CAP_2_4
 10
0
 20
0
 30
0
 70
128
 71
6
 72
5
 73
43
 74
42
 0
VERTEX
 8
CAP_2_4
 10
0
 20
0
 30
0
 70
128
 71
5
 72
4
 73
44
 74
43
 0
VERTEX
 8
CAP_2_4
 10
0
 20
0
 30
0
 70
128
 71
4
 72
3
 73
45
 74
44
 0
VERTEX
 8
CAP_2_4
 10
0
 20
0
 30
0
 70
128
 71
3
 72
2
 73
46
 74
45
 0
VERTEX
 8
CAP_2_4
 10
0
 20
0
 30
0
 70
128
 71
2
 72
1
 73
47
 74
46
 0
VERTEX
 8
CAP_2_4
 10
0
 20
0
 30
0
 70
128
 71
1
 72
48
 73
47
 74
47
 0
VERTEX
 8
CAP_2_4
 10
0
 20
0
 30
0
 70
128
 71
28
 72
49
 73
50
 74
50
 0
VERTEX
 8
CAP_2_4
 10
0
 20
0
 30
0
 70
128
 71
27
 72
51
 73
49
 74
28
 0
VERTEX
 8
CAP_2_4
 10
0
 20
0
 30
0
 70
128
 71
26
 72
52
 73
51
 74
27
 0
VERTEX
 8
CAP_2_4
 10
0
 20
0
 30
0
 70
128
 71
25
 72
53
 73
52
 74
26
 0
VERTEX
 8
CAP_2_4
 10
0
 20
0
 30
0
 70
128
 71
24
 72
30
 73
53
 74
25
 0
SEQEND
 0
POLYLINE
 8
CUBE_7
 66
1
 10
0.0
 20
0.0
 30
0.0
 70
64
 71
8
 72
6
 0
VERTEX
 8
CUBE_7
 10
-0.2449
 20
-0.291
 30
-0.8959
 70
192
 0
VERTEX
 8
CUBE_7
 10
-0.2449
 20
-0.291
 30
-0.8759
 70
192
 0
VERTEX
 8
CUBE_7
 10
0.2675
 20
-0.291
 30
-0.8959
 70
192
 0
VERTEX
 8
CUBE_7
 10
0.2675
 20
-0.291
 30
-0.8759
 70
192
 0
VERTEX
 8
CUBE_7
 10
0.2675
 20
0.179
 30
-0.8959
 70
192
 0
VERTEX
 8
CUBE_7
 10
0.2675
 20
0.179
 30
-0.8759
 70
192
 0
VERTEX
 8
CUBE_7
 10
-0.2449
 20
0.179
 30
-0.8959
 70
192
 0
VERTEX
 8
CUBE_7
 10
-0.2449
 20
0.179
 30
-0.8759
 70
192
 0
VERTEX
 8
CUBE_7
 10
0
 20
0
 30
0
 70
128
 71
1
 72
2
 73
4
 74
3
 0
VERTEX
 8
CUBE_7
 10
0
 20
0
 30
0
 70
128
 71
3
 72
4
 73
6
 74
5
 0
VERTEX
 8
CUBE_7
 10
0
 20
0
 30
0
 70
128
 71
5
 72
6
 73
8
 74
7
 0
VERTEX
 8
CUBE_7
 10
0
 20
0
 30
0
 70
128
 71
7
 72
8
 73
2
 74
1
 0
VERTEX
 8
CUBE_7
 10
0
 20
0
 30
0
 70
128
 71
2
 72
8
 73
6
 74
4
 0
VERTEX
 8
CUBE_7
 10
0
 20
0
 30
0
 70
128
 71
7
 72
1
 73
3
 74
5
 0
SEQEND
 0
POLYLINE
 8
CUBE_7_1
 66
1
 10
0.0
 20
0.0
 30
0.0
 70
64
 71
38
 72
32
 0
VERTEX
 8
CUBE_7_1
 10
-0.8055
 20
-0.2886
 30
-1.174
 70
192
 0
VERTEX
 8
CUBE_7_1
 10
-0.8055
 20
-0.2886
 30
-0.6314
 70
192
 0
VERTEX
 8
CUBE_7_1
 10
0.8055
 20
-0.2886
 30
-1.174
 70
192
 0
VERTEX
 8
CUBE_7_1
 10
0.8055
 20
-0.2886
 30
-0.6314
 70
192
 0
VERTEX
 8
CUBE_7_1
 10
0.8055
 20
0.1814
 30
-1.174
 70
192
 0
VERTEX
 8
CUBE_7_1
 10
0.8055
 20
0.1814
 30
-0.6314
 70
192
 0
VERTEX
 8
CUBE_7_1
 10
-0.8055
 20
0.1814
 30
-1.174
 70
192
 0
VERTEX
 8
CUBE_7_1
 10
-0.8055
 20
0.1814
 30
-0.6314
 70
192
 0
VERTEX
 8
CUBE_7_1
 10
-0.2775
 20
-0.2886
 30
-0.6966
 70
192
 0
VERTEX
 8
CUBE_7_1
 10
-0.2775
 20
-0.2886
 30
-0.8666
 70
192
 0
VERTEX
 8
CUBE_7_1
 10
-0.7786
 20
-0.2886
 30
-0.6966
 70
192
 0
VERTEX
 8
CUBE_7_1
 10
-0.7786
 20
-0.2886
 30
-0.8666
 70
192
 0
VERTEX
 8
CUBE_7_1
 10
-0.2731
 20
-0.2886
 30
-0.9036
 70
192
 0
VERTEX
 8
CUBE_7_1
 10
-0.2731
 20
-0.2886
 30
-1.0736
 70
192
 0
VERTEX
 8
CUBE_7_1
 10
-0.7743
 20
-0.2886
 30
-0.9036
 70
192
 0
VERTEX
 8
CUBE_7_1
 10
-0.7743
 20
-0.2886
 30
-1.0736
 70
192
 0
VERTEX
 8
CUBE_7_1
 10
-0.2353
 20
-0.2886
 30
-0.9131
 70
192
 0
VERTEX
 8
CUBE_7_1
 10
0.2658
 20
-0.2886
 30
-1.0387
 70
192
 0
VERTEX
 8
CUBE_7_1
 10
-0.2353
 20
-0.2886
 30
-0.8786
 70
192
 0
VERTEX
 8
CUBE_7_1
 10
0.2658
 20
-0.2886
 30
-1.0208
 70
192
 0
VERTEX
 8
CUBE_7_1
 10
0.2658
 20
-0.2886
 30
-1.0767
 70
192
 0
VERTEX
 8
CUBE_7_1
 10
-0.2353
 20
-0.2886
 30
-1.0767
 70
192
 0
VERTEX
 8
CUBE_7_1
 10
0.2658
 20
-0.2886
 30
-0.7019
 70
192
 0
VERTEX
 8
CUBE_7_1
 10
-0.2353
 20
-0.2886
 30
-0.7019
 70
192
 0
VERTEX
 8
CUBE_7_1
 10
0.2928
 20
-0.2886
 30
-0.6983
 70
192
 0
VERTEX
 8
CUBE_7_1
 10
0.3058
 20
-0.2886
 30
-0.6966
 70
192
 0
VERTEX
 8
CUBE_7_1
 10
0.7939
 20
-0.2886
 30
-0.6966
 70
192
 0
VERTEX
 8
CUBE_7_1
 10
0.7939
 20
-0.2886
 30
-0.8666
 70
192
 0
VERTEX
 8
CUBE_7_1
 10
0.2928
 20
-0.2886
 30
-0.8666
 70
192
 0
VERTEX
 8
CUBE_7_1
 10
0.2928
 20
-0.2886
 30
-0.6966
 70
192
 0
VERTEX
 8
CUBE_7_1
 10
0.2928
 20
-0.2886
 30
-1.0455
 70
192
 0
VERTEX
 8
CUBE_7_1
 10
0.405
 20
-0.2886
 30
-1.0736
 70
192
 0
VERTEX
 8
CUBE_7_1
 10
0.2928
 20
-0.2886
 30
-1.0285
 70
192
 0
VERTEX
 8
CUBE_7_1
 10
0.4518
 20
-0.2886
 30
-1.0736
 70
192
 0
VERTEX
 8
CUBE_7_1
 10
0.2928
 20
-0.2886
 30
-1.0736
 70
192
 0
VERTEX
 8
CUBE_7_1
 10
0.7939
 20
-0.2886
 30
-0.9036
 70
192
 0
VERTEX
 8
CUBE_7_1
 10
0.7939
 20
-0.2886
 30
-1.0736
 70
192
 0
VERTEX
 8
CUBE_7_1
 10
0.2928
 20
-0.2886
 30
-0.9036
 70
192
 0
VERTEX
 8
CUBE_7_1
 10
0
 20
0
 30
0
 70
128
 71
1
 72
2
 73
12
 74
12
 0
VERTEX
 8
CUBE_7_1
 10
0
 20
0
 30
0
 70
128
 71
11
 72
12
 73
2
 74
2
 0
VERTEX
 8
CUBE_7_1
 10
0
 20
0
 30
0
 70
128
 71
3
 72
1
 73
16
 74
14
 0
VERTEX
 8
CUBE_7_1
 10
0
 20
0
 30
0
 70
128
 71
15
 72
16
 73
1
 74
12
 0
VERTEX
 8
CUBE_7_1
 10
0
 20
0
 30
0
 70
128
 71
21
 72
18
 73
31
 74
35
 0
VERTEX
 8
CUBE_7_1
 10
0
 20
0
 30
0
 70
128
 71
35
 72
32
 73
3
 74
21
 0
VERTEX
 8
CUBE_7_1
 10
0
 20
0
 30
0
 70
128
 71
14
 72
13
 73
17
 74
22
 0
VERTEX
 8
CUBE_7_1
 10
0
 20
0
 30
0
 70
128
 71
22
 72
21
 73
3
 74
3
 0
VERTEX
 8
CUBE_7_1
 10
0
 20
0
 30
0
 70
128
 71
22
 72
3
 73
14
 74
14
 0
VERTEX
 8
CUBE_7_1
 10
0
 20
0
 30
0
 70
128
 71
15
 72
12
 73
10
 74
13
 0
VERTEX
 8
CUBE_7_1
 10
0
 20
0
 30
0
 70
128
 71
19
 72
17
 73
13
 74
10
 0
VERTEX
 8
CUBE_7_1
 10
0
 20
0
 30
0
 70
128
 71
31
 72
18
 73
20
 74
33
 0
VERTEX
 8
CUBE_7_1
 10
0
 20
0
 30
0
 70
128
 71
34
 72
3
 73
32
 74
32
 0
VERTEX
 8
CUBE_7_1
 10
0
 20
0
 30
0
 70
128
 71
9
 72
11
 73
2
 74
4
 0
VERTEX
 8
CUBE_7_1
 10
0
 20
0
 30
0
 70
128
 71
19
 72
10
 73
9
 74
24
 0
VERTEX
 8
CUBE_7_1
 10
0
 20
0
 30
0
 70
128
 71
20
 72
23
 73
25
 74
29
 0
VERTEX
 8
CUBE_7_1
 10
0
 20
0
 30
0
 70
128
 71
27
 72
26
 73
4
 74
4
 0
VERTEX
 8
CUBE_7_1
 10
0
 20
0
 30
0
 70
128
 71
28
 72
27
 73
4
 74
3
 0
VERTEX
 8
CUBE_7_1
 10
0
 20
0
 30
0
 70
128
 71
38
 72
33
 73
20
 74
20
 0
VERTEX
 8
CUBE_7_1
 10
0
 20
0
 30
0
 70
128
 71
3
 72
34
 73
37
 74
37
 0
VERTEX
 8
CUBE_7_1
 10
0
 20
0
 30
0
 70
128
 71
3
 72
37
 73
36
 74
36
 0
VERTEX
 8
CUBE_7_1
 10
0
 20
0
 30
0
 70
128
 71
38
 72
20
 73
29
 74
29
 0
VERTEX
 8
CUBE_7_1
 10
0
 20
0
 30
0
 70
128
 71
36
 72
38
 73
29
 74
28
 0
VERTEX
 8
CUBE_7_1
 10
0
 20
0
 30
0
 70
128
 71
28
 72
3
 73
36
 74
36
 0
VERTEX
 8
CUBE_7_1
 10
0
 20
0
 30
0
 70
128
 71
30
 72
25
 73
23
 74
24
 0
VERTEX
 8
CUBE_7_1
 10
0
 20
0
 30
0
 70
128
 71
24
 72
9
 73
4
 74
30
 0
VERTEX
 8
CUBE_7_1
 10
0
 20
0
 30
0
 70
128
 71
4
 72
26
 73
30
 74
30
 0
VERTEX
 8
CUBE_7_1
 10
0
 20
0
 30
0
 70
128
 71
3
 72
4
 73
6
 74
5
 0
VERTEX
 8
CUBE_7_1
 10
0
 20
0
 30
0
 70
128
 71
5
 72
6
 73
8
 74
7
 0
VERTEX
 8
CUBE_7_1
 10
0
 20
0
 30
0
 70
128
 71
7
 72
8
 73
2
 74
1
 0
VERTEX
 8
CUBE_7_1
 10
0
 20
0
 30
0
 70
128
 71
2
 72
8
 73
6
 74
4
 0
VERTEX
 8
CUBE_7_1
 10
0
 20
0
 30
0
 70
128
 71
7
 72
1
 73
3
 74
5
 0
SEQEND
 0
POLYLINE
 8
CUBE_8_1
 66
1
 10
0.0
 20
0.0
 30
0.0
 70
64
 71
8
 72
5
 0
VERTEX
 8
CUBE_8_1
 10
-0.2775
 20
0.166
 30
-0.8666
 70
192
 0
VERTEX
 8
CUBE_8_1
 10
-0.2775
 20
0.166
 30
-0.6966
 70
192
 0
VERTEX
 8
CUBE_8_1
 10
-0.7786
 20
0.166
 30
-0.8666
 70
192
 0
VERTEX
 8
CUBE_8_1
 10
-0.7786
 20
0.166
 30
-0.6966
 70
192
 0
VERTEX
 8
CUBE_8_1
 10
-0.2775
 20
-0.2886
 30
-0.6966
 70
192
 0
VERTEX
 8
CUBE_8_1
 10
-0.2775
 20
-0.2886
 30
-0.8666
 70
192
 0
VERTEX
 8
CUBE_8_1
 10
-0.7786
 20
-0.2886
 30
-0.6966
 70
192
 0
VERTEX
 8
CUBE_8_1
 10
-0.7786
 20
-0.2886
 30
-0.8666
 70
192
 0
VERTEX
 8
CUBE_8_1
 10
0
 20
0
 30
0
 70
128
 71
2
 72
5
 73
6
 74
1
 0
VERTEX
 8
CUBE_8_1
 10
0
 20
0
 30
0
 70
128
 71
2
 72
1
 73
3
 74
4
 0
VERTEX
 8
CUBE_8_1
 10
0
 20
0
 30
0
 70
128
 71
3
 72
8
 73
7
 74
4
 0
VERTEX
 8
CUBE_8_1
 10
0
 20
0
 30
0
 70
128
 71
4
 72
7
 73
5
 74
2
 0
VERTEX
 8
CUBE_8_1
 10
0
 20
0
 30
0
 70
128
 71
1
 72
6
 73
8
 74
3
 0
SEQEND
 0
POLYLINE
 8
CUBE_9_1
 66
1
 10
0.0
 20
0.0
 30
0.0
 70
64
 71
8
 72
5
 0
VERTEX
 8
CUBE_9_1
 10
-0.2731
 20
0.166
 30
-1.0736
 70
192
 0
VERTEX
 8
CUBE_9_1
 10
-0.2731
 20
0.166
 30
-0.9036
 70
192
 0
VERTEX
 8
CUBE_9_1
 10
-0.7743
 20
0.166
 30
-1.0736
 70
192
 0
VERTEX
 8
CUBE_9_1
 10
-0.7743
 20
0.166
 30
-0.9036
 70
192
 0
VERTEX
 8
CUBE_9_1
 10
-0.2731
 20
-0.2886
 30
-0.9036
 70
192
 0
VERTEX
 8
CUBE_9_1
 10
-0.2731
 20
-0.2886
 30
-1.0736
 70
192
 0
VERTEX
 8
CUBE_9_1
 10
-0.7743
 20
-0.2886
 30
-0.9036
 70
192
 0
VERTEX
 8
CUBE_9_1
 10
-0.7743
 20
-0.2886
 30
-1.0736
 70
192
 0
VERTEX
 8
CUBE_9_1
 10
0
 20
0
 30
0
 70
128
 71
2
 72
5
 73
6
 74
1
 0
VERTEX
 8
CUBE_9_1
 10
0
 20
0
 30
0
 70
128
 71
2
 72
1
 73
3
 74
4
 0
VERTEX
 8
CUBE_9_1
 10
0
 20
0
 30
0
 70
128
 71
3
 72
8
 73
7
 74
4
 0
VERTEX
 8
CUBE_9_1
 10
0
 20
0
 30
0
 70
128
 71
4
 72
7
 73
5
 74
2
 0
VERTEX
 8
CUBE_9_1
 10
0
 20
0
 30
0
 70
128
 71
1
 72
6
 73
8
 74
3
 0
SEQEND
 0
POLYLINE
 8
CUBE_4
 66
1
 10
0.0
 20
0.0
 30
0.0
 70
64
 71
12
 72
9
 0
VERTEX
 8
CUBE_4
 10
0.2658
 20
0.166
 30
-1.0767
 70
192
 0
VERTEX
 8
CUBE_4
 10
0.2658
 20
0.166
 30
-0.7019
 70
192
 0
VERTEX
 8
CUBE_4
 10
-0.2353
 20
0.166
 30
-1.0767
 70
192
 0
VERTEX
 8
CUBE_4
 10
-0.2353
 20
0.166
 30
-0.7019
 70
192
 0
VERTEX
 8
CUBE_4
 10
0.2658
 20
-0.2886
 30
-1.0767
 70
192
 0
VERTEX
 8
CUBE_4
 10
-0.2353
 20
-0.2886
 30
-1.0767
 70
192
 0
VERTEX
 8
CUBE_4
 10
0.2658
 20
-0.2886
 30
-0.7019
 70
192
 0
VERTEX
 8
CUBE_4
 10
-0.2353
 20
-0.2886
 30
-0.7019
 70
192
 0
VERTEX
 8
CUBE_4
 10
-0.2353
 20
-0.2886
 30
-0.9131
 70
192
 0
VERTEX
 8
CUBE_4
 10
0.2658
 20
-0.2886
 30
-1.0387
 70
192
 0
VERTEX
 8
CUBE_4
 10
-0.2353
 20
-0.2886
 30
-0.8786
 70
192
 0
VERTEX
 8
CUBE_4
 10
0.2658
 20
-0.2886
 30
-1.0208
 70
192
 0
VERTEX
 8
CUBE_4
 10
0
 20
0
 30
0
 70
128
 71
7
 72
12
 73
2
 74
2
 0
VERTEX
 8
CUBE_4
 10
0
 20
0
 30
0
 70
128
 71
1
 72
2
 73
10
 74
5
 0
VERTEX
 8
CUBE_4
 10
0
 20
0
 30
0
 70
128
 71
12
 72
10
 73
2
 74
2
 0
VERTEX
 8
CUBE_4
 10
0
 20
0
 30
0
 70
128
 71
2
 72
1
 73
3
 74
4
 0
VERTEX
 8
CUBE_4
 10
0
 20
0
 30
0
 70
128
 71
3
 72
6
 73
9
 74
4
 0
VERTEX
 8
CUBE_4
 10
0
 20
0
 30
0
 70
128
 71
8
 72
4
 73
11
 74
11
 0
VERTEX
 8
CUBE_4
 10
0
 20
0
 30
0
 70
128
 71
11
 72
4
 73
9
 74
9
 0
VERTEX
 8
CUBE_4
 10
0
 20
0
 30
0
 70
128
 71
4
 72
8
 73
7
 74
2
 0
VERTEX
 8
CUBE_4
 10
0
 20
0
 30
0
 70
128
 71
1
 72
5
 73
6
 74
3
 0
SEQEND
 0
POLYLINE
 8
CUBE_1_1
 66
1
 10
0.0
 20
0.0
 30
0.0
 70
64
 71
10
 72
7
 0
VERTEX
 8
CUBE_1_1
 10
0.7939
 20
0.166
 30
-0.8666
 70
192
 0
VERTEX
 8
CUBE_1_1
 10
0.7939
 20
0.166
 30
-0.6966
 70
192
 0
VERTEX
 8
CUBE_1_1
 10
0.2928
 20
0.166
 30
-0.8666
 70
192
 0
VERTEX
 8
CUBE_1_1
 10
0.2928
 20
0.166
 30
-0.6966
 70
192
 0
VERTEX
 8
CUBE_1_1
 10
0.7939
 20
-0.2886
 30
-0.6966
 70
192
 0
VERTEX
 8
CUBE_1_1
 10
0.7939
 20
-0.2886
 30
-0.8666
 70
192
 0
VERTEX
 8
CUBE_1_1
 10
0.2928
 20
-0.2886
 30
-0.8666
 70
192
 0
VERTEX
 8
CUBE_1_1
 10
0.2928
 20
-0.2886
 30
-0.6966
 70
192
 0
VERTEX
 8
CUBE_1_1
 10
0.2928
 20
-0.2886
 30
-0.6983
 70
192
 0
VERTEX
 8
CUBE_1_1
 10
0.3058
 20
-0.2886
 30
-0.6966
 70
192
 0
VERTEX
 8
CUBE_1_1
 10
0
 20
0
 30
0
 70
128
 71
2
 72
5
 73
6
 74
1
 0
VERTEX
 8
CUBE_1_1
 10
0
 20
0
 30
0
 70
128
 71
2
 72
1
 73
3
 74
4
 0
VERTEX
 8
CUBE_1_1
 10
0
 20
0
 30
0
 70
128
 71
3
 72
7
 73
9
 74
4
 0
VERTEX
 8
CUBE_1_1
 10
0
 20
0
 30
0
 70
128
 71
8
 72
4
 73
9
 74
9
 0
VERTEX
 8
CUBE_1_1
 10
0
 20
0
 30
0
 70
128
 71
8
 72
10
 73
2
 74
4
 0
VERTEX
 8
CUBE_1_1
 10
0
 20
0
 30
0
 70
128
 71
2
 72
10
 73
5
 74
5
 0
VERTEX
 8
CUBE_1_1
 10
0
 20
0
 30
0
 70
128
 71
1
 72
6
 73
7
 74
3
 0
SEQEND
 0
POLYLINE
 8
CUBE_8_2
 66
1
 10
0.0
 20
0.0
 30
0.0
 70
64
 71
12
 72
9
 0
VERTEX
 8
CUBE_8_2
 10
0.7939
 20
0.166
 30
-1.0736
 70
192
 0
VERTEX
 8
CUBE_8_2
 10
0.7939
 20
0.166
 30
-0.9036
 70
192
 0
VERTEX
 8
CUBE_8_2
 10
0.2928
 20
0.166
 30
-1.0736
 70
192
 0
VERTEX
 8
CUBE_8_2
 10
0.2928
 20
0.166
 30
-0.9036
 70
192
 0
VERTEX
 8
CUBE_8_2
 10
0.2928
 20
-0.2886
 30
-1.0736
 70
192
 0
VERTEX
 8
CUBE_8_2
 10
0.7939
 20
-0.2886
 30
-1.0736
 70
192
 0
VERTEX
 8
CUBE_8_2
 10
0.7939
 20
-0.2886
 30
-0.9036
 70
192
 0
VERTEX
 8
CUBE_8_2
 10
0.2928
 20
-0.2886
 30
-0.9036
 70
192
 0
VERTEX
 8
CUBE_8_2
 10
0.405
 20
-0.2886
 30
-1.0736
 70
192
 0
VERTEX
 8
CUBE_8_2
 10
0.2928
 20
-0.2886
 30
-1.0455
 70
192
 0
VERTEX
 8
CUBE_8_2
 10
0.4518
 20
-0.2886
 30
-1.0736
 70
192
 0
VERTEX
 8
CUBE_8_2
 10
0.2928
 20
-0.2886
 30
-1.0285
 70
192
 0
VERTEX
 8
CUBE_8_2
 10
0
 20
0
 30
0
 70
128
 71
2
 72
7
 73
6
 74
1
 0
VERTEX
 8
CUBE_8_2
 10
0
 20
0
 30
0
 70
128
 71
2
 72
1
 73
3
 74
4
 0
VERTEX
 8
CUBE_8_2
 10
0
 20
0
 30
0
 70
128
 71
3
 72
5
 73
10
 74
4
 0
VERTEX
 8
CUBE_8_2
 10
0
 20
0
 30
0
 70
128
 71
8
 72
4
 73
12
 74
12
 0
VERTEX
 8
CUBE_8_2
 10
0
 20
0
 30
0
 70
128
 71
12
 72
4
 73
10
 74
10
 0
VERTEX
 8
CUBE_8_2
 10
0
 20
0
 30
0
 70
128
 71
4
 72
8
 73
7
 74
2
 0
VERTEX
 8
CUBE_8_2
 10
0
 20
0
 30
0
 70
128
 71
6
 72
11
 73
1
 74
1
 0
VERTEX
 8
CUBE_8_2
 10
0
 20
0
 30
0
 70
128
 71
3
 72
1
 73
9
 74
5
 0
VERTEX
 8
CUBE_8_2
 10
0
 20
0
 30
0
 70
128
 71
11
 72
9
 73
1
 74
1
 0
SEQEND
 0
POLYLINE
 8
CUBE_6
 66
1
 10
0.0
 20
0.0
 30
0.0
 70
64
 71
8
 72
6
 0
VERTEX
 8
CUBE_6
 10
-0.8055
 20
-0.185
 30
-0.6318
 70
192
 0
VERTEX
 8
CUBE_6
 10
-0.8055
 20
-0.185
 30
-0.5276
 70
192
 0
VERTEX
 8
CUBE_6
 10
0.8055
 20
-0.185
 30
-0.6318
 70
192
 0
VERTEX
 8
CUBE_6
 10
0.8055
 20
-0.185
 30
-0.5276
 70
192
 0
VERTEX
 8
CUBE_6
 10
0.8055
 20
0.185
 30
-0.6318
 70
192
 0
VERTEX
 8
CUBE_6
 10
0.8055
 20
0.185
 30
-0.5276
 70
192
 0
VERTEX
 8
CUBE_6
 10
-0.8055
 20
0.185
 30
-0.6318
 70
192
 0
VERTEX
 8
CUBE_6
 10
-0.8055
 20
0.185
 30
-0.5276
 70
192
 0
VERTEX
 8
CUBE_6
 10
0
 20
0
 30
0
 70
128
 71
1
 72
2
 73
4
 74
3
 0
VERTEX
 8
CUBE_6
 10
0
 20
0
 30
0
 70
128
 71
3
 72
4
 73
6
 74
5
 0
VERTEX
 8
CUBE_6
 10
0
 20
0
 30
0
 70
128
 71
5
 72
6
 73
8
 74
7
 0
VERTEX
 8
CUBE_6
 10
0
 20
0
 30
0
 70
128
 71
7
 72
8
 73
2
 74
1
 0
VERTEX
 8
CUBE_6
 10
0
 20
0
 30
0
 70
128
 71
2
 72
8
 73
6
 74
4
 0
VERTEX
 8
CUBE_6
 10
0
 20
0
 30
0
 70
128
 71
7
 72
1
 73
3
 74
5
 0
SEQEND
 0
POLYLINE
 8
CUBE_5
 66
1
 10
0.0
 20
0.0
 30
0.0
 70
64
 71
8
 72
6
 0
VERTEX
 8
CUBE_5
 10
-0.8055
 20
-0.185
 30
-0.5025
 70
192
 0
VERTEX
 8
CUBE_5
 10
-0.8055
 20
-0.185
 30
-0.4825
 70
192
 0
VERTEX
 8
CUBE_5
 10
0.8055
 20
-0.185
 30
-0.5025
 70
192
 0
VERTEX
 8
CUBE_5
 10
0.8055
 20
-0.185
 30
-0.4825
 70
192
 0
VERTEX
 8
CUBE_5
 10
0.8055
 20
0.185
 30
-0.5025
 70
192
 0
VERTEX
 8
CUBE_5
 10
0.8055
 20
0.185
 30
-0.4825
 70
192
 0
VERTEX
 8
CUBE_5
 10
-0.8055
 20
0.185
 30
-0.5025
 70
192
 0
VERTEX
 8
CUBE_5
 10
-0.8055
 20
0.185
 30
-0.4825
 70
192
 0
VERTEX
 8
CUBE_5
 10
0
 20
0
 30
0
 70
128
 71
1
 72
2
 73
4
 74
3
 0
VERTEX
 8
CUBE_5
 10
0
 20
0
 30
0
 70
128
 71
3
 72
4
 73
6
 74
5
 0
VERTEX
 8
CUBE_5
 10
0
 20
0
 30
0
 70
128
 71
5
 72
6
 73
8
 74
7
 0
VERTEX
 8
CUBE_5
 10
0
 20
0
 30
0
 70
128
 71
7
 72
8
 73
2
 74
1
 0
VERTEX
 8
CUBE_5
 10
0
 20
0
 30
0
 70
128
 71
2
 72
8
 73
6
 74
4
 0
VERTEX
 8
CUBE_5
 10
0
 20
0
 30
0
 70
128
 71
7
 72
1
 73
3
 74
5
 0
SEQEND
 0
POLYLINE
 8
CUBE_6_1
 66
1
 10
0.0
 20
0.0
 30
0.0
 70
64
 71
16
 72
12
 0
VERTEX
 8
CUBE_6_1
 10
-0.8
 20
-0.185
 30
-0.5283
 70
192
 0
VERTEX
 8
CUBE_6_1
 10
-0.8
 20
-0.185
 30
-0.5033
 70
192
 0
VERTEX
 8
CUBE_6_1
 10
0.8
 20
-0.185
 30
-0.5283
 70
192
 0
VERTEX
 8
CUBE_6_1
 10
0.8
 20
-0.185
 30
-0.5033
 70
192
 0
VERTEX
 8
CUBE_6_1
 10
0.8
 20
0.185
 30
-0.5283
 70
192
 0
VERTEX
 8
CUBE_6_1
 10
0.8
 20
0.185
 30
-0.5033
 70
192
 0
VERTEX
 8
CUBE_6_1
 10
-0.8
 20
0.185
 30
-0.5283
 70
192
 0
VERTEX
 8
CUBE_6_1
 10
-0.8
 20
0.185
 30
-0.5033
 70
192
 0
VERTEX
 8
CUBE_6_1
 10
-0.78
 20
-0.15
 30
-0.5033
 70
192
 0
VERTEX
 8
CUBE_6_1
 10
0.78
 20
-0.15
 30
-0.5033
 70
192
 0
VERTEX
 8
CUBE_6_1
 10
0.78
 20
0.15
 30
-0.5033
 70
192
 0
VERTEX
 8
CUBE_6_1
 10
-0.78
 20
0.15
 30
-0.5033
 70
192
 0
VERTEX
 8
CUBE_6_1
 10
-0.78
 20
-0.15
 30
-0.5283
 70
192
 0
VERTEX
 8
CUBE_6_1
 10
0.78
 20
-0.15
 30
-0.5283
 70
192
 0
VERTEX
 8
CUBE_6_1
 10
0.78
 20
0.15
 30
-0.5283
 70
192
 0
VERTEX
 8
CUBE_6_1
 10
-0.78
 20
0.15
 30
-0.5283
 70
192
 0
VERTEX
 8
CUBE_6_1
 10
0
 20
0
 30
0
 70
128
 71
1
 72
2
 73
4
 74
3
 0
VERTEX
 8
CUBE_6_1
 10
0
 20
0
 30
0
 70
128
 71
3
 72
4
 73
6
 74
5
 0
VERTEX
 8
CUBE_6_1
 10
0
 20
0
 30
0
 70
128
 71
5
 72
6
 73
8
 74
7
 0
VERTEX
 8
CUBE_6_1
 10
0
 20
0
 30
0
 70
128
 71
7
 72
8
 73
2
 74
1
 0
VERTEX
 8
CUBE_6_1
 10
0
 20
0
 30
0
 70
128
 71
9
 72
10
 73
4
 74
2
 0
VERTEX
 8
CUBE_6_1
 10
0
 20
0
 30
0
 70
128
 71
6
 72
4
 73
10
 74
11
 0
VERTEX
 8
CUBE_6_1
 10
0
 20
0
 30
0
 70
128
 71
12
 72
9
 73
2
 74
8
 0
VERTEX
 8
CUBE_6_1
 10
0
 20
0
 30
0
 70
128
 71
8
 72
6
 73
11
 74
12
 0
VERTEX
 8
CUBE_6_1
 10
0
 20
0
 30
0
 70
128
 71
14
 72
13
 73
1
 74
3
 0
VERTEX
 8
CUBE_6_1
 10
0
 20
0
 30
0
 70
128
 71
7
 72
1
 73
13
 74
16
 0
VERTEX
 8
CUBE_6_1
 10
0
 20
0
 30
0
 70
128
 71
5
 72
7
 73
16
 74
15
 0
VERTEX
 8
CUBE_6_1
 10
0
 20
0
 30
0
 70
128
 71
15
 72
14
 73
3
 74
5
 0
SEQEND
 0
POLYLINE
 8
CUBE_7_2
 66
1
 10
0.0
 20
0.0
 30
0.0
 70
64
 71
8
 72
4
 0
VERTEX
 8
CUBE_7_2
 10
-0.78
 20
-0.15
 30
-0.5033
 70
192
 0
VERTEX
 8
CUBE_7_2
 10
0.78
 20
-0.15
 30
-0.5033
 70
192
 0
VERTEX
 8
CUBE_7_2
 10
0.78
 20
0.15
 30
-0.5033
 70
192
 0
VERTEX
 8
CUBE_7_2
 10
-0.78
 20
0.15
 30
-0.5033
 70
192
 0
VERTEX
 8
CUBE_7_2
 10
-0.78
 20
-0.15
 30
-0.5283
 70
192
 0
VERTEX
 8
CUBE_7_2
 10
0.78
 20
-0.15
 30
-0.5283
 70
192
 0
VERTEX
 8
CUBE_7_2
 10
0.78
 20
0.15
 30
-0.5283
 70
192
 0
VERTEX
 8
CUBE_7_2
 10
-0.78
 20
0.15
 30
-0.5283
 70
192
 0
VERTEX
 8
CUBE_7_2
 10
0
 20
0
 30
0
 70
128
 71
1
 72
5
 73
6
 74
2
 0
VERTEX
 8
CUBE_7_2
 10
0
 20
0
 30
0
 70
128
 71
2
 72
6
 73
7
 74
3
 0
VERTEX
 8
CUBE_7_2
 10
0
 20
0
 30
0
 70
128
 71
8
 72
4
 73
3
 74
7
 0
VERTEX
 8
CUBE_7_2
 10
0
 20
0
 30
0
 70
128
 71
4
 72
8
 73
5
 74
1
 0
SEQEND
 0
POLYLINE
 8
CUBE_6_2
 66
1
 10
0.0
 20
0.0
 30
0.0
 70
64
 71
16
 72
12
 0
VERTEX
 8
CUBE_6_2
 10
-0.8
 20
-0.185
 30
-0.165
 70
192
 0
VERTEX
 8
CUBE_6_2
 10
-0.8
 20
-0.185
 30
-0.14
 70
192
 0
VERTEX
 8
CUBE_6_2
 10
0.8
 20
-0.185
 30
-0.165
 70
192
 0
VERTEX
 8
CUBE_6_2
 10
0.8
 20
-0.185
 30
-0.14
 70
192
 0
VERTEX
 8
CUBE_6_2
 10
0.8
 20
0.185
 30
-0.165
 70
192
 0
VERTEX
 8
CUBE_6_2
 10
0.8
 20
0.185
 30
-0.14
 70
192
 0
VERTEX
 8
CUBE_6_2
 10
-0.8
 20
0.185
 30
-0.165
 70
192
 0
VERTEX
 8
CUBE_6_2
 10
-0.8
 20
0.185
 30
-0.14
 70
192
 0
VERTEX
 8
CUBE_6_2
 10
-0.78
 20
-0.15
 30
-0.14
 70
192
 0
VERTEX
 8
CUBE_6_2
 10
0.78
 20
-0.15
 30
-0.14
 70
192
 0
VERTEX
 8
CUBE_6_2
 10
0.78
 20
0.15
 30
-0.14
 70
192
 0
VERTEX
 8
CUBE_6_2
 10
-0.78
 20
0.15
 30
-0.14
 70
192
 0
VERTEX
 8
CUBE_6_2
 10
-0.78
 20
-0.15
 30
-0.165
 70
192
 0
VERTEX
 8
CUBE_6_2
 10
0.78
 20
-0.15
 30
-0.165
 70
192
 0
VERTEX
 8
CUBE_6_2
 10
0.78
 20
0.15
 30
-0.165
 70
192
 0
VERTEX
 8
CUBE_6_2
 10
-0.78
 20
0.15
 30
-0.165
 70
192
 0
VERTEX
 8
CUBE_6_2
 10
0
 20
0
 30
0
 70
128
 71
1
 72
2
 73
4
 74
3
 0
VERTEX
 8
CUBE_6_2
 10
0
 20
0
 30
0
 70
128
 71
3
 72
4
 73
6
 74
5
 0
VERTEX
 8
CUBE_6_2
 10
0
 20
0
 30
0
 70
128
 71
5
 72
6
 73
8
 74
7
 0
VERTEX
 8
CUBE_6_2
 10
0
 20
0
 30
0
 70
128
 71
7
 72
8
 73
2
 74
1
 0
VERTEX
 8
CUBE_6_2
 10
0
 20
0
 30
0
 70
128
 71
9
 72
10
 73
4
 74
2
 0
VERTEX
 8
CUBE_6_2
 10
0
 20
0
 30
0
 70
128
 71
6
 72
4
 73
10
 74
11
 0
VERTEX
 8
CUBE_6_2
 10
0
 20
0
 30
0
 70
128
 71
12
 72
9
 73
2
 74
8
 0
VERTEX
 8
CUBE_6_2
 10
0
 20
0
 30
0
 70
128
 71
8
 72
6
 73
11
 74
12
 0
VERTEX
 8
CUBE_6_2
 10
0
 20
0
 30
0
 70
128
 71
14
 72
13
 73
1
 74
3
 0
VERTEX
 8
CUBE_6_2
 10
0
 20
0
 30
0
 70
128
 71
7
 72
1
 73
13
 74
16
 0
VERTEX
 8
CUBE_6_2
 10
0
 20
0
 30
0
 70
128
 71
5
 72
7
 73
16
 74
15
 0
VERTEX
 8
CUBE_6_2
 10
0
 20
0
 30
0
 70
128
 71
15
 72
14
 73
3
 74
5
 0
SEQEND
 0
POLYLINE
 8
CUBE_7_3
 66
1
 10
0.0
 20
0.0
 30
0.0
 70
64
 71
8
 72
4
 0
VERTEX
 8
CUBE_7_3
 10
-0.78
 20
-0.15
 30
-0.14
 70
192
 0
VERTEX
 8
CUBE_7_3
 10
0.78
 20
-0.15
 30
-0.14
 70
192
 0
VERTEX
 8
CUBE_7_3
 10
0.78
 20
0.15
 30
-0.14
 70
192
 0
VERTEX
 8
CUBE_7_3
 10
-0.78
 20
0.15
 30
-0.14
 70
192
 0
VERTEX
 8
CUBE_7_3
 10
-0.78
 20
-0.15
 30
-0.165
 70
192
 0
VERTEX
 8
CUBE_7_3
 10
0.78
 20
-0.15
 30
-0.165
 70
192
 0
VERTEX
 8
CUBE_7_3
 10
0.78
 20
0.15
 30
-0.165
 70
192
 0
VERTEX
 8
CUBE_7_3
 10
-0.78
 20
0.15
 30
-0.165
 70
192
 0
VERTEX
 8
CUBE_7_3
 10
0
 20
0
 30
0
 70
128
 71
1
 72
5
 73
6
 74
2
 0
VERTEX
 8
CUBE_7_3
 10
0
 20
0
 30
0
 70
128
 71
2
 72
6
 73
7
 74
3
 0
VERTEX
 8
CUBE_7_3
 10
0
 20
0
 30
0
 70
128
 71
8
 72
4
 73
3
 74
7
 0
VERTEX
 8
CUBE_7_3
 10
0
 20
0
 30
0
 70
128
 71
4
 72
8
 73
5
 74
1
 0
SEQEND
 0
POLYLINE
 8
CUBE_4_1
 66
1
 10
0.0
 20
0.0
 30
0.0
 70
64
 71
8
 72
6
 0
VERTEX
 8
CUBE_4_1
 10
-0.8055
 20
-0.185
 30
-0.1391
 70
192
 0
VERTEX
 8
CUBE_4_1
 10
-0.8055
 20
-0.185
 30
-0.1191
 70
192
 0
VERTEX
 8
CUBE_4_1
 10
0.8055
 20
-0.185
 30
-0.1391
 70
192
 0
VERTEX
 8
CUBE_4_1
 10
0.8055
 20
-0.185
 30
-0.1191
 70
192
 0
VERTEX
 8
CUBE_4_1
 10
0.8055
 20
0.185
 30
-0.1391
 70
192
 0
VERTEX
 8
CUBE_4_1
 10
0.8055
 20
0.185
 30
-0.1191
 70
192
 0
VERTEX
 8
CUBE_4_1
 10
-0.8055
 20
0.185
 30
-0.1391
 70
192
 0
VERTEX
 8
CUBE_4_1
 10
-0.8055
 20
0.185
 30
-0.1191
 70
192
 0
VERTEX
 8
CUBE_4_1
 10
0
 20
0
 30
0
 70
128
 71
1
 72
2
 73
4
 74
3
 0
VERTEX
 8
CUBE_4_1
 10
0
 20
0
 30
0
 70
128
 71
3
 72
4
 73
6
 74
5
 0
VERTEX
 8
CUBE_4_1
 10
0
 20
0
 30
0
 70
128
 71
5
 72
6
 73
8
 74
7
 0
VERTEX
 8
CUBE_4_1
 10
0
 20
0
 30
0
 70
128
 71
7
 72
8
 73
2
 74
1
 0
VERTEX
 8
CUBE_4_1
 10
0
 20
0
 30
0
 70
128
 71
2
 72
8
 73
6
 74
4
 0
VERTEX
 8
CUBE_4_1
 10
0
 20
0
 30
0
 70
128
 71
7
 72
1
 73
3
 74
5
 0
SEQEND
 0
POLYLINE
 8
CUBE_3_1
 66
1
 10
0.0
 20
0.0
 30
0.0
 70
64
 71
8
 72
6
 0
VERTEX
 8
CUBE_3_1
 10
-0.8055
 20
-0.185
 30
0.2142
 70
192
 0
VERTEX
 8
CUBE_3_1
 10
-0.8055
 20
-0.185
 30
0.2342
 70
192
 0
VERTEX
 8
CUBE_3_1
 10
0.8055
 20
-0.185
 30
0.2142
 70
192
 0
VERTEX
 8
CUBE_3_1
 10
0.8055
 20
-0.185
 30
0.2342
 70
192
 0
VERTEX
 8
CUBE_3_1
 10
0.8055
 20
0.185
 30
0.2142
 70
192
 0
VERTEX
 8
CUBE_3_1
 10
0.8055
 20
0.185
 30
0.2342
 70
192
 0
VERTEX
 8
CUBE_3_1
 10
-0.8055
 20
0.185
 30
0.2142
 70
192
 0
VERTEX
 8
CUBE_3_1
 10
-0.8055
 20
0.185
 30
0.2342
 70
192
 0
VERTEX
 8
CUBE_3_1
 10
0
 20
0
 30
0
 70
128
 71
1
 72
2
 73
4
 74
3
 0
VERTEX
 8
CUBE_3_1
 10
0
 20
0
 30
0
 70
128
 71
3
 72
4
 73
6
 74
5
 0
VERTEX
 8
CUBE_3_1
 10
0
 20
0
 30
0
 70
128
 71
5
 72
6
 73
8
 74
7
 0
VERTEX
 8
CUBE_3_1
 10
0
 20
0
 30
0
 70
128
 71
7
 72
8
 73
2
 74
1
 0
VERTEX
 8
CUBE_3_1
 10
0
 20
0
 30
0
 70
128
 71
2
 72
8
 73
6
 74
4
 0
VERTEX
 8
CUBE_3_1
 10
0
 20
0
 30
0
 70
128
 71
7
 72
1
 73
3
 74
5
 0
SEQEND
 0
POLYLINE
 8
CUBE_6_3
 66
1
 10
0.0
 20
0.0
 30
0.0
 70
64
 71
16
 72
12
 0
VERTEX
 8
CUBE_6_3
 10
-0.8
 20
-0.185
 30
0.1884
 70
192
 0
VERTEX
 8
CUBE_6_3
 10
-0.8
 20
-0.185
 30
0.2134
 70
192
 0
VERTEX
 8
CUBE_6_3
 10
0.8
 20
-0.185
 30
0.1884
 70
192
 0
VERTEX
 8
CUBE_6_3
 10
0.8
 20
-0.185
 30
0.2134
 70
192
 0
VERTEX
 8
CUBE_6_3
 10
0.8
 20
0.185
 30
0.1884
 70
192
 0
VERTEX
 8
CUBE_6_3
 10
0.8
 20
0.185
 30
0.2134
 70
192
 0
VERTEX
 8
CUBE_6_3
 10
-0.8
 20
0.185
 30
0.1884
 70
192
 0
VERTEX
 8
CUBE_6_3
 10
-0.8
 20
0.185
 30
0.2134
 70
192
 0
VERTEX
 8
CUBE_6_3
 10
-0.78
 20
-0.15
 30
0.2134
 70
192
 0
VERTEX
 8
CUBE_6_3
 10
0.78
 20
-0.15
 30
0.2134
 70
192
 0
VERTEX
 8
CUBE_6_3
 10
0.78
 20
0.15
 30
0.2134
 70
192
 0
VERTEX
 8
CUBE_6_3
 10
-0.78
 20
0.15
 30
0.2134
 70
192
 0
VERTEX
 8
CUBE_6_3
 10
-0.78
 20
-0.15
 30
0.1884
 70
192
 0
VERTEX
 8
CUBE_6_3
 10
0.78
 20
-0.15
 30
0.1884
 70
192
 0
VERTEX
 8
CUBE_6_3
 10
0.78
 20
0.15
 30
0.1884
 70
192
 0
VERTEX
 8
CUBE_6_3
 10
-0.78
 20
0.15
 30
0.1884
 70
192
 0
VERTEX
 8
CUBE_6_3
 10
0
 20
0
 30
0
 70
128
 71
1
 72
2
 73
4
 74
3
 0
VERTEX
 8
CUBE_6_3
 10
0
 20
0
 30
0
 70
128
 71
3
 72
4
 73
6
 74
5
 0
VERTEX
 8
CUBE_6_3
 10
0
 20
0
 30
0
 70
128
 71
5
 72
6
 73
8
 74
7
 0
VERTEX
 8
CUBE_6_3
 10
0
 20
0
 30
0
 70
128
 71
7
 72
8
 73
2
 74
1
 0
VERTEX
 8
CUBE_6_3
 10
0
 20
0
 30
0
 70
128
 71
9
 72
10
 73
4
 74
2
 0
VERTEX
 8
CUBE_6_3
 10
0
 20
0
 30
0
 70
128
 71
6
 72
4
 73
10
 74
11
 0
VERTEX
 8
CUBE_6_3
 10
0
 20
0
 30
0
 70
128
 71
12
 72
9
 73
2
 74
8
 0
VERTEX
 8
CUBE_6_3
 10
0
 20
0
 30
0
 70
128
 71
8
 72
6
 73
11
 74
12
 0
VERTEX
 8
CUBE_6_3
 10
0
 20
0
 30
0
 70
128
 71
14
 72
13
 73
1
 74
3
 0
VERTEX
 8
CUBE_6_3
 10
0
 20
0
 30
0
 70
128
 71
7
 72
1
 73
13
 74
16
 0
VERTEX
 8
CUBE_6_3
 10
0
 20
0
 30
0
 70
128
 71
5
 72
7
 73
16
 74
15
 0
VERTEX
 8
CUBE_6_3
 10
0
 20
0
 30
0
 70
128
 71
15
 72
14
 73
3
 74
5
 0
SEQEND
 0
POLYLINE
 8
CUBE_7_4
 66
1
 10
0.0
 20
0.0
 30
0.0
 70
64
 71
8
 72
4
 0
VERTEX
 8
CUBE_7_4
 10
-0.78
 20
-0.15
 30
0.2134
 70
192
 0
VERTEX
 8
CUBE_7_4
 10
0.78
 20
-0.15
 30
0.2134
 70
192
 0
VERTEX
 8
CUBE_7_4
 10
0.78
 20
0.15
 30
0.2134
 70
192
 0
VERTEX
 8
CUBE_7_4
 10
-0.78
 20
0.15
 30
0.2134
 70
192
 0
VERTEX
 8
CUBE_7_4
 10
-0.78
 20
-0.15
 30
0.1884
 70
192
 0
VERTEX
 8
CUBE_7_4
 10
0.78
 20
-0.15
 30
0.1884
 70
192
 0
VERTEX
 8
CUBE_7_4
 10
0.78
 20
0.15
 30
0.1884
 70
192
 0
VERTEX
 8
CUBE_7_4
 10
-0.78
 20
0.15
 30
0.1884
 70
192
 0
VERTEX
 8
CUBE_7_4
 10
0
 20
0
 30
0
 70
128
 71
1
 72
5
 73
6
 74
2
 0
VERTEX
 8
CUBE_7_4
 10
0
 20
0
 30
0
 70
128
 71
2
 72
6
 73
7
 74
3
 0
VERTEX
 8
CUBE_7_4
 10
0
 20
0
 30
0
 70
128
 71
8
 72
4
 73
3
 74
7
 0
VERTEX
 8
CUBE_7_4
 10
0
 20
0
 30
0
 70
128
 71
4
 72
8
 73
5
 74
1
 0
SEQEND
 0
POLYLINE
 8
CUBE_6_4
 66
1
 10
0.0
 20
0.0
 30
0.0
 70
64
 71
16
 72
12
 0
VERTEX
 8
CUBE_6_4
 10
-0.8
 20
-0.185
 30
0.5417
 70
192
 0
VERTEX
 8
CUBE_6_4
 10
-0.8
 20
-0.185
 30
0.5667
 70
192
 0
VERTEX
 8
CUBE_6_4
 10
0.8
 20
-0.185
 30
0.5417
 70
192
 0
VERTEX
 8
CUBE_6_4
 10
0.8
 20
-0.185
 30
0.5667
 70
192
 0
VERTEX
 8
CUBE_6_4
 10
0.8
 20
0.185
 30
0.5417
 70
192
 0
VERTEX
 8
CUBE_6_4
 10
0.8
 20
0.185
 30
0.5667
 70
192
 0
VERTEX
 8
CUBE_6_4
 10
-0.8
 20
0.185
 30
0.5417
 70
192
 0
VERTEX
 8
CUBE_6_4
 10
-0.8
 20
0.185
 30
0.5667
 70
192
 0
VERTEX
 8
CUBE_6_4
 10
-0.78
 20
-0.15
 30
0.5667
 70
192
 0
VERTEX
 8
CUBE_6_4
 10
0.78
 20
-0.15
 30
0.5667
 70
192
 0
VERTEX
 8
CUBE_6_4
 10
0.78
 20
0.15
 30
0.5667
 70
192
 0
VERTEX
 8
CUBE_6_4
 10
-0.78
 20
0.15
 30
0.5667
 70
192
 0
VERTEX
 8
CUBE_6_4
 10
-0.78
 20
-0.15
 30
0.5417
 70
192
 0
VERTEX
 8
CUBE_6_4
 10
0.78
 20
-0.15
 30
0.5417
 70
192
 0
VERTEX
 8
CUBE_6_4
 10
0.78
 20
0.15
 30
0.5417
 70
192
 0
VERTEX
 8
CUBE_6_4
 10
-0.78
 20
0.15
 30
0.5417
 70
192
 0
VERTEX
 8
CUBE_6_4
 10
0
 20
0
 30
0
 70
128
 71
1
 72
2
 73
4
 74
3
 0
VERTEX
 8
CUBE_6_4
 10
0
 20
0
 30
0
 70
128
 71
3
 72
4
 73
6
 74
5
 0
VERTEX
 8
CUBE_6_4
 10
0
 20
0
 30
0
 70
128
 71
5
 72
6
 73
8
 74
7
 0
VERTEX
 8
CUBE_6_4
 10
0
 20
0
 30
0
 70
128
 71
7
 72
8
 73
2
 74
1
 0
VERTEX
 8
CUBE_6_4
 10
0
 20
0
 30
0
 70
128
 71
9
 72
10
 73
4
 74
2
 0
VERTEX
 8
CUBE_6_4
 10
0
 20
0
 30
0
 70
128
 71
6
 72
4
 73
10
 74
11
 0
VERTEX
 8
CUBE_6_4
 10
0
 20
0
 30
0
 70
128
 71
12
 72
9
 73
2
 74
8
 0
VERTEX
 8
CUBE_6_4
 10
0
 20
0
 30
0
 70
128
 71
8
 72
6
 73
11
 74
12
 0
VERTEX
 8
CUBE_6_4
 10
0
 20
0
 30
0
 70
128
 71
14
 72
13
 73
1
 74
3
 0
VERTEX
 8
CUBE_6_4
 10
0
 20
0
 30
0
 70
128
 71
7
 72
1
 73
13
 74
16
 0
VERTEX
 8
CUBE_6_4
 10
0
 20
0
 30
0
 70
128
 71
5
 72
7
 73
16
 74
15
 0
VERTEX
 8
CUBE_6_4
 10
0
 20
0
 30
0
 70
128
 71
15
 72
14
 73
3
 74
5
 0
SEQEND
 0
POLYLINE
 8
CUBE_7_5
 66
1
 10
0.0
 20
0.0
 30
0.0
 70
64
 71
8
 72
4
 0
VERTEX
 8
CUBE_7_5
 10
-0.78
 20
-0.15
 30
0.5667
 70
192
 0
VERTEX
 8
CUBE_7_5
 10
0.78
 20
-0.15
 30
0.5667
 70
192
 0
VERTEX
 8
CUBE_7_5
 10
0.78
 20
0.15
 30
0.5667
 70
192
 0
VERTEX
 8
CUBE_7_5
 10
-0.78
 20
0.15
 30
0.5667
 70
192
 0
VERTEX
 8
CUBE_7_5
 10
-0.78
 20
-0.15
 30
0.5417
 70
192
 0
VERTEX
 8
CUBE_7_5
 10
0.78
 20
-0.15
 30
0.5417
 70
192
 0
VERTEX
 8
CUBE_7_5
 10
0.78
 20
0.15
 30
0.5417
 70
192
 0
VERTEX
 8
CUBE_7_5
 10
-0.78
 20
0.15
 30
0.5417
 70
192
 0
VERTEX
 8
CUBE_7_5
 10
0
 20
0
 30
0
 70
128
 71
1
 72
5
 73
6
 74
2
 0
VERTEX
 8
CUBE_7_5
 10
0
 20
0
 30
0
 70
128
 71
2
 72
6
 73
7
 74
3
 0
VERTEX
 8
CUBE_7_5
 10
0
 20
0
 30
0
 70
128
 71
8
 72
4
 73
3
 74
7
 0
VERTEX
 8
CUBE_7_5
 10
0
 20
0
 30
0
 70
128
 71
4
 72
8
 73
5
 74
1
 0
SEQEND
 0
POLYLINE
 8
CUBE_2_1
 66
1
 10
0.0
 20
0.0
 30
0.0
 70
64
 71
8
 72
6
 0
VERTEX
 8
CUBE_2_1
 10
-0.8055
 20
-0.185
 30
0.5676
 70
192
 0
VERTEX
 8
CUBE_2_1
 10
-0.8055
 20
-0.185
 30
0.5876
 70
192
 0
VERTEX
 8
CUBE_2_1
 10
0.8055
 20
-0.185
 30
0.5676
 70
192
 0
VERTEX
 8
CUBE_2_1
 10
0.8055
 20
-0.185
 30
0.5876
 70
192
 0
VERTEX
 8
CUBE_2_1
 10
0.8055
 20
0.185
 30
0.5676
 70
192
 0
VERTEX
 8
CUBE_2_1
 10
0.8055
 20
0.185
 30
0.5876
 70
192
 0
VERTEX
 8
CUBE_2_1
 10
-0.8055
 20
0.185
 30
0.5676
 70
192
 0
VERTEX
 8
CUBE_2_1
 10
-0.8055
 20
0.185
 30
0.5876
 70
192
 0
VERTEX
 8
CUBE_2_1
 10
0
 20
0
 30
0
 70
128
 71
1
 72
2
 73
4
 74
3
 0
VERTEX
 8
CUBE_2_1
 10
0
 20
0
 30
0
 70
128
 71
3
 72
4
 73
6
 74
5
 0
VERTEX
 8
CUBE_2_1
 10
0
 20
0
 30
0
 70
128
 71
5
 72
6
 73
8
 74
7
 0
VERTEX
 8
CUBE_2_1
 10
0
 20
0
 30
0
 70
128
 71
7
 72
8
 73
2
 74
1
 0
VERTEX
 8
CUBE_2_1
 10
0
 20
0
 30
0
 70
128
 71
2
 72
8
 73
6
 74
4
 0
VERTEX
 8
CUBE_2_1
 10
0
 20
0
 30
0
 70
128
 71
7
 72
1
 73
3
 74
5
 0
SEQEND
 0
POLYLINE
 8
CUBE_1_2
 66
1
 10
0.0
 20
0.0
 30
0.0
 70
64
 71
8
 72
6
 0
VERTEX
 8
CUBE_1_2
 10
-0.8055
 20
-0.185
 30
0.926
 70
192
 0
VERTEX
 8
CUBE_1_2
 10
-0.8055
 20
-0.185
 30
0.946
 70
192
 0
VERTEX
 8
CUBE_1_2
 10
0.8055
 20
-0.185
 30
0.926
 70
192
 0
VERTEX
 8
CUBE_1_2
 10
0.8055
 20
-0.185
 30
0.946
 70
192
 0
VERTEX
 8
CUBE_1_2
 10
0.8055
 20
0.185
 30
0.926
 70
192
 0
VERTEX
 8
CUBE_1_2
 10
0.8055
 20
0.185
 30
0.946
 70
192
 0
VERTEX
 8
CUBE_1_2
 10
-0.8055
 20
0.185
 30
0.926
 70
192
 0
VERTEX
 8
CUBE_1_2
 10
-0.8055
 20
0.185
 30
0.946
 70
192
 0
VERTEX
 8
CUBE_1_2
 10
0
 20
0
 30
0
 70
128
 71
1
 72
2
 73
4
 74
3
 0
VERTEX
 8
CUBE_1_2
 10
0
 20
0
 30
0
 70
128
 71
3
 72
4
 73
6
 74
5
 0
VERTEX
 8
CUBE_1_2
 10
0
 20
0
 30
0
 70
128
 71
5
 72
6
 73
8
 74
7
 0
VERTEX
 8
CUBE_1_2
 10
0
 20
0
 30
0
 70
128
 71
7
 72
8
 73
2
 74
1
 0
VERTEX
 8
CUBE_1_2
 10
0
 20
0
 30
0
 70
128
 71
2
 72
8
 73
6
 74
4
 0
VERTEX
 8
CUBE_1_2
 10
0
 20
0
 30
0
 70
128
 71
7
 72
1
 73
3
 74
5
 0
SEQEND
 0
POLYLINE
 8
CUBE_6_5
 66
1
 10
0.0
 20
0.0
 30
0.0
 70
64
 71
16
 72
12
 0
VERTEX
 8
CUBE_6_5
 10
-0.8
 20
-0.185
 30
0.9001
 70
192
 0
VERTEX
 8
CUBE_6_5
 10
-0.8
 20
-0.185
 30
0.9251
 70
192
 0
VERTEX
 8
CUBE_6_5
 10
0.8
 20
-0.185
 30
0.9001
 70
192
 0
VERTEX
 8
CUBE_6_5
 10
0.8
 20
-0.185
 30
0.9251
 70
192
 0
VERTEX
 8
CUBE_6_5
 10
0.8
 20
0.185
 30
0.9001
 70
192
 0
VERTEX
 8
CUBE_6_5
 10
0.8
 20
0.185
 30
0.9251
 70
192
 0
VERTEX
 8
CUBE_6_5
 10
-0.8
 20
0.185
 30
0.9001
 70
192
 0
VERTEX
 8
CUBE_6_5
 10
-0.8
 20
0.185
 30
0.9251
 70
192
 0
VERTEX
 8
CUBE_6_5
 10
-0.78
 20
-0.15
 30
0.9251
 70
192
 0
VERTEX
 8
CUBE_6_5
 10
0.78
 20
-0.15
 30
0.9251
 70
192
 0
VERTEX
 8
CUBE_6_5
 10
0.78
 20
0.15
 30
0.9251
 70
192
 0
VERTEX
 8
CUBE_6_5
 10
-0.78
 20
0.15
 30
0.9251
 70
192
 0
VERTEX
 8
CUBE_6_5
 10
-0.78
 20
-0.15
 30
0.9001
 70
192
 0
VERTEX
 8
CUBE_6_5
 10
0.78
 20
-0.15
 30
0.9001
 70
192
 0
VERTEX
 8
CUBE_6_5
 10
0.78
 20
0.15
 30
0.9001
 70
192
 0
VERTEX
 8
CUBE_6_5
 10
-0.78
 20
0.15
 30
0.9001
 70
192
 0
VERTEX
 8
CUBE_6_5
 10
0
 20
0
 30
0
 70
128
 71
1
 72
2
 73
4
 74
3
 0
VERTEX
 8
CUBE_6_5
 10
0
 20
0
 30
0
 70
128
 71
3
 72
4
 73
6
 74
5
 0
VERTEX
 8
CUBE_6_5
 10
0
 20
0
 30
0
 70
128
 71
5
 72
6
 73
8
 74
7
 0
VERTEX
 8
CUBE_6_5
 10
0
 20
0
 30
0
 70
128
 71
7
 72
8
 73
2
 74
1
 0
VERTEX
 8
CUBE_6_5
 10
0
 20
0
 30
0
 70
128
 71
9
 72
10
 73
4
 74
2
 0
VERTEX
 8
CUBE_6_5
 10
0
 20
0
 30
0
 70
128
 71
6
 72
4
 73
10
 74
11
 0
VERTEX
 8
CUBE_6_5
 10
0
 20
0
 30
0
 70
128
 71
12
 72
9
 73
2
 74
8
 0
VERTEX
 8
CUBE_6_5
 10
0
 20
0
 30
0
 70
128
 71
8
 72
6
 73
11
 74
12
 0
VERTEX
 8
CUBE_6_5
 10
0
 20
0
 30
0
 70
128
 71
14
 72
13
 73
1
 74
3
 0
VERTEX
 8
CUBE_6_5
 10
0
 20
0
 30
0
 70
128
 71
7
 72
1
 73
13
 74
16
 0
VERTEX
 8
CUBE_6_5
 10
0
 20
0
 30
0
 70
128
 71
5
 72
7
 73
16
 74
15
 0
VERTEX
 8
CUBE_6_5
 10
0
 20
0
 30
0
 70
128
 71
15
 72
14
 73
3
 74
5
 0
SEQEND
 0
POLYLINE
 8
CUBE_7_6
 66
1
 10
0.0
 20
0.0
 30
0.0
 70
64
 71
8
 72
4
 0
VERTEX
 8
CUBE_7_6
 10
-0.78
 20
-0.15
 30
0.9251
 70
192
 0
VERTEX
 8
CUBE_7_6
 10
0.78
 20
-0.15
 30
0.9251
 70
192
 0
VERTEX
 8
CUBE_7_6
 10
0.78
 20
0.15
 30
0.9251
 70
192
 0
VERTEX
 8
CUBE_7_6
 10
-0.78
 20
0.15
 30
0.9251
 70
192
 0
VERTEX
 8
CUBE_7_6
 10
-0.78
 20
-0.15
 30
0.9001
 70
192
 0
VERTEX
 8
CUBE_7_6
 10
0.78
 20
-0.15
 30
0.9001
 70
192
 0
VERTEX
 8
CUBE_7_6
 10
0.78
 20
0.15
 30
0.9001
 70
192
 0
VERTEX
 8
CUBE_7_6
 10
-0.78
 20
0.15
 30
0.9001
 70
192
 0
VERTEX
 8
CUBE_7_6
 10
0
 20
0
 30
0
 70
128
 71
1
 72
5
 73
6
 74
2
 0
VERTEX
 8
CUBE_7_6
 10
0
 20
0
 30
0
 70
128
 71
2
 72
6
 73
7
 74
3
 0
VERTEX
 8
CUBE_7_6
 10
0
 20
0
 30
0
 70
128
 71
8
 72
4
 73
3
 74
7
 0
VERTEX
 8
CUBE_7_6
 10
0
 20
0
 30
0
 70
128
 71
4
 72
8
 73
5
 74
1
 0
SEQEND
 0
POLYLINE
 8
CUBE_6_6
 66
1
 10
0.0
 20
0.0
 30
0.0
 70
64
 71
16
 72
12
 0
VERTEX
 8
CUBE_6_6
 10
0.7797
 20
-0.185
 30
-0.5318
 70
192
 0
VERTEX
 8
CUBE_6_6
 10
0.7797
 20
-0.185
 30
1.2985
 70
192
 0
VERTEX
 8
CUBE_6_6
 10
0.8047
 20
-0.185
 30
-0.5318
 70
192
 0
VERTEX
 8
CUBE_6_6
 10
0.8047
 20
-0.185
 30
1.2985
 70
192
 0
VERTEX
 8
CUBE_6_6
 10
0.8047
 20
0.185
 30
-0.5318
 70
192
 0
VERTEX
 8
CUBE_6_6
 10
0.8047
 20
0.185
 30
1.2985
 70
192
 0
VERTEX
 8
CUBE_6_6
 10
0.7797
 20
0.185
 30
-0.5318
 70
192
 0
VERTEX
 8
CUBE_6_6
 10
0.7797
 20
0.185
 30
1.2985
 70
192
 0
VERTEX
 8
CUBE_6_6
 10
0.8047
 20
-0.165
 30
1.2585
 70
192
 0
VERTEX
 8
CUBE_6_6
 10
0.8047
 20
-0.165
 30
-0.4918
 70
192
 0
VERTEX
 8
CUBE_6_6
 10
0.8047
 20
0.165
 30
1.2585
 70
192
 0
VERTEX
 8
CUBE_6_6
 10
0.8047
 20
0.165
 30
-0.4918
 70
192
 0
VERTEX
 8
CUBE_6_6
 10
0.7797
 20
-0.165
 30
1.2585
 70
192
 0
VERTEX
 8
CUBE_6_6
 10
0.7797
 20
-0.165
 30
-0.4918
 70
192
 0
VERTEX
 8
CUBE_6_6
 10
0.7797
 20
0.165
 30
1.2585
 70
192
 0
VERTEX
 8
CUBE_6_6
 10
0.7797
 20
0.165
 30
-0.4918
 70
192
 0
VERTEX
 8
CUBE_6_6
 10
0
 20
0
 30
0
 70
128
 71
1
 72
2
 73
4
 74
3
 0
VERTEX
 8
CUBE_6_6
 10
0
 20
0
 30
0
 70
128
 71
10
 72
12
 73
5
 74
3
 0
VERTEX
 8
CUBE_6_6
 10
0
 20
0
 30
0
 70
128
 71
6
 72
5
 73
12
 74
11
 0
VERTEX
 8
CUBE_6_6
 10
0
 20
0
 30
0
 70
128
 71
10
 72
3
 73
4
 74
9
 0
VERTEX
 8
CUBE_6_6
 10
0
 20
0
 30
0
 70
128
 71
4
 72
6
 73
11
 74
9
 0
VERTEX
 8
CUBE_6_6
 10
0
 20
0
 30
0
 70
128
 71
5
 72
6
 73
8
 74
7
 0
VERTEX
 8
CUBE_6_6
 10
0
 20
0
 30
0
 70
128
 71
16
 72
14
 73
1
 74
7
 0
VERTEX
 8
CUBE_6_6
 10
0
 20
0
 30
0
 70
128
 71
2
 72
1
 73
14
 74
13
 0
VERTEX
 8
CUBE_6_6
 10
0
 20
0
 30
0
 70
128
 71
16
 72
7
 73
8
 74
15
 0
VERTEX
 8
CUBE_6_6
 10
0
 20
0
 30
0
 70
128
 71
8
 72
2
 73
13
 74
15
 0
VERTEX
 8
CUBE_6_6
 10
0
 20
0
 30
0
 70
128
 71
2
 72
8
 73
6
 74
4
 0
VERTEX
 8
CUBE_6_6
 10
0
 20
0
 30
0
 70
128
 71
7
 72
1
 73
3
 74
5
 0
SEQEND
 0
POLYLINE
 8
CUBE_7_7
 66
1
 10
0.0
 20
0.0
 30
0.0
 70
64
 71
8
 72
4
 0
VERTEX
 8
CUBE_7_7
 10
0.8047
 20
-0.165
 30
1.2585
 70
192
 0
VERTEX
 8
CUBE_7_7
 10
0.8047
 20
-0.165
 30
-0.4918
 70
192
 0
VERTEX
 8
CUBE_7_7
 10
0.8047
 20
0.165
 30
1.2585
 70
192
 0
VERTEX
 8
CUBE_7_7
 10
0.8047
 20
0.165
 30
-0.4918
 70
192
 0
VERTEX
 8
CUBE_7_7
 10
0.7797
 20
-0.165
 30
1.2585
 70
192
 0
VERTEX
 8
CUBE_7_7
 10
0.7797
 20
-0.165
 30
-0.4918
 70
192
 0
VERTEX
 8
CUBE_7_7
 10
0.7797
 20
0.165
 30
1.2585
 70
192
 0
VERTEX
 8
CUBE_7_7
 10
0.7797
 20
0.165
 30
-0.4918
 70
192
 0
VERTEX
 8
CUBE_7_7
 10
0
 20
0
 30
0
 70
128
 71
1
 72
5
 73
6
 74
2
 0
VERTEX
 8
CUBE_7_7
 10
0
 20
0
 30
0
 70
128
 71
4
 72
8
 73
7
 74
3
 0
VERTEX
 8
CUBE_7_7
 10
0
 20
0
 30
0
 70
128
 71
5
 72
1
 73
3
 74
7
 0
VERTEX
 8
CUBE_7_7
 10
0
 20
0
 30
0
 70
128
 71
2
 72
6
 73
8
 74
4
 0
SEQEND
 0
POLYLINE
 8
CUBE_6_7
 66
1
 10
0.0
 20
0.0
 30
0.0
 70
64
 71
16
 72
12
 0
VERTEX
 8
CUBE_6_7
 10
-0.7996
 20
-0.185
 30
-0.5118
 70
192
 0
VERTEX
 8
CUBE_6_7
 10
-0.7996
 20
-0.185
 30
1.2785
 70
192
 0
VERTEX
 8
CUBE_6_7
 10
-0.7746
 20
-0.185
 30
-0.5118
 70
192
 0
VERTEX
 8
CUBE_6_7
 10
-0.7746
 20
-0.185
 30
1.2785
 70
192
 0
VERTEX
 8
CUBE_6_7
 10
-0.7746
 20
0.185
 30
-0.5118
 70
192
 0
VERTEX
 8
CUBE_6_7
 10
-0.7746
 20
0.185
 30
1.2785
 70
192
 0
VERTEX
 8
CUBE_6_7
 10
-0.7996
 20
0.185
 30
-0.5118
 70
192
 0
VERTEX
 8
CUBE_6_7
 10
-0.7996
 20
0.185
 30
1.2785
 70
192
 0
VERTEX
 8
CUBE_6_7
 10
-0.7746
 20
-0.165
 30
1.2585
 70
192
 0
VERTEX
 8
CUBE_6_7
 10
-0.7746
 20
-0.165
 30
-0.4918
 70
192
 0
VERTEX
 8
CUBE_6_7
 10
-0.7746
 20
0.165
 30
1.2585
 70
192
 0
VERTEX
 8
CUBE_6_7
 10
-0.7746
 20
0.165
 30
-0.4918
 70
192
 0
VERTEX
 8
CUBE_6_7
 10
-0.7996
 20
-0.165
 30
1.2585
 70
192
 0
VERTEX
 8
CUBE_6_7
 10
-0.7996
 20
-0.165
 30
-0.4918
 70
192
 0
VERTEX
 8
CUBE_6_7
 10
-0.7996
 20
0.165
 30
1.2585
 70
192
 0
VERTEX
 8
CUBE_6_7
 10
-0.7996
 20
0.165
 30
-0.4918
 70
192
 0
VERTEX
 8
CUBE_6_7
 10
0
 20
0
 30
0
 70
128
 71
1
 72
2
 73
4
 74
3
 0
VERTEX
 8
CUBE_6_7
 10
0
 20
0
 30
0
 70
128
 71
5
 72
12
 73
11
 74
6
 0
VERTEX
 8
CUBE_6_7
 10
0
 20
0
 30
0
 70
128
 71
12
 72
5
 73
3
 74
10
 0
VERTEX
 8
CUBE_6_7
 10
0
 20
0
 30
0
 70
128
 71
10
 72
3
 73
4
 74
9
 0
VERTEX
 8
CUBE_6_7
 10
0
 20
0
 30
0
 70
128
 71
4
 72
6
 73
11
 74
9
 0
VERTEX
 8
CUBE_6_7
 10
0
 20
0
 30
0
 70
128
 71
5
 72
6
 73
8
 74
7
 0
VERTEX
 8
CUBE_6_7
 10
0
 20
0
 30
0
 70
128
 71
1
 72
14
 73
13
 74
2
 0
VERTEX
 8
CUBE_6_7
 10
0
 20
0
 30
0
 70
128
 71
16
 72
14
 73
1
 74
7
 0
VERTEX
 8
CUBE_6_7
 10
0
 20
0
 30
0
 70
128
 71
16
 72
7
 73
8
 74
15
 0
VERTEX
 8
CUBE_6_7
 10
0
 20
0
 30
0
 70
128
 71
8
 72
2
 73
13
 74
15
 0
VERTEX
 8
CUBE_6_7
 10
0
 20
0
 30
0
 70
128
 71
2
 72
8
 73
6
 74
4
 0
VERTEX
 8
CUBE_6_7
 10
0
 20
0
 30
0
 70
128
 71
7
 72
1
 73
3
 74
5
 0
SEQEND
 0
POLYLINE
 8
CUBE_7_8
 66
1
 10
0.0
 20
0.0
 30
0.0
 70
64
 71
8
 72
4
 0
VERTEX
 8
CUBE_7_8
 10
-0.7746
 20
-0.165
 30
1.2585
 70
192
 0
VERTEX
 8
CUBE_7_8
 10
-0.7746
 20
-0.165
 30
-0.4918
 70
192
 0
VERTEX
 8
CUBE_7_8
 10
-0.7746
 20
0.165
 30
1.2585
 70
192
 0
VERTEX
 8
CUBE_7_8
 10
-0.7746
 20
0.165
 30
-0.4918
 70
192
 0
VERTEX
 8
CUBE_7_8
 10
-0.7996
 20
-0.165
 30
1.2585
 70
192
 0
VERTEX
 8
CUBE_7_8
 10
-0.7996
 20
-0.165
 30
-0.4918
 70
192
 0
VERTEX
 8
CUBE_7_8
 10
-0.7996
 20
0.165
 30
1.2585
 70
192
 0
VERTEX
 8
CUBE_7_8
 10
-0.7996
 20
0.165
 30
-0.4918
 70
192
 0
VERTEX
 8
CUBE_7_8
 10
0
 20
0
 30
0
 70
128
 71
1
 72
5
 73
6
 74
2
 0
VERTEX
 8
CUBE_7_8
 10
0
 20
0
 30
0
 70
128
 71
4
 72
8
 73
7
 74
3
 0
VERTEX
 8
CUBE_7_8
 10
0
 20
0
 30
0
 70
128
 71
5
 72
1
 73
3
 74
7
 0
VERTEX
 8
CUBE_7_8
 10
0
 20
0
 30
0
 70
128
 71
2
 72
6
 73
8
 74
4
 0
SEQEND
 0
POLYLINE
 8
CUBE_6_8
 66
1
 10
0.0
 20
0.0
 30
0.0
 70
64
 71
16
 72
12
 0
VERTEX
 8
CUBE_6_8
 10
-0.8
 20
-0.185
 30
1.2684
 70
192
 0
VERTEX
 8
CUBE_6_8
 10
-0.8
 20
-0.185
 30
1.2934
 70
192
 0
VERTEX
 8
CUBE_6_8
 10
0.8
 20
-0.185
 30
1.2684
 70
192
 0
VERTEX
 8
CUBE_6_8
 10
0.8
 20
-0.185
 30
1.2934
 70
192
 0
VERTEX
 8
CUBE_6_8
 10
0.8
 20
0.185
 30
1.2684
 70
192
 0
VERTEX
 8
CUBE_6_8
 10
0.8
 20
0.185
 30
1.2934
 70
192
 0
VERTEX
 8
CUBE_6_8
 10
-0.8
 20
0.185
 30
1.2684
 70
192
 0
VERTEX
 8
CUBE_6_8
 10
-0.8
 20
0.185
 30
1.2934
 70
192
 0
VERTEX
 8
CUBE_6_8
 10
-0.78
 20
-0.15
 30
1.2934
 70
192
 0
VERTEX
 8
CUBE_6_8
 10
0.78
 20
-0.15
 30
1.2934
 70
192
 0
VERTEX
 8
CUBE_6_8
 10
0.78
 20
0.15
 30
1.2934
 70
192
 0
VERTEX
 8
CUBE_6_8
 10
-0.78
 20
0.15
 30
1.2934
 70
192
 0
VERTEX
 8
CUBE_6_8
 10
-0.78
 20
-0.15
 30
1.2684
 70
192
 0
VERTEX
 8
CUBE_6_8
 10
0.78
 20
-0.15
 30
1.2684
 70
192
 0
VERTEX
 8
CUBE_6_8
 10
0.78
 20
0.15
 30
1.2684
 70
192
 0
VERTEX
 8
CUBE_6_8
 10
-0.78
 20
0.15
 30
1.2684
 70
192
 0
VERTEX
 8
CUBE_6_8
 10
0
 20
0
 30
0
 70
128
 71
1
 72
2
 73
4
 74
3
 0
VERTEX
 8
CUBE_6_8
 10
0
 20
0
 30
0
 70
128
 71
3
 72
4
 73
6
 74
5
 0
VERTEX
 8
CUBE_6_8
 10
0
 20
0
 30
0
 70
128
 71
5
 72
6
 73
8
 74
7
 0
VERTEX
 8
CUBE_6_8
 10
0
 20
0
 30
0
 70
128
 71
7
 72
8
 73
2
 74
1
 0
VERTEX
 8
CUBE_6_8
 10
0
 20
0
 30
0
 70
128
 71
9
 72
10
 73
4
 74
2
 0
VERTEX
 8
CUBE_6_8
 10
0
 20
0
 30
0
 70
128
 71
6
 72
4
 73
10
 74
11
 0
VERTEX
 8
CUBE_6_8
 10
0
 20
0
 30
0
 70
128
 71
12
 72
9
 73
2
 74
8
 0
VERTEX
 8
CUBE_6_8
 10
0
 20
0
 30
0
 70
128
 71
8
 72
6
 73
11
 74
12
 0
VERTEX
 8
CUBE_6_8
 10
0
 20
0
 30
0
 70
128
 71
14
 72
13
 73
1
 74
3
 0
VERTEX
 8
CUBE_6_8
 10
0
 20
0
 30
0
 70
128
 71
7
 72
1
 73
13
 74
16
 0
VERTEX
 8
CUBE_6_8
 10
0
 20
0
 30
0
 70
128
 71
5
 72
7
 73
16
 74
15
 0
VERTEX
 8
CUBE_6_8
 10
0
 20
0
 30
0
 70
128
 71
15
 72
14
 73
3
 74
5
 0
SEQEND
 0
POLYLINE
 8
CUBE_7_9
 66
1
 10
0.0
 20
0.0
 30
0.0
 70
64
 71
8
 72
4
 0
VERTEX
 8
CUBE_7_9
 10
-0.78
 20
-0.15
 30
1.2934
 70
192
 0
VERTEX
 8
CUBE_7_9
 10
0.78
 20
-0.15
 30
1.2934
 70
192
 0
VERTEX
 8
CUBE_7_9
 10
0.78
 20
0.15
 30
1.2934
 70
192
 0
VERTEX
 8
CUBE_7_9
 10
-0.78
 20
0.15
 30
1.2934
 70
192
 0
VERTEX
 8
CUBE_7_9
 10
-0.78
 20
-0.15
 30
1.2684
 70
192
 0
VERTEX
 8
CUBE_7_9
 10
0.78
 20
-0.15
 30
1.2684
 70
192
 0
VERTEX
 8
CUBE_7_9
 10
0.78
 20
0.15
 30
1.2684
 70
192
 0
VERTEX
 8
CUBE_7_9
 10
-0.78
 20
0.15
 30
1.2684
 70
192
 0
VERTEX
 8
CUBE_7_9
 10
0
 20
0
 30
0
 70
128
 71
1
 72
5
 73
6
 74
2
 0
VERTEX
 8
CUBE_7_9
 10
0
 20
0
 30
0
 70
128
 71
2
 72
6
 73
7
 74
3
 0
VERTEX
 8
CUBE_7_9
 10
0
 20
0
 30
0
 70
128
 71
8
 72
4
 73
3
 74
7
 0
VERTEX
 8
CUBE_7_9
 10
0
 20
0
 30
0
 70
128
 71
4
 72
8
 73
5
 74
1
 0
SEQEND
 0
POLYLINE
 8
CUBE_12
 66
1
 10
0.0
 20
0.0
 30
0.0
 70
64
 71
8
 72
6
 0
VERTEX
 8
CUBE_12
 10
-0.8055
 20
-0.185
 30
1.2943
 70
192
 0
VERTEX
 8
CUBE_12
 10
-0.8055
 20
-0.185
 30
1.3143
 70
192
 0
VERTEX
 8
CUBE_12
 10
0.8055
 20
-0.185
 30
1.2943
 70
192
 0
VERTEX
 8
CUBE_12
 10
0.8055
 20
-0.185
 30
1.3143
 70
192
 0
VERTEX
 8
CUBE_12
 10
0.8055
 20
0.185
 30
1.2943
 70
192
 0
VERTEX
 8
CUBE_12
 10
0.8055
 20
0.185
 30
1.3143
 70
192
 0
VERTEX
 8
CUBE_12
 10
-0.8055
 20
0.185
 30
1.2943
 70
192
 0
VERTEX
 8
CUBE_12
 10
-0.8055
 20
0.185
 30
1.3143
 70
192
 0
VERTEX
 8
CUBE_12
 10
0
 20
0
 30
0
 70
128
 71
1
 72
2
 73
4
 74
3
 0
VERTEX
 8
CUBE_12
 10
0
 20
0
 30
0
 70
128
 71
3
 72
4
 73
6
 74
5
 0
VERTEX
 8
CUBE_12
 10
0
 20
0
 30
0
 70
128
 71
5
 72
6
 73
8
 74
7
 0
VERTEX
 8
CUBE_12
 10
0
 20
0
 30
0
 70
128
 71
7
 72
8
 73
2
 74
1
 0
VERTEX
 8
CUBE_12
 10
0
 20
0
 30
0
 70
128
 71
2
 72
8
 73
6
 74
4
 0
VERTEX
 8
CUBE_12
 10
0
 20
0
 30
0
 70
128
 71
7
 72
1
 73
3
 74
5
 0
SEQEND
 0
ENDSEC
 0
EOF
