 0
SECTION
 2
HEADER
 9
$ACADVER
 1
AC1009
 0
ENDSEC
 0
SECTION
 2
TABLES
 0
TABLE
 2
LTYPE
 70
1
 0
LTYPE
 2
CONTINUOUS
 70
64
 3
solid line
 72
65
 73
0
 40
0.0
 0
ENDTAB
 0
TABLE
 2
LAYER
 70
6
 0
LAYER
 2
0
 70
0
 62
7
 6
CONTINUOUS
 0
LAYER
 2
26762-10
 70
64
 62
7
 6
CONTINUOUS
 0
LAYER
 2
CYLINDER_3
 70
64
 62
27
 6
CONTINUOUS
 0
LAYER
 2
LOFT_3
 70
64
 62
27
 6
CONTINUOUS
 0
LAYER
 2
TAPA_1
 70
64
 62
27
 6
CONTINUOUS
 0
LAYER
 2
TAPA_2
 70
64
 62
27
 6
CONTINUOUS
 0
LAYER
 2
LOFT_2
 70
64
 62
27
 6
CONTINUOUS
 0
LAYER
 2
TAPA_1_1
 70
64
 62
27
 6
CONTINUOUS
 0
LAYER
 2
TAPA_2_1
 70
64
 62
27
 6
CONTINUOUS
 0
LAYER
 2
CYLINDER_2
 70
64
 62
27
 6
CONTINUOUS
 0
LAYER
 2
CYLINDER_1
 70
64
 62
27
 6
CONTINUOUS
 0
LAYER
 2
LOFT_1
 70
64
 62
27
 6
CONTINUOUS
 0
LAYER
 2
TAPA_1_2
 70
64
 62
27
 6
CONTINUOUS
 0
LAYER
 2
TAPA_2_2
 70
64
 62
27
 6
CONTINUOUS
 0
LAYER
 2
BOOLE_2
 70
64
 62
27
 6
CONTINUOUS
 0
LAYER
 2
BOOLE_2_1
 70
64
 62
27
 6
CONTINUOUS
 0
LAYER
 2
BOOLE
 70
64
 62
27
 6
CONTINUOUS
 0
LAYER
 2
CUBE
 70
64
 62
27
 6
CONTINUOUS
 0
LAYER
 2
CUBE_2
 70
64
 62
27
 6
CONTINUOUS
 0
LAYER
 2
EXTRUDE
 70
64
 62
27
 6
CONTINUOUS
 0
LAYER
 2
TAPA_1_3
 70
64
 62
27
 6
CONTINUOUS
 0
LAYER
 2
TAPA_2_3
 70
64
 62
27
 6
CONTINUOUS
 0
LAYER
 2
BOOLE_1
 70
64
 62
27
 6
CONTINUOUS
 0
LAYER
 2
BOOLE_2_2
 70
64
 62
27
 6
CONTINUOUS
 0
LAYER
 2
BOOLE_3
 70
64
 62
27
 6
CONTINUOUS
 0
LAYER
 2
CUBE_1
 70
64
 62
27
 6
CONTINUOUS
 0
LAYER
 2
CUBE_2_1
 70
64
 62
27
 6
CONTINUOUS
 0
LAYER
 2
EXTRUDE_1
 70
64
 62
27
 6
CONTINUOUS
 0
LAYER
 2
TAPA_1_4
 70
64
 62
27
 6
CONTINUOUS
 0
LAYER
 2
TAPA_2_4
 70
64
 62
27
 6
CONTINUOUS
 0
LAYER
 2
LOFT
 70
64
 62
27
 6
CONTINUOUS
 0
LAYER
 2
TAPA_1_5
 70
64
 62
27
 6
CONTINUOUS
 0
LAYER
 2
TAPA_2_5
 70
64
 62
27
 6
CONTINUOUS
 0
LAYER
 2
BOOLE_3_1
 70
64
 62
27
 6
CONTINUOUS
 0
LAYER
 2
CUBE_1_1
 70
64
 62
250
 6
CONTINUOUS
 0
LAYER
 2
CYLINDER
 70
64
 62
27
 6
CONTINUOUS
 0
ENDTAB
 0
ENDSEC
 0
SECTION
 2
BLOCKS
 0
ENDSEC
 0
SECTION
 2
ENTITIES
 0
POLYLINE
 8
CYLINDER_3
 66
1
 10
0.0
 20
0.0
 30
0.0
 70
64
 71
146
 72
108
 0
VERTEX
 8
CYLINDER_3
 10
-0.187
 20
0.1429
 30
0.263
 70
192
 0
VERTEX
 8
CYLINDER_3
 10
-0.187
 20
0.1429
 30
0.2716
 70
192
 0
VERTEX
 8
CYLINDER_3
 10
-0.152
 20
0.1429
 30
0.263
 70
192
 0
VERTEX
 8
CYLINDER_3
 10
-0.152
 20
0.1429
 30
0.263
 70
192
 0
VERTEX
 8
CYLINDER_3
 10
-0.152
 20
0.1429
 30
0.2716
 70
192
 0
VERTEX
 8
CYLINDER_3
 10
-0.152
 20
0.1429
 30
0.2716
 70
192
 0
VERTEX
 8
CYLINDER_3
 10
-0.1525
 20
0.149
 30
0.263
 70
192
 0
VERTEX
 8
CYLINDER_3
 10
-0.1525
 20
0.149
 30
0.263
 70
192
 0
VERTEX
 8
CYLINDER_3
 10
-0.1525
 20
0.149
 30
0.2716
 70
192
 0
VERTEX
 8
CYLINDER_3
 10
-0.1525
 20
0.149
 30
0.2716
 70
192
 0
VERTEX
 8
CYLINDER_3
 10
-0.1541
 20
0.1549
 30
0.263
 70
192
 0
VERTEX
 8
CYLINDER_3
 10
-0.1541
 20
0.1549
 30
0.263
 70
192
 0
VERTEX
 8
CYLINDER_3
 10
-0.1541
 20
0.1549
 30
0.2716
 70
192
 0
VERTEX
 8
CYLINDER_3
 10
-0.1541
 20
0.1549
 30
0.2716
 70
192
 0
VERTEX
 8
CYLINDER_3
 10
-0.1567
 20
0.1604
 30
0.263
 70
192
 0
VERTEX
 8
CYLINDER_3
 10
-0.1567
 20
0.1604
 30
0.263
 70
192
 0
VERTEX
 8
CYLINDER_3
 10
-0.1567
 20
0.1604
 30
0.2716
 70
192
 0
VERTEX
 8
CYLINDER_3
 10
-0.1567
 20
0.1604
 30
0.2716
 70
192
 0
VERTEX
 8
CYLINDER_3
 10
-0.1602
 20
0.1654
 30
0.263
 70
192
 0
VERTEX
 8
CYLINDER_3
 10
-0.1602
 20
0.1654
 30
0.263
 70
192
 0
VERTEX
 8
CYLINDER_3
 10
-0.1602
 20
0.1654
 30
0.2716
 70
192
 0
VERTEX
 8
CYLINDER_3
 10
-0.1602
 20
0.1654
 30
0.2716
 70
192
 0
VERTEX
 8
CYLINDER_3
 10
-0.1645
 20
0.1697
 30
0.263
 70
192
 0
VERTEX
 8
CYLINDER_3
 10
-0.1645
 20
0.1697
 30
0.263
 70
192
 0
VERTEX
 8
CYLINDER_3
 10
-0.1645
 20
0.1697
 30
0.2716
 70
192
 0
VERTEX
 8
CYLINDER_3
 10
-0.1645
 20
0.1697
 30
0.2716
 70
192
 0
VERTEX
 8
CYLINDER_3
 10
-0.1695
 20
0.1732
 30
0.263
 70
192
 0
VERTEX
 8
CYLINDER_3
 10
-0.1695
 20
0.1732
 30
0.263
 70
192
 0
VERTEX
 8
CYLINDER_3
 10
-0.1695
 20
0.1732
 30
0.2716
 70
192
 0
VERTEX
 8
CYLINDER_3
 10
-0.1695
 20
0.1732
 30
0.2716
 70
192
 0
VERTEX
 8
CYLINDER_3
 10
-0.175
 20
0.1758
 30
0.263
 70
192
 0
VERTEX
 8
CYLINDER_3
 10
-0.175
 20
0.1758
 30
0.263
 70
192
 0
VERTEX
 8
CYLINDER_3
 10
-0.175
 20
0.1758
 30
0.2716
 70
192
 0
VERTEX
 8
CYLINDER_3
 10
-0.175
 20
0.1758
 30
0.2716
 70
192
 0
VERTEX
 8
CYLINDER_3
 10
-0.1809
 20
0.1773
 30
0.263
 70
192
 0
VERTEX
 8
CYLINDER_3
 10
-0.1809
 20
0.1773
 30
0.263
 70
192
 0
VERTEX
 8
CYLINDER_3
 10
-0.1809
 20
0.1773
 30
0.2716
 70
192
 0
VERTEX
 8
CYLINDER_3
 10
-0.1809
 20
0.1773
 30
0.2716
 70
192
 0
VERTEX
 8
CYLINDER_3
 10
-0.187
 20
0.1779
 30
0.263
 70
192
 0
VERTEX
 8
CYLINDER_3
 10
-0.187
 20
0.1779
 30
0.263
 70
192
 0
VERTEX
 8
CYLINDER_3
 10
-0.187
 20
0.1779
 30
0.2716
 70
192
 0
VERTEX
 8
CYLINDER_3
 10
-0.187
 20
0.1779
 30
0.2716
 70
192
 0
VERTEX
 8
CYLINDER_3
 10
-0.193
 20
0.1773
 30
0.263
 70
192
 0
VERTEX
 8
CYLINDER_3
 10
-0.193
 20
0.1773
 30
0.263
 70
192
 0
VERTEX
 8
CYLINDER_3
 10
-0.193
 20
0.1773
 30
0.2716
 70
192
 0
VERTEX
 8
CYLINDER_3
 10
-0.193
 20
0.1773
 30
0.2716
 70
192
 0
VERTEX
 8
CYLINDER_3
 10
-0.1989
 20
0.1758
 30
0.263
 70
192
 0
VERTEX
 8
CYLINDER_3
 10
-0.1989
 20
0.1758
 30
0.263
 70
192
 0
VERTEX
 8
CYLINDER_3
 10
-0.1989
 20
0.1758
 30
0.2716
 70
192
 0
VERTEX
 8
CYLINDER_3
 10
-0.1989
 20
0.1758
 30
0.2716
 70
192
 0
VERTEX
 8
CYLINDER_3
 10
-0.2044
 20
0.1732
 30
0.263
 70
192
 0
VERTEX
 8
CYLINDER_3
 10
-0.2044
 20
0.1732
 30
0.263
 70
192
 0
VERTEX
 8
CYLINDER_3
 10
-0.2044
 20
0.1732
 30
0.2716
 70
192
 0
VERTEX
 8
CYLINDER_3
 10
-0.2044
 20
0.1732
 30
0.2716
 70
192
 0
VERTEX
 8
CYLINDER_3
 10
-0.2094
 20
0.1697
 30
0.263
 70
192
 0
VERTEX
 8
CYLINDER_3
 10
-0.2094
 20
0.1697
 30
0.263
 70
192
 0
VERTEX
 8
CYLINDER_3
 10
-0.2094
 20
0.1697
 30
0.2716
 70
192
 0
VERTEX
 8
CYLINDER_3
 10
-0.2094
 20
0.1697
 30
0.2716
 70
192
 0
VERTEX
 8
CYLINDER_3
 10
-0.2137
 20
0.1654
 30
0.263
 70
192
 0
VERTEX
 8
CYLINDER_3
 10
-0.2137
 20
0.1654
 30
0.263
 70
192
 0
VERTEX
 8
CYLINDER_3
 10
-0.2137
 20
0.1654
 30
0.2716
 70
192
 0
VERTEX
 8
CYLINDER_3
 10
-0.2137
 20
0.1654
 30
0.2716
 70
192
 0
VERTEX
 8
CYLINDER_3
 10
-0.2172
 20
0.1604
 30
0.263
 70
192
 0
VERTEX
 8
CYLINDER_3
 10
-0.2172
 20
0.1604
 30
0.263
 70
192
 0
VERTEX
 8
CYLINDER_3
 10
-0.2172
 20
0.1604
 30
0.2716
 70
192
 0
VERTEX
 8
CYLINDER_3
 10
-0.2172
 20
0.1604
 30
0.2716
 70
192
 0
VERTEX
 8
CYLINDER_3
 10
-0.2198
 20
0.1549
 30
0.263
 70
192
 0
VERTEX
 8
CYLINDER_3
 10
-0.2198
 20
0.1549
 30
0.263
 70
192
 0
VERTEX
 8
CYLINDER_3
 10
-0.2198
 20
0.1549
 30
0.2716
 70
192
 0
VERTEX
 8
CYLINDER_3
 10
-0.2198
 20
0.1549
 30
0.2716
 70
192
 0
VERTEX
 8
CYLINDER_3
 10
-0.2214
 20
0.149
 30
0.263
 70
192
 0
VERTEX
 8
CYLINDER_3
 10
-0.2214
 20
0.149
 30
0.263
 70
192
 0
VERTEX
 8
CYLINDER_3
 10
-0.2214
 20
0.149
 30
0.2716
 70
192
 0
VERTEX
 8
CYLINDER_3
 10
-0.2214
 20
0.149
 30
0.2716
 70
192
 0
VERTEX
 8
CYLINDER_3
 10
-0.2219
 20
0.1429
 30
0.263
 70
192
 0
VERTEX
 8
CYLINDER_3
 10
-0.2219
 20
0.1429
 30
0.263
 70
192
 0
VERTEX
 8
CYLINDER_3
 10
-0.2219
 20
0.1429
 30
0.2716
 70
192
 0
VERTEX
 8
CYLINDER_3
 10
-0.2219
 20
0.1429
 30
0.2716
 70
192
 0
VERTEX
 8
CYLINDER_3
 10
-0.2214
 20
0.1369
 30
0.263
 70
192
 0
VERTEX
 8
CYLINDER_3
 10
-0.2214
 20
0.1369
 30
0.263
 70
192
 0
VERTEX
 8
CYLINDER_3
 10
-0.2214
 20
0.1369
 30
0.2716
 70
192
 0
VERTEX
 8
CYLINDER_3
 10
-0.2214
 20
0.1369
 30
0.2716
 70
192
 0
VERTEX
 8
CYLINDER_3
 10
-0.2198
 20
0.131
 30
0.263
 70
192
 0
VERTEX
 8
CYLINDER_3
 10
-0.2198
 20
0.131
 30
0.263
 70
192
 0
VERTEX
 8
CYLINDER_3
 10
-0.2198
 20
0.131
 30
0.2716
 70
192
 0
VERTEX
 8
CYLINDER_3
 10
-0.2198
 20
0.131
 30
0.2716
 70
192
 0
VERTEX
 8
CYLINDER_3
 10
-0.2172
 20
0.1255
 30
0.263
 70
192
 0
VERTEX
 8
CYLINDER_3
 10
-0.2172
 20
0.1255
 30
0.263
 70
192
 0
VERTEX
 8
CYLINDER_3
 10
-0.2172
 20
0.1255
 30
0.2716
 70
192
 0
VERTEX
 8
CYLINDER_3
 10
-0.2172
 20
0.1255
 30
0.2716
 70
192
 0
VERTEX
 8
CYLINDER_3
 10
-0.2137
 20
0.1205
 30
0.263
 70
192
 0
VERTEX
 8
CYLINDER_3
 10
-0.2137
 20
0.1205
 30
0.263
 70
192
 0
VERTEX
 8
CYLINDER_3
 10
-0.2137
 20
0.1205
 30
0.2716
 70
192
 0
VERTEX
 8
CYLINDER_3
 10
-0.2137
 20
0.1205
 30
0.2716
 70
192
 0
VERTEX
 8
CYLINDER_3
 10
-0.2094
 20
0.1162
 30
0.263
 70
192
 0
VERTEX
 8
CYLINDER_3
 10
-0.2094
 20
0.1162
 30
0.263
 70
192
 0
VERTEX
 8
CYLINDER_3
 10
-0.2094
 20
0.1162
 30
0.2716
 70
192
 0
VERTEX
 8
CYLINDER_3
 10
-0.2094
 20
0.1162
 30
0.2716
 70
192
 0
VERTEX
 8
CYLINDER_3
 10
-0.2044
 20
0.1127
 30
0.263
 70
192
 0
VERTEX
 8
CYLINDER_3
 10
-0.2044
 20
0.1127
 30
0.263
 70
192
 0
VERTEX
 8
CYLINDER_3
 10
-0.2044
 20
0.1127
 30
0.2716
 70
192
 0
VERTEX
 8
CYLINDER_3
 10
-0.2044
 20
0.1127
 30
0.2716
 70
192
 0
VERTEX
 8
CYLINDER_3
 10
-0.1989
 20
0.1101
 30
0.263
 70
192
 0
VERTEX
 8
CYLINDER_3
 10
-0.1989
 20
0.1101
 30
0.263
 70
192
 0
VERTEX
 8
CYLINDER_3
 10
-0.1989
 20
0.1101
 30
0.2716
 70
192
 0
VERTEX
 8
CYLINDER_3
 10
-0.1989
 20
0.1101
 30
0.2716
 70
192
 0
VERTEX
 8
CYLINDER_3
 10
-0.193
 20
0.1085
 30
0.263
 70
192
 0
VERTEX
 8
CYLINDER_3
 10
-0.193
 20
0.1085
 30
0.263
 70
192
 0
VERTEX
 8
CYLINDER_3
 10
-0.193
 20
0.1085
 30
0.2716
 70
192
 0
VERTEX
 8
CYLINDER_3
 10
-0.193
 20
0.1085
 30
0.2716
 70
192
 0
VERTEX
 8
CYLINDER_3
 10
-0.187
 20
0.108
 30
0.263
 70
192
 0
VERTEX
 8
CYLINDER_3
 10
-0.187
 20
0.108
 30
0.263
 70
192
 0
VERTEX
 8
CYLINDER_3
 10
-0.187
 20
0.108
 30
0.2716
 70
192
 0
VERTEX
 8
CYLINDER_3
 10
-0.187
 20
0.108
 30
0.2716
 70
192
 0
VERTEX
 8
CYLINDER_3
 10
-0.1809
 20
0.1085
 30
0.263
 70
192
 0
VERTEX
 8
CYLINDER_3
 10
-0.1809
 20
0.1085
 30
0.263
 70
192
 0
VERTEX
 8
CYLINDER_3
 10
-0.1809
 20
0.1085
 30
0.2716
 70
192
 0
VERTEX
 8
CYLINDER_3
 10
-0.1809
 20
0.1085
 30
0.2716
 70
192
 0
VERTEX
 8
CYLINDER_3
 10
-0.175
 20
0.1101
 30
0.263
 70
192
 0
VERTEX
 8
CYLINDER_3
 10
-0.175
 20
0.1101
 30
0.263
 70
192
 0
VERTEX
 8
CYLINDER_3
 10
-0.175
 20
0.1101
 30
0.2716
 70
192
 0
VERTEX
 8
CYLINDER_3
 10
-0.175
 20
0.1101
 30
0.2716
 70
192
 0
VERTEX
 8
CYLINDER_3
 10
-0.1695
 20
0.1127
 30
0.263
 70
192
 0
VERTEX
 8
CYLINDER_3
 10
-0.1695
 20
0.1127
 30
0.263
 70
192
 0
VERTEX
 8
CYLINDER_3
 10
-0.1695
 20
0.1127
 30
0.2716
 70
192
 0
VERTEX
 8
CYLINDER_3
 10
-0.1695
 20
0.1127
 30
0.2716
 70
192
 0
VERTEX
 8
CYLINDER_3
 10
-0.1645
 20
0.1162
 30
0.263
 70
192
 0
VERTEX
 8
CYLINDER_3
 10
-0.1645
 20
0.1162
 30
0.263
 70
192
 0
VERTEX
 8
CYLINDER_3
 10
-0.1645
 20
0.1162
 30
0.2716
 70
192
 0
VERTEX
 8
CYLINDER_3
 10
-0.1645
 20
0.1162
 30
0.2716
 70
192
 0
VERTEX
 8
CYLINDER_3
 10
-0.1602
 20
0.1205
 30
0.263
 70
192
 0
VERTEX
 8
CYLINDER_3
 10
-0.1602
 20
0.1205
 30
0.263
 70
192
 0
VERTEX
 8
CYLINDER_3
 10
-0.1602
 20
0.1205
 30
0.2716
 70
192
 0
VERTEX
 8
CYLINDER_3
 10
-0.1602
 20
0.1205
 30
0.2716
 70
192
 0
VERTEX
 8
CYLINDER_3
 10
-0.1567
 20
0.1255
 30
0.263
 70
192
 0
VERTEX
 8
CYLINDER_3
 10
-0.1567
 20
0.1255
 30
0.263
 70
192
 0
VERTEX
 8
CYLINDER_3
 10
-0.1567
 20
0.1255
 30
0.2716
 70
192
 0
VERTEX
 8
CYLINDER_3
 10
-0.1567
 20
0.1255
 30
0.2716
 70
192
 0
VERTEX
 8
CYLINDER_3
 10
-0.1541
 20
0.131
 30
0.263
 70
192
 0
VERTEX
 8
CYLINDER_3
 10
-0.1541
 20
0.131
 30
0.263
 70
192
 0
VERTEX
 8
CYLINDER_3
 10
-0.1541
 20
0.131
 30
0.2716
 70
192
 0
VERTEX
 8
CYLINDER_3
 10
-0.1541
 20
0.131
 30
0.2716
 70
192
 0
VERTEX
 8
CYLINDER_3
 10
-0.1525
 20
0.1369
 30
0.263
 70
192
 0
VERTEX
 8
CYLINDER_3
 10
-0.1525
 20
0.1369
 30
0.263
 70
192
 0
VERTEX
 8
CYLINDER_3
 10
-0.1525
 20
0.1369
 30
0.2716
 70
192
 0
VERTEX
 8
CYLINDER_3
 10
-0.1525
 20
0.1369
 30
0.2716
 70
192
 0
VERTEX
 8
CYLINDER_3
 10
0
 20
0
 30
0
 70
128
 71
1
 72
3
 73
7
 74
7
 0
VERTEX
 8
CYLINDER_3
 10
0
 20
0
 30
0
 70
128
 71
4
 72
5
 73
9
 74
8
 0
VERTEX
 8
CYLINDER_3
 10
0
 20
0
 30
0
 70
128
 71
6
 72
2
 73
10
 74
10
 0
VERTEX
 8
CYLINDER_3
 10
0
 20
0
 30
0
 70
128
 71
1
 72
7
 73
11
 74
11
 0
VERTEX
 8
CYLINDER_3
 10
0
 20
0
 30
0
 70
128
 71
8
 72
9
 73
13
 74
12
 0
VERTEX
 8
CYLINDER_3
 10
0
 20
0
 30
0
 70
128
 71
10
 72
2
 73
14
 74
14
 0
VERTEX
 8
CYLINDER_3
 10
0
 20
0
 30
0
 70
128
 71
1
 72
11
 73
15
 74
15
 0
VERTEX
 8
CYLINDER_3
 10
0
 20
0
 30
0
 70
128
 71
12
 72
13
 73
17
 74
16
 0
VERTEX
 8
CYLINDER_3
 10
0
 20
0
 30
0
 70
128
 71
14
 72
2
 73
18
 74
18
 0
VERTEX
 8
CYLINDER_3
 10
0
 20
0
 30
0
 70
128
 71
1
 72
15
 73
19
 74
19
 0
VERTEX
 8
CYLINDER_3
 10
0
 20
0
 30
0
 70
128
 71
16
 72
17
 73
21
 74
20
 0
VERTEX
 8
CYLINDER_3
 10
0
 20
0
 30
0
 70
128
 71
18
 72
2
 73
22
 74
22
 0
VERTEX
 8
CYLINDER_3
 10
0
 20
0
 30
0
 70
128
 71
1
 72
19
 73
23
 74
23
 0
VERTEX
 8
CYLINDER_3
 10
0
 20
0
 30
0
 70
128
 71
20
 72
21
 73
25
 74
24
 0
VERTEX
 8
CYLINDER_3
 10
0
 20
0
 30
0
 70
128
 71
22
 72
2
 73
26
 74
26
 0
VERTEX
 8
CYLINDER_3
 10
0
 20
0
 30
0
 70
128
 71
1
 72
23
 73
27
 74
27
 0
VERTEX
 8
CYLINDER_3
 10
0
 20
0
 30
0
 70
128
 71
24
 72
25
 73
29
 74
28
 0
VERTEX
 8
CYLINDER_3
 10
0
 20
0
 30
0
 70
128
 71
26
 72
2
 73
30
 74
30
 0
VERTEX
 8
CYLINDER_3
 10
0
 20
0
 30
0
 70
128
 71
1
 72
27
 73
31
 74
31
 0
VERTEX
 8
CYLINDER_3
 10
0
 20
0
 30
0
 70
128
 71
28
 72
29
 73
33
 74
32
 0
VERTEX
 8
CYLINDER_3
 10
0
 20
0
 30
0
 70
128
 71
30
 72
2
 73
34
 74
34
 0
VERTEX
 8
CYLINDER_3
 10
0
 20
0
 30
0
 70
128
 71
1
 72
31
 73
35
 74
35
 0
VERTEX
 8
CYLINDER_3
 10
0
 20
0
 30
0
 70
128
 71
32
 72
33
 73
37
 74
36
 0
VERTEX
 8
CYLINDER_3
 10
0
 20
0
 30
0
 70
128
 71
34
 72
2
 73
38
 74
38
 0
VERTEX
 8
CYLINDER_3
 10
0
 20
0
 30
0
 70
128
 71
1
 72
35
 73
39
 74
39
 0
VERTEX
 8
CYLINDER_3
 10
0
 20
0
 30
0
 70
128
 71
36
 72
37
 73
41
 74
40
 0
VERTEX
 8
CYLINDER_3
 10
0
 20
0
 30
0
 70
128
 71
38
 72
2
 73
42
 74
42
 0
VERTEX
 8
CYLINDER_3
 10
0
 20
0
 30
0
 70
128
 71
1
 72
39
 73
43
 74
43
 0
VERTEX
 8
CYLINDER_3
 10
0
 20
0
 30
0
 70
128
 71
40
 72
41
 73
45
 74
44
 0
VERTEX
 8
CYLINDER_3
 10
0
 20
0
 30
0
 70
128
 71
42
 72
2
 73
46
 74
46
 0
VERTEX
 8
CYLINDER_3
 10
0
 20
0
 30
0
 70
128
 71
1
 72
43
 73
47
 74
47
 0
VERTEX
 8
CYLINDER_3
 10
0
 20
0
 30
0
 70
128
 71
44
 72
45
 73
49
 74
48
 0
VERTEX
 8
CYLINDER_3
 10
0
 20
0
 30
0
 70
128
 71
46
 72
2
 73
50
 74
50
 0
VERTEX
 8
CYLINDER_3
 10
0
 20
0
 30
0
 70
128
 71
1
 72
47
 73
51
 74
51
 0
VERTEX
 8
CYLINDER_3
 10
0
 20
0
 30
0
 70
128
 71
48
 72
49
 73
53
 74
52
 0
VERTEX
 8
CYLINDER_3
 10
0
 20
0
 30
0
 70
128
 71
50
 72
2
 73
54
 74
54
 0
VERTEX
 8
CYLINDER_3
 10
0
 20
0
 30
0
 70
128
 71
1
 72
51
 73
55
 74
55
 0
VERTEX
 8
CYLINDER_3
 10
0
 20
0
 30
0
 70
128
 71
52
 72
53
 73
57
 74
56
 0
VERTEX
 8
CYLINDER_3
 10
0
 20
0
 30
0
 70
128
 71
54
 72
2
 73
58
 74
58
 0
VERTEX
 8
CYLINDER_3
 10
0
 20
0
 30
0
 70
128
 71
1
 72
55
 73
59
 74
59
 0
VERTEX
 8
CYLINDER_3
 10
0
 20
0
 30
0
 70
128
 71
56
 72
57
 73
61
 74
60
 0
VERTEX
 8
CYLINDER_3
 10
0
 20
0
 30
0
 70
128
 71
58
 72
2
 73
62
 74
62
 0
VERTEX
 8
CYLINDER_3
 10
0
 20
0
 30
0
 70
128
 71
1
 72
59
 73
63
 74
63
 0
VERTEX
 8
CYLINDER_3
 10
0
 20
0
 30
0
 70
128
 71
60
 72
61
 73
65
 74
64
 0
VERTEX
 8
CYLINDER_3
 10
0
 20
0
 30
0
 70
128
 71
62
 72
2
 73
66
 74
66
 0
VERTEX
 8
CYLINDER_3
 10
0
 20
0
 30
0
 70
128
 71
1
 72
63
 73
67
 74
67
 0
VERTEX
 8
CYLINDER_3
 10
0
 20
0
 30
0
 70
128
 71
64
 72
65
 73
69
 74
68
 0
VERTEX
 8
CYLINDER_3
 10
0
 20
0
 30
0
 70
128
 71
66
 72
2
 73
70
 74
70
 0
VERTEX
 8
CYLINDER_3
 10
0
 20
0
 30
0
 70
128
 71
1
 72
67
 73
71
 74
71
 0
VERTEX
 8
CYLINDER_3
 10
0
 20
0
 30
0
 70
128
 71
68
 72
69
 73
73
 74
72
 0
VERTEX
 8
CYLINDER_3
 10
0
 20
0
 30
0
 70
128
 71
70
 72
2
 73
74
 74
74
 0
VERTEX
 8
CYLINDER_3
 10
0
 20
0
 30
0
 70
128
 71
1
 72
71
 73
75
 74
75
 0
VERTEX
 8
CYLINDER_3
 10
0
 20
0
 30
0
 70
128
 71
72
 72
73
 73
77
 74
76
 0
VERTEX
 8
CYLINDER_3
 10
0
 20
0
 30
0
 70
128
 71
74
 72
2
 73
78
 74
78
 0
VERTEX
 8
CYLINDER_3
 10
0
 20
0
 30
0
 70
128
 71
1
 72
75
 73
79
 74
79
 0
VERTEX
 8
CYLINDER_3
 10
0
 20
0
 30
0
 70
128
 71
76
 72
77
 73
81
 74
80
 0
VERTEX
 8
CYLINDER_3
 10
0
 20
0
 30
0
 70
128
 71
78
 72
2
 73
82
 74
82
 0
VERTEX
 8
CYLINDER_3
 10
0
 20
0
 30
0
 70
128
 71
1
 72
79
 73
83
 74
83
 0
VERTEX
 8
CYLINDER_3
 10
0
 20
0
 30
0
 70
128
 71
80
 72
81
 73
85
 74
84
 0
VERTEX
 8
CYLINDER_3
 10
0
 20
0
 30
0
 70
128
 71
82
 72
2
 73
86
 74
86
 0
VERTEX
 8
CYLINDER_3
 10
0
 20
0
 30
0
 70
128
 71
1
 72
83
 73
87
 74
87
 0
VERTEX
 8
CYLINDER_3
 10
0
 20
0
 30
0
 70
128
 71
84
 72
85
 73
89
 74
88
 0
VERTEX
 8
CYLINDER_3
 10
0
 20
0
 30
0
 70
128
 71
86
 72
2
 73
90
 74
90
 0
VERTEX
 8
CYLINDER_3
 10
0
 20
0
 30
0
 70
128
 71
1
 72
87
 73
91
 74
91
 0
VERTEX
 8
CYLINDER_3
 10
0
 20
0
 30
0
 70
128
 71
88
 72
89
 73
93
 74
92
 0
VERTEX
 8
CYLINDER_3
 10
0
 20
0
 30
0
 70
128
 71
90
 72
2
 73
94
 74
94
 0
VERTEX
 8
CYLINDER_3
 10
0
 20
0
 30
0
 70
128
 71
1
 72
91
 73
95
 74
95
 0
VERTEX
 8
CYLINDER_3
 10
0
 20
0
 30
0
 70
128
 71
92
 72
93
 73
97
 74
96
 0
VERTEX
 8
CYLINDER_3
 10
0
 20
0
 30
0
 70
128
 71
94
 72
2
 73
98
 74
98
 0
VERTEX
 8
CYLINDER_3
 10
0
 20
0
 30
0
 70
128
 71
1
 72
95
 73
99
 74
99
 0
VERTEX
 8
CYLINDER_3
 10
0
 20
0
 30
0
 70
128
 71
96
 72
97
 73
101
 74
100
 0
VERTEX
 8
CYLINDER_3
 10
0
 20
0
 30
0
 70
128
 71
98
 72
2
 73
102
 74
102
 0
VERTEX
 8
CYLINDER_3
 10
0
 20
0
 30
0
 70
128
 71
1
 72
99
 73
103
 74
103
 0
VERTEX
 8
CYLINDER_3
 10
0
 20
0
 30
0
 70
128
 71
100
 72
101
 73
105
 74
104
 0
VERTEX
 8
CYLINDER_3
 10
0
 20
0
 30
0
 70
128
 71
102
 72
2
 73
106
 74
106
 0
VERTEX
 8
CYLINDER_3
 10
0
 20
0
 30
0
 70
128
 71
1
 72
103
 73
107
 74
107
 0
VERTEX
 8
CYLINDER_3
 10
0
 20
0
 30
0
 70
128
 71
104
 72
105
 73
109
 74
108
 0
VERTEX
 8
CYLINDER_3
 10
0
 20
0
 30
0
 70
128
 71
106
 72
2
 73
110
 74
110
 0
VERTEX
 8
CYLINDER_3
 10
0
 20
0
 30
0
 70
128
 71
1
 72
107
 73
111
 74
111
 0
VERTEX
 8
CYLINDER_3
 10
0
 20
0
 30
0
 70
128
 71
108
 72
109
 73
113
 74
112
 0
VERTEX
 8
CYLINDER_3
 10
0
 20
0
 30
0
 70
128
 71
110
 72
2
 73
114
 74
114
 0
VERTEX
 8
CYLINDER_3
 10
0
 20
0
 30
0
 70
128
 71
1
 72
111
 73
115
 74
115
 0
VERTEX
 8
CYLINDER_3
 10
0
 20
0
 30
0
 70
128
 71
112
 72
113
 73
117
 74
116
 0
VERTEX
 8
CYLINDER_3
 10
0
 20
0
 30
0
 70
128
 71
114
 72
2
 73
118
 74
118
 0
VERTEX
 8
CYLINDER_3
 10
0
 20
0
 30
0
 70
128
 71
1
 72
115
 73
119
 74
119
 0
VERTEX
 8
CYLINDER_3
 10
0
 20
0
 30
0
 70
128
 71
116
 72
117
 73
121
 74
120
 0
VERTEX
 8
CYLINDER_3
 10
0
 20
0
 30
0
 70
128
 71
118
 72
2
 73
122
 74
122
 0
VERTEX
 8
CYLINDER_3
 10
0
 20
0
 30
0
 70
128
 71
1
 72
119
 73
123
 74
123
 0
VERTEX
 8
CYLINDER_3
 10
0
 20
0
 30
0
 70
128
 71
120
 72
121
 73
125
 74
124
 0
VERTEX
 8
CYLINDER_3
 10
0
 20
0
 30
0
 70
128
 71
122
 72
2
 73
126
 74
126
 0
VERTEX
 8
CYLINDER_3
 10
0
 20
0
 30
0
 70
128
 71
1
 72
123
 73
127
 74
127
 0
VERTEX
 8
CYLINDER_3
 10
0
 20
0
 30
0
 70
128
 71
124
 72
125
 73
129
 74
128
 0
VERTEX
 8
CYLINDER_3
 10
0
 20
0
 30
0
 70
128
 71
126
 72
2
 73
130
 74
130
 0
VERTEX
 8
CYLINDER_3
 10
0
 20
0
 30
0
 70
128
 71
1
 72
127
 73
131
 74
131
 0
VERTEX
 8
CYLINDER_3
 10
0
 20
0
 30
0
 70
128
 71
128
 72
129
 73
133
 74
132
 0
VERTEX
 8
CYLINDER_3
 10
0
 20
0
 30
0
 70
128
 71
130
 72
2
 73
134
 74
134
 0
VERTEX
 8
CYLINDER_3
 10
0
 20
0
 30
0
 70
128
 71
1
 72
131
 73
135
 74
135
 0
VERTEX
 8
CYLINDER_3
 10
0
 20
0
 30
0
 70
128
 71
132
 72
133
 73
137
 74
136
 0
VERTEX
 8
CYLINDER_3
 10
0
 20
0
 30
0
 70
128
 71
134
 72
2
 73
138
 74
138
 0
VERTEX
 8
CYLINDER_3
 10
0
 20
0
 30
0
 70
128
 71
1
 72
135
 73
139
 74
139
 0
VERTEX
 8
CYLINDER_3
 10
0
 20
0
 30
0
 70
128
 71
136
 72
137
 73
141
 74
140
 0
VERTEX
 8
CYLINDER_3
 10
0
 20
0
 30
0
 70
128
 71
138
 72
2
 73
142
 74
142
 0
VERTEX
 8
CYLINDER_3
 10
0
 20
0
 30
0
 70
128
 71
1
 72
139
 73
143
 74
143
 0
VERTEX
 8
CYLINDER_3
 10
0
 20
0
 30
0
 70
128
 71
140
 72
141
 73
145
 74
144
 0
VERTEX
 8
CYLINDER_3
 10
0
 20
0
 30
0
 70
128
 71
142
 72
2
 73
146
 74
146
 0
VERTEX
 8
CYLINDER_3
 10
0
 20
0
 30
0
 70
128
 71
1
 72
143
 73
3
 74
3
 0
VERTEX
 8
CYLINDER_3
 10
0
 20
0
 30
0
 70
128
 71
144
 72
145
 73
5
 74
4
 0
VERTEX
 8
CYLINDER_3
 10
0
 20
0
 30
0
 70
128
 71
146
 72
2
 73
6
 74
6
 0
SEQEND
 0
POLYLINE
 8
LOFT_3
 66
1
 10
0.0
 20
0.0
 30
0.0
 70
64
 71
319
 72
290
 0
VERTEX
 8
LOFT_3
 10
-0.1846
 20
0.1424
 30
0.0124
 70
192
 0
VERTEX
 8
LOFT_3
 10
-0.1849
 20
0.1453
 30
0.0124
 70
192
 0
VERTEX
 8
LOFT_3
 10
-0.1858
 20
0.1479
 30
0.0124
 70
192
 0
VERTEX
 8
LOFT_3
 10
-0.1873
 20
0.1503
 30
0.0124
 70
192
 0
VERTEX
 8
LOFT_3
 10
-0.1892
 20
0.1523
 30
0.0124
 70
192
 0
VERTEX
 8
LOFT_3
 10
-0.1914
 20
0.1538
 30
0.0124
 70
192
 0
VERTEX
 8
LOFT_3
 10
-0.194
 20
0.1549
 30
0.0124
 70
192
 0
VERTEX
 8
LOFT_3
 10
-0.1969
 20
0.1554
 30
0.0124
 70
192
 0
VERTEX
 8
LOFT_3
 10
-0.1998
 20
0.1552
 30
0.0124
 70
192
 0
VERTEX
 8
LOFT_3
 10
-0.2025
 20
0.1544
 30
0.0124
 70
192
 0
VERTEX
 8
LOFT_3
 10
-0.2049
 20
0.1531
 30
0.0124
 70
192
 0
VERTEX
 8
LOFT_3
 10
-0.207
 20
0.1513
 30
0.0124
 70
192
 0
VERTEX
 8
LOFT_3
 10
-0.2087
 20
0.1492
 30
0.0124
 70
192
 0
VERTEX
 8
LOFT_3
 10
-0.2099
 20
0.1466
 30
0.0124
 70
192
 0
VERTEX
 8
LOFT_3
 10
-0.2105
 20
0.1439
 30
0.0124
 70
192
 0
VERTEX
 8
LOFT_3
 10
-0.2105
 20
0.1409
 30
0.0124
 70
192
 0
VERTEX
 8
LOFT_3
 10
-0.2099
 20
0.1381
 30
0.0124
 70
192
 0
VERTEX
 8
LOFT_3
 10
-0.2087
 20
0.1356
 30
0.0124
 70
192
 0
VERTEX
 8
LOFT_3
 10
-0.207
 20
0.1334
 30
0.0124
 70
192
 0
VERTEX
 8
LOFT_3
 10
-0.2049
 20
0.1317
 30
0.0124
 70
192
 0
VERTEX
 8
LOFT_3
 10
-0.2025
 20
0.1303
 30
0.0124
 70
192
 0
VERTEX
 8
LOFT_3
 10
-0.1998
 20
0.1296
 30
0.0124
 70
192
 0
VERTEX
 8
LOFT_3
 10
-0.1969
 20
0.1294
 30
0.0124
 70
192
 0
VERTEX
 8
LOFT_3
 10
-0.194
 20
0.1299
 30
0.0124
 70
192
 0
VERTEX
 8
LOFT_3
 10
-0.1914
 20
0.1309
 30
0.0124
 70
192
 0
VERTEX
 8
LOFT_3
 10
-0.1892
 20
0.1325
 30
0.0124
 70
192
 0
VERTEX
 8
LOFT_3
 10
-0.1873
 20
0.1345
 30
0.0124
 70
192
 0
VERTEX
 8
LOFT_3
 10
-0.1858
 20
0.1369
 30
0.0124
 70
192
 0
VERTEX
 8
LOFT_3
 10
-0.1849
 20
0.1395
 30
0.0124
 70
192
 0
VERTEX
 8
LOFT_3
 10
-0.1823
 20
0.1424
 30
0.0377
 70
192
 0
VERTEX
 8
LOFT_3
 10
-0.1827
 20
0.1455
 30
0.0377
 70
192
 0
VERTEX
 8
LOFT_3
 10
-0.1837
 20
0.1484
 30
0.0377
 70
192
 0
VERTEX
 8
LOFT_3
 10
-0.1852
 20
0.151
 30
0.0377
 70
192
 0
VERTEX
 8
LOFT_3
 10
-0.1873
 20
0.1532
 30
0.0377
 70
192
 0
VERTEX
 8
LOFT_3
 10
-0.1898
 20
0.1549
 30
0.0377
 70
192
 0
VERTEX
 8
LOFT_3
 10
-0.1926
 20
0.1561
 30
0.0377
 70
192
 0
VERTEX
 8
LOFT_3
 10
-0.1957
 20
0.1566
 30
0.0377
 70
192
 0
VERTEX
 8
LOFT_3
 10
-0.1989
 20
0.1564
 30
0.0377
 70
192
 0
VERTEX
 8
LOFT_3
 10
-0.2019
 20
0.1556
 30
0.0377
 70
192
 0
VERTEX
 8
LOFT_3
 10
-0.2045
 20
0.1541
 30
0.0377
 70
192
 0
VERTEX
 8
LOFT_3
 10
-0.2068
 20
0.1522
 30
0.0377
 70
192
 0
VERTEX
 8
LOFT_3
 10
-0.2086
 20
0.1498
 30
0.0377
 70
192
 0
VERTEX
 8
LOFT_3
 10
-0.2099
 20
0.147
 30
0.0377
 70
192
 0
VERTEX
 8
LOFT_3
 10
-0.2106
 20
0.144
 30
0.0377
 70
192
 0
VERTEX
 8
LOFT_3
 10
-0.2106
 20
0.1408
 30
0.0377
 70
192
 0
VERTEX
 8
LOFT_3
 10
-0.2099
 20
0.1378
 30
0.0377
 70
192
 0
VERTEX
 8
LOFT_3
 10
-0.2086
 20
0.135
 30
0.0377
 70
192
 0
VERTEX
 8
LOFT_3
 10
-0.2068
 20
0.1326
 30
0.0377
 70
192
 0
VERTEX
 8
LOFT_3
 10
-0.2045
 20
0.1307
 30
0.0377
 70
192
 0
VERTEX
 8
LOFT_3
 10
-0.2019
 20
0.1292
 30
0.0377
 70
192
 0
VERTEX
 8
LOFT_3
 10
-0.1989
 20
0.1284
 30
0.0377
 70
192
 0
VERTEX
 8
LOFT_3
 10
-0.1957
 20
0.1282
 30
0.0377
 70
192
 0
VERTEX
 8
LOFT_3
 10
-0.1926
 20
0.1287
 30
0.0377
 70
192
 0
VERTEX
 8
LOFT_3
 10
-0.1898
 20
0.1299
 30
0.0377
 70
192
 0
VERTEX
 8
LOFT_3
 10
-0.1873
 20
0.1316
 30
0.0377
 70
192
 0
VERTEX
 8
LOFT_3
 10
-0.1852
 20
0.1338
 30
0.0377
 70
192
 0
VERTEX
 8
LOFT_3
 10
-0.1837
 20
0.1363
 30
0.0377
 70
192
 0
VERTEX
 8
LOFT_3
 10
-0.1827
 20
0.1392
 30
0.0377
 70
192
 0
VERTEX
 8
LOFT_3
 10
-0.18
 20
0.1424
 30
0.0629
 70
192
 0
VERTEX
 8
LOFT_3
 10
-0.1804
 20
0.1458
 30
0.0629
 70
192
 0
VERTEX
 8
LOFT_3
 10
-0.1815
 20
0.149
 30
0.0629
 70
192
 0
VERTEX
 8
LOFT_3
 10
-0.1832
 20
0.1518
 30
0.0629
 70
192
 0
VERTEX
 8
LOFT_3
 10
-0.1854
 20
0.1541
 30
0.0629
 70
192
 0
VERTEX
 8
LOFT_3
 10
-0.1881
 20
0.156
 30
0.0629
 70
192
 0
VERTEX
 8
LOFT_3
 10
-0.1912
 20
0.1572
 30
0.0629
 70
192
 0
VERTEX
 8
LOFT_3
 10
-0.1945
 20
0.1578
 30
0.0629
 70
192
 0
VERTEX
 8
LOFT_3
 10
-0.198
 20
0.1576
 30
0.0629
 70
192
 0
VERTEX
 8
LOFT_3
 10
-0.2012
 20
0.1567
 30
0.0629
 70
192
 0
VERTEX
 8
LOFT_3
 10
-0.2041
 20
0.1551
 30
0.0629
 70
192
 0
VERTEX
 8
LOFT_3
 10
-0.2066
 20
0.153
 30
0.0629
 70
192
 0
VERTEX
 8
LOFT_3
 10
-0.2086
 20
0.1504
 30
0.0629
 70
192
 0
VERTEX
 8
LOFT_3
 10
-0.21
 20
0.1474
 30
0.0629
 70
192
 0
VERTEX
 8
LOFT_3
 10
-0.2107
 20
0.1441
 30
0.0629
 70
192
 0
VERTEX
 8
LOFT_3
 10
-0.2107
 20
0.1407
 30
0.0629
 70
192
 0
VERTEX
 8
LOFT_3
 10
-0.21
 20
0.1374
 30
0.0629
 70
192
 0
VERTEX
 8
LOFT_3
 10
-0.2086
 20
0.1344
 30
0.0629
 70
192
 0
VERTEX
 8
LOFT_3
 10
-0.2066
 20
0.1318
 30
0.0629
 70
192
 0
VERTEX
 8
LOFT_3
 10
-0.2041
 20
0.1297
 30
0.0629
 70
192
 0
VERTEX
 8
LOFT_3
 10
-0.2012
 20
0.1281
 30
0.0629
 70
192
 0
VERTEX
 8
LOFT_3
 10
-0.198
 20
0.1272
 30
0.0629
 70
192
 0
VERTEX
 8
LOFT_3
 10
-0.1945
 20
0.127
 30
0.0629
 70
192
 0
VERTEX
 8
LOFT_3
 10
-0.1912
 20
0.1276
 30
0.0629
 70
192
 0
VERTEX
 8
LOFT_3
 10
-0.1881
 20
0.1288
 30
0.0629
 70
192
 0
VERTEX
 8
LOFT_3
 10
-0.1854
 20
0.1307
 30
0.0629
 70
192
 0
VERTEX
 8
LOFT_3
 10
-0.1832
 20
0.133
 30
0.0629
 70
192
 0
VERTEX
 8
LOFT_3
 10
-0.1815
 20
0.1358
 30
0.0629
 70
192
 0
VERTEX
 8
LOFT_3
 10
-0.1804
 20
0.139
 30
0.0629
 70
192
 0
VERTEX
 8
LOFT_3
 10
-0.1777
 20
0.1424
 30
0.0882
 70
192
 0
VERTEX
 8
LOFT_3
 10
-0.1781
 20
0.1461
 30
0.0882
 70
192
 0
VERTEX
 8
LOFT_3
 10
-0.1793
 20
0.1495
 30
0.0882
 70
192
 0
VERTEX
 8
LOFT_3
 10
-0.1811
 20
0.1525
 30
0.0882
 70
192
 0
VERTEX
 8
LOFT_3
 10
-0.1835
 20
0.155
 30
0.0882
 70
192
 0
VERTEX
 8
LOFT_3
 10
-0.1865
 20
0.157
 30
0.0882
 70
192
 0
VERTEX
 8
LOFT_3
 10
-0.1898
 20
0.1584
 30
0.0882
 70
192
 0
VERTEX
 8
LOFT_3
 10
-0.1934
 20
0.159
 30
0.0882
 70
192
 0
VERTEX
 8
LOFT_3
 10
-0.1971
 20
0.1588
 30
0.0882
 70
192
 0
VERTEX
 8
LOFT_3
 10
-0.2006
 20
0.1578
 30
0.0882
 70
192
 0
VERTEX
 8
LOFT_3
 10
-0.2037
 20
0.1561
 30
0.0882
 70
192
 0
VERTEX
 8
LOFT_3
 10
-0.2064
 20
0.1538
 30
0.0882
 70
192
 0
VERTEX
 8
LOFT_3
 10
-0.2085
 20
0.151
 30
0.0882
 70
192
 0
VERTEX
 8
LOFT_3
 10
-0.21
 20
0.1478
 30
0.0882
 70
192
 0
VERTEX
 8
LOFT_3
 10
-0.2108
 20
0.1443
 30
0.0882
 70
192
 0
VERTEX
 8
LOFT_3
 10
-0.2108
 20
0.1405
 30
0.0882
 70
192
 0
VERTEX
 8
LOFT_3
 10
-0.21
 20
0.137
 30
0.0882
 70
192
 0
VERTEX
 8
LOFT_3
 10
-0.2085
 20
0.1338
 30
0.0882
 70
192
 0
VERTEX
 8
LOFT_3
 10
-0.2064
 20
0.131
 30
0.0882
 70
192
 0
VERTEX
 8
LOFT_3
 10
-0.2037
 20
0.1287
 30
0.0882
 70
192
 0
VERTEX
 8
LOFT_3
 10
-0.2006
 20
0.127
 30
0.0882
 70
192
 0
VERTEX
 8
LOFT_3
 10
-0.1971
 20
0.126
 30
0.0882
 70
192
 0
VERTEX
 8
LOFT_3
 10
-0.1934
 20
0.1258
 30
0.0882
 70
192
 0
VERTEX
 8
LOFT_3
 10
-0.1898
 20
0.1264
 30
0.0882
 70
192
 0
VERTEX
 8
LOFT_3
 10
-0.1865
 20
0.1278
 30
0.0882
 70
192
 0
VERTEX
 8
LOFT_3
 10
-0.1835
 20
0.1298
 30
0.0882
 70
192
 0
VERTEX
 8
LOFT_3
 10
-0.1811
 20
0.1323
 30
0.0882
 70
192
 0
VERTEX
 8
LOFT_3
 10
-0.1793
 20
0.1353
 30
0.0882
 70
192
 0
VERTEX
 8
LOFT_3
 10
-0.1781
 20
0.1387
 30
0.0882
 70
192
 0
VERTEX
 8
LOFT_3
 10
-0.1754
 20
0.1424
 30
0.1134
 70
192
 0
VERTEX
 8
LOFT_3
 10
-0.1759
 20
0.1463
 30
0.1134
 70
192
 0
VERTEX
 8
LOFT_3
 10
-0.1771
 20
0.15
 30
0.1134
 70
192
 0
VERTEX
 8
LOFT_3
 10
-0.1791
 20
0.1532
 30
0.1134
 70
192
 0
VERTEX
 8
LOFT_3
 10
-0.1817
 20
0.1559
 30
0.1134
 70
192
 0
VERTEX
 8
LOFT_3
 10
-0.1848
 20
0.1581
 30
0.1134
 70
192
 0
VERTEX
 8
LOFT_3
 10
-0.1883
 20
0.1595
 30
0.1134
 70
192
 0
VERTEX
 8
LOFT_3
 10
-0.1922
 20
0.1602
 30
0.1134
 70
192
 0
VERTEX
 8
LOFT_3
 10
-0.1962
 20
0.1599
 30
0.1134
 70
192
 0
VERTEX
 8
LOFT_3
 10
-0.2
 20
0.1589
 30
0.1134
 70
192
 0
VERTEX
 8
LOFT_3
 10
-0.2033
 20
0.1571
 30
0.1134
 70
192
 0
VERTEX
 8
LOFT_3
 10
-0.2062
 20
0.1547
 30
0.1134
 70
192
 0
VERTEX
 8
LOFT_3
 10
-0.2084
 20
0.1517
 30
0.1134
 70
192
 0
VERTEX
 8
LOFT_3
 10
-0.2101
 20
0.1482
 30
0.1134
 70
192
 0
VERTEX
 8
LOFT_3
 10
-0.2109
 20
0.1444
 30
0.1134
 70
192
 0
VERTEX
 8
LOFT_3
 10
-0.2109
 20
0.1404
 30
0.1134
 70
192
 0
VERTEX
 8
LOFT_3
 10
-0.2101
 20
0.1366
 30
0.1134
 70
192
 0
VERTEX
 8
LOFT_3
 10
-0.2084
 20
0.1331
 30
0.1134
 70
192
 0
VERTEX
 8
LOFT_3
 10
-0.2062
 20
0.1301
 30
0.1134
 70
192
 0
VERTEX
 8
LOFT_3
 10
-0.2033
 20
0.1277
 30
0.1134
 70
192
 0
VERTEX
 8
LOFT_3
 10
-0.2
 20
0.1259
 30
0.1134
 70
192
 0
VERTEX
 8
LOFT_3
 10
-0.1962
 20
0.1248
 30
0.1134
 70
192
 0
VERTEX
 8
LOFT_3
 10
-0.1922
 20
0.1246
 30
0.1134
 70
192
 0
VERTEX
 8
LOFT_3
 10
-0.1883
 20
0.1253
 30
0.1134
 70
192
 0
VERTEX
 8
LOFT_3
 10
-0.1848
 20
0.1267
 30
0.1134
 70
192
 0
VERTEX
 8
LOFT_3
 10
-0.1817
 20
0.1288
 30
0.1134
 70
192
 0
VERTEX
 8
LOFT_3
 10
-0.1791
 20
0.1316
 30
0.1134
 70
192
 0
VERTEX
 8
LOFT_3
 10
-0.1771
 20
0.1348
 30
0.1134
 70
192
 0
VERTEX
 8
LOFT_3
 10
-0.1759
 20
0.1384
 30
0.1134
 70
192
 0
VERTEX
 8
LOFT_3
 10
-0.1731
 20
0.1424
 30
0.1386
 70
192
 0
VERTEX
 8
LOFT_3
 10
-0.1736
 20
0.1466
 30
0.1386
 70
192
 0
VERTEX
 8
LOFT_3
 10
-0.1749
 20
0.1505
 30
0.1386
 70
192
 0
VERTEX
 8
LOFT_3
 10
-0.177
 20
0.1539
 30
0.1386
 70
192
 0
VERTEX
 8
LOFT_3
 10
-0.1798
 20
0.1569
 30
0.1386
 70
192
 0
VERTEX
 8
LOFT_3
 10
-0.1831
 20
0.1591
 30
0.1386
 70
192
 0
VERTEX
 8
LOFT_3
 10
-0.1869
 20
0.1607
 30
0.1386
 70
192
 0
VERTEX
 8
LOFT_3
 10
-0.1911
 20
0.1614
 30
0.1386
 70
192
 0
VERTEX
 8
LOFT_3
 10
-0.1953
 20
0.1611
 30
0.1386
 70
192
 0
VERTEX
 8
LOFT_3
 10
-0.1993
 20
0.16
 30
0.1386
 70
192
 0
VERTEX
 8
LOFT_3
 10
-0.2029
 20
0.1581
 30
0.1386
 70
192
 0
VERTEX
 8
LOFT_3
 10
-0.2059
 20
0.1555
 30
0.1386
 70
192
 0
VERTEX
 8
LOFT_3
 10
-0.2084
 20
0.1523
 30
0.1386
 70
192
 0
VERTEX
 8
LOFT_3
 10
-0.2101
 20
0.1486
 30
0.1386
 70
192
 0
VERTEX
 8
LOFT_3
 10
-0.211
 20
0.1445
 30
0.1386
 70
192
 0
VERTEX
 8
LOFT_3
 10
-0.211
 20
0.1403
 30
0.1386
 70
192
 0
VERTEX
 8
LOFT_3
 10
-0.2101
 20
0.1362
 30
0.1386
 70
192
 0
VERTEX
 8
LOFT_3
 10
-0.2084
 20
0.1325
 30
0.1386
 70
192
 0
VERTEX
 8
LOFT_3
 10
-0.2059
 20
0.1293
 30
0.1386
 70
192
 0
VERTEX
 8
LOFT_3
 10
-0.2029
 20
0.1267
 30
0.1386
 70
192
 0
VERTEX
 8
LOFT_3
 10
-0.1993
 20
0.1248
 30
0.1386
 70
192
 0
VERTEX
 8
LOFT_3
 10
-0.1953
 20
0.1237
 30
0.1386
 70
192
 0
VERTEX
 8
LOFT_3
 10
-0.1911
 20
0.1234
 30
0.1386
 70
192
 0
VERTEX
 8
LOFT_3
 10
-0.1869
 20
0.1241
 30
0.1386
 70
192
 0
VERTEX
 8
LOFT_3
 10
-0.1831
 20
0.1257
 30
0.1386
 70
192
 0
VERTEX
 8
LOFT_3
 10
-0.1798
 20
0.1279
 30
0.1386
 70
192
 0
VERTEX
 8
LOFT_3
 10
-0.177
 20
0.1308
 30
0.1386
 70
192
 0
VERTEX
 8
LOFT_3
 10
-0.1749
 20
0.1343
 30
0.1386
 70
192
 0
VERTEX
 8
LOFT_3
 10
-0.1736
 20
0.1382
 30
0.1386
 70
192
 0
VERTEX
 8
LOFT_3
 10
-0.1709
 20
0.1424
 30
0.1639
 70
192
 0
VERTEX
 8
LOFT_3
 10
-0.1714
 20
0.1469
 30
0.1639
 70
192
 0
VERTEX
 8
LOFT_3
 10
-0.1728
 20
0.151
 30
0.1639
 70
192
 0
VERTEX
 8
LOFT_3
 10
-0.175
 20
0.1547
 30
0.1639
 70
192
 0
VERTEX
 8
LOFT_3
 10
-0.1779
 20
0.1578
 30
0.1639
 70
192
 0
VERTEX
 8
LOFT_3
 10
-0.1815
 20
0.1602
 30
0.1639
 70
192
 0
VERTEX
 8
LOFT_3
 10
-0.1855
 20
0.1618
 30
0.1639
 70
192
 0
VERTEX
 8
LOFT_3
 10
-0.1899
 20
0.1626
 30
0.1639
 70
192
 0
VERTEX
 8
LOFT_3
 10
-0.1944
 20
0.1623
 30
0.1639
 70
192
 0
VERTEX
 8
LOFT_3
 10
-0.1987
 20
0.1611
 30
0.1639
 70
192
 0
VERTEX
 8
LOFT_3
 10
-0.2025
 20
0.1591
 30
0.1639
 70
192
 0
VERTEX
 8
LOFT_3
 10
-0.2057
 20
0.1563
 30
0.1639
 70
192
 0
VERTEX
 8
LOFT_3
 10
-0.2083
 20
0.1529
 30
0.1639
 70
192
 0
VERTEX
 8
LOFT_3
 10
-0.2102
 20
0.149
 30
0.1639
 70
192
 0
VERTEX
 8
LOFT_3
 10
-0.2111
 20
0.1447
 30
0.1639
 70
192
 0
VERTEX
 8
LOFT_3
 10
-0.2111
 20
0.1401
 30
0.1639
 70
192
 0
VERTEX
 8
LOFT_3
 10
-0.2102
 20
0.1358
 30
0.1639
 70
192
 0
VERTEX
 8
LOFT_3
 10
-0.2083
 20
0.1319
 30
0.1639
 70
192
 0
VERTEX
 8
LOFT_3
 10
-0.2057
 20
0.1285
 30
0.1639
 70
192
 0
VERTEX
 8
LOFT_3
 10
-0.2025
 20
0.1257
 30
0.1639
 70
192
 0
VERTEX
 8
LOFT_3
 10
-0.1987
 20
0.1237
 30
0.1639
 70
192
 0
VERTEX
 8
LOFT_3
 10
-0.1944
 20
0.1225
 30
0.1639
 70
192
 0
VERTEX
 8
LOFT_3
 10
-0.1899
 20
0.1222
 30
0.1639
 70
192
 0
VERTEX
 8
LOFT_3
 10
-0.1855
 20
0.123
 30
0.1639
 70
192
 0
VERTEX
 8
LOFT_3
 10
-0.1815
 20
0.1246
 30
0.1639
 70
192
 0
VERTEX
 8
LOFT_3
 10
-0.1779
 20
0.127
 30
0.1639
 70
192
 0
VERTEX
 8
LOFT_3
 10
-0.175
 20
0.1301
 30
0.1639
 70
192
 0
VERTEX
 8
LOFT_3
 10
-0.1728
 20
0.1338
 30
0.1639
 70
192
 0
VERTEX
 8
LOFT_3
 10
-0.1714
 20
0.1379
 30
0.1639
 70
192
 0
VERTEX
 8
LOFT_3
 10
-0.1686
 20
0.1424
 30
0.1891
 70
192
 0
VERTEX
 8
LOFT_3
 10
-0.1691
 20
0.1471
 30
0.1891
 70
192
 0
VERTEX
 8
LOFT_3
 10
-0.1706
 20
0.1515
 30
0.1891
 70
192
 0
VERTEX
 8
LOFT_3
 10
-0.173
 20
0.1554
 30
0.1891
 70
192
 0
VERTEX
 8
LOFT_3
 10
-0.1761
 20
0.1587
 30
0.1891
 70
192
 0
VERTEX
 8
LOFT_3
 10
-0.1798
 20
0.1613
 30
0.1891
 70
192
 0
VERTEX
 8
LOFT_3
 10
-0.1841
 20
0.163
 30
0.1891
 70
192
 0
VERTEX
 8
LOFT_3
 10
-0.1887
 20
0.1638
 30
0.1891
 70
192
 0
VERTEX
 8
LOFT_3
 10
-0.1936
 20
0.1635
 30
0.1891
 70
192
 0
VERTEX
 8
LOFT_3
 10
-0.198
 20
0.1622
 30
0.1891
 70
192
 0
VERTEX
 8
LOFT_3
 10
-0.2021
 20
0.1601
 30
0.1891
 70
192
 0
VERTEX
 8
LOFT_3
 10
-0.2055
 20
0.1571
 30
0.1891
 70
192
 0
VERTEX
 8
LOFT_3
 10
-0.2083
 20
0.1535
 30
0.1891
 70
192
 0
VERTEX
 8
LOFT_3
 10
-0.2102
 20
0.1494
 30
0.1891
 70
192
 0
VERTEX
 8
LOFT_3
 10
-0.2112
 20
0.1448
 30
0.1891
 70
192
 0
VERTEX
 8
LOFT_3
 10
-0.2112
 20
0.14
 30
0.1891
 70
192
 0
VERTEX
 8
LOFT_3
 10
-0.2102
 20
0.1354
 30
0.1891
 70
192
 0
VERTEX
 8
LOFT_3
 10
-0.2083
 20
0.1313
 30
0.1891
 70
192
 0
VERTEX
 8
LOFT_3
 10
-0.2055
 20
0.1277
 30
0.1891
 70
192
 0
VERTEX
 8
LOFT_3
 10
-0.2021
 20
0.1247
 30
0.1891
 70
192
 0
VERTEX
 8
LOFT_3
 10
-0.198
 20
0.1226
 30
0.1891
 70
192
 0
VERTEX
 8
LOFT_3
 10
-0.1936
 20
0.1213
 30
0.1891
 70
192
 0
VERTEX
 8
LOFT_3
 10
-0.1887
 20
0.121
 30
0.1891
 70
192
 0
VERTEX
 8
LOFT_3
 10
-0.1841
 20
0.1218
 30
0.1891
 70
192
 0
VERTEX
 8
LOFT_3
 10
-0.1798
 20
0.1235
 30
0.1891
 70
192
 0
VERTEX
 8
LOFT_3
 10
-0.1761
 20
0.1261
 30
0.1891
 70
192
 0
VERTEX
 8
LOFT_3
 10
-0.173
 20
0.1294
 30
0.1891
 70
192
 0
VERTEX
 8
LOFT_3
 10
-0.1706
 20
0.1333
 30
0.1891
 70
192
 0
VERTEX
 8
LOFT_3
 10
-0.1691
 20
0.1376
 30
0.1891
 70
192
 0
VERTEX
 8
LOFT_3
 10
-0.1663
 20
0.1424
 30
0.2144
 70
192
 0
VERTEX
 8
LOFT_3
 10
-0.1668
 20
0.1474
 30
0.2144
 70
192
 0
VERTEX
 8
LOFT_3
 10
-0.1684
 20
0.152
 30
0.2144
 70
192
 0
VERTEX
 8
LOFT_3
 10
-0.1709
 20
0.1561
 30
0.2144
 70
192
 0
VERTEX
 8
LOFT_3
 10
-0.1742
 20
0.1596
 30
0.2144
 70
192
 0
VERTEX
 8
LOFT_3
 10
-0.1782
 20
0.1623
 30
0.2144
 70
192
 0
VERTEX
 8
LOFT_3
 10
-0.1827
 20
0.1641
 30
0.2144
 70
192
 0
VERTEX
 8
LOFT_3
 10
-0.1876
 20
0.165
 30
0.2144
 70
192
 0
VERTEX
 8
LOFT_3
 10
-0.1927
 20
0.1647
 30
0.2144
 70
192
 0
VERTEX
 8
LOFT_3
 10
-0.1974
 20
0.1633
 30
0.2144
 70
192
 0
VERTEX
 8
LOFT_3
 10
-0.2016
 20
0.1611
 30
0.2144
 70
192
 0
VERTEX
 8
LOFT_3
 10
-0.2053
 20
0.158
 30
0.2144
 70
192
 0
VERTEX
 8
LOFT_3
 10
-0.2082
 20
0.1542
 30
0.2144
 70
192
 0
VERTEX
 8
LOFT_3
 10
-0.2102
 20
0.1498
 30
0.2144
 70
192
 0
VERTEX
 8
LOFT_3
 10
-0.2113
 20
0.1449
 30
0.2144
 70
192
 0
VERTEX
 8
LOFT_3
 10
-0.2113
 20
0.1398
 30
0.2144
 70
192
 0
VERTEX
 8
LOFT_3
 10
-0.2102
 20
0.135
 30
0.2144
 70
192
 0
VERTEX
 8
LOFT_3
 10
-0.2082
 20
0.1306
 30
0.2144
 70
192
 0
VERTEX
 8
LOFT_3
 10
-0.2053
 20
0.1268
 30
0.2144
 70
192
 0
VERTEX
 8
LOFT_3
 10
-0.2016
 20
0.1237
 30
0.2144
 70
192
 0
VERTEX
 8
LOFT_3
 10
-0.1974
 20
0.1215
 30
0.2144
 70
192
 0
VERTEX
 8
LOFT_3
 10
-0.1927
 20
0.1201
 30
0.2144
 70
192
 0
VERTEX
 8
LOFT_3
 10
-0.1876
 20
0.1198
 30
0.2144
 70
192
 0
VERTEX
 8
LOFT_3
 10
-0.1827
 20
0.1207
 30
0.2144
 70
192
 0
VERTEX
 8
LOFT_3
 10
-0.1782
 20
0.1225
 30
0.2144
 70
192
 0
VERTEX
 8
LOFT_3
 10
-0.1742
 20
0.1252
 30
0.2144
 70
192
 0
VERTEX
 8
LOFT_3
 10
-0.1709
 20
0.1287
 30
0.2144
 70
192
 0
VERTEX
 8
LOFT_3
 10
-0.1684
 20
0.1328
 30
0.2144
 70
192
 0
VERTEX
 8
LOFT_3
 10
-0.1668
 20
0.1374
 30
0.2144
 70
192
 0
VERTEX
 8
LOFT_3
 10
-0.164
 20
0.1424
 30
0.2396
 70
192
 0
VERTEX
 8
LOFT_3
 10
-0.1646
 20
0.1477
 30
0.2396
 70
192
 0
VERTEX
 8
LOFT_3
 10
-0.1662
 20
0.1525
 30
0.2396
 70
192
 0
VERTEX
 8
LOFT_3
 10
-0.1689
 20
0.1569
 30
0.2396
 70
192
 0
VERTEX
 8
LOFT_3
 10
-0.1723
 20
0.1605
 30
0.2396
 70
192
 0
VERTEX
 8
LOFT_3
 10
-0.1765
 20
0.1634
 30
0.2396
 70
192
 0
VERTEX
 8
LOFT_3
 10
-0.1812
 20
0.1653
 30
0.2396
 70
192
 0
VERTEX
 8
LOFT_3
 10
-0.1864
 20
0.1662
 30
0.2396
 70
192
 0
VERTEX
 8
LOFT_3
 10
-0.1918
 20
0.1659
 30
0.2396
 70
192
 0
VERTEX
 8
LOFT_3
 10
-0.1968
 20
0.1645
 30
0.2396
 70
192
 0
VERTEX
 8
LOFT_3
 10
-0.2012
 20
0.162
 30
0.2396
 70
192
 0
VERTEX
 8
LOFT_3
 10
-0.2051
 20
0.1588
 30
0.2396
 70
192
 0
VERTEX
 8
LOFT_3
 10
-0.2081
 20
0.1548
 30
0.2396
 70
192
 0
VERTEX
 8
LOFT_3
 10
-0.2103
 20
0.1502
 30
0.2396
 70
192
 0
VERTEX
 8
LOFT_3
 10
-0.2114
 20
0.1451
 30
0.2396
 70
192
 0
VERTEX
 8
LOFT_3
 10
-0.2114
 20
0.1397
 30
0.2396
 70
192
 0
VERTEX
 8
LOFT_3
 10
-0.2103
 20
0.1346
 30
0.2396
 70
192
 0
VERTEX
 8
LOFT_3
 10
-0.2081
 20
0.13
 30
0.2396
 70
192
 0
VERTEX
 8
LOFT_3
 10
-0.2051
 20
0.126
 30
0.2396
 70
192
 0
VERTEX
 8
LOFT_3
 10
-0.2012
 20
0.1227
 30
0.2396
 70
192
 0
VERTEX
 8
LOFT_3
 10
-0.1968
 20
0.1203
 30
0.2396
 70
192
 0
VERTEX
 8
LOFT_3
 10
-0.1918
 20
0.1189
 30
0.2396
 70
192
 0
VERTEX
 8
LOFT_3
 10
-0.1864
 20
0.1186
 30
0.2396
 70
192
 0
VERTEX
 8
LOFT_3
 10
-0.1812
 20
0.1195
 30
0.2396
 70
192
 0
VERTEX
 8
LOFT_3
 10
-0.1765
 20
0.1214
 30
0.2396
 70
192
 0
VERTEX
 8
LOFT_3
 10
-0.1723
 20
0.1243
 30
0.2396
 70
192
 0
VERTEX
 8
LOFT_3
 10
-0.1689
 20
0.1279
 30
0.2396
 70
192
 0
VERTEX
 8
LOFT_3
 10
-0.1662
 20
0.1322
 30
0.2396
 70
192
 0
VERTEX
 8
LOFT_3
 10
-0.1646
 20
0.1371
 30
0.2396
 70
192
 0
VERTEX
 8
LOFT_3
 10
-0.1617
 20
0.1424
 30
0.2649
 70
192
 0
VERTEX
 8
LOFT_3
 10
-0.1623
 20
0.1479
 30
0.2649
 70
192
 0
VERTEX
 8
LOFT_3
 10
-0.1641
 20
0.1531
 30
0.2649
 70
192
 0
VERTEX
 8
LOFT_3
 10
-0.1668
 20
0.1576
 30
0.2649
 70
192
 0
VERTEX
 8
LOFT_3
 10
-0.1705
 20
0.1614
 30
0.2649
 70
192
 0
VERTEX
 8
LOFT_3
 10
-0.1748
 20
0.1644
 30
0.2649
 70
192
 0
VERTEX
 8
LOFT_3
 10
-0.1798
 20
0.1664
 30
0.2649
 70
192
 0
VERTEX
 8
LOFT_3
 10
-0.1853
 20
0.1674
 30
0.2649
 70
192
 0
VERTEX
 8
LOFT_3
 10
-0.1909
 20
0.167
 30
0.2649
 70
192
 0
VERTEX
 8
LOFT_3
 10
-0.1961
 20
0.1656
 30
0.2649
 70
192
 0
VERTEX
 8
LOFT_3
 10
-0.2008
 20
0.163
 30
0.2649
 70
192
 0
VERTEX
 8
LOFT_3
 10
-0.2048
 20
0.1596
 30
0.2649
 70
192
 0
VERTEX
 8
LOFT_3
 10
-0.2081
 20
0.1554
 30
0.2649
 70
192
 0
VERTEX
 8
LOFT_3
 10
-0.2103
 20
0.1506
 30
0.2649
 70
192
 0
VERTEX
 8
LOFT_3
 10
-0.2115
 20
0.1452
 30
0.2649
 70
192
 0
VERTEX
 8
LOFT_3
 10
-0.2115
 20
0.1396
 30
0.2649
 70
192
 0
VERTEX
 8
LOFT_3
 10
-0.2103
 20
0.1342
 30
0.2649
 70
192
 0
VERTEX
 8
LOFT_3
 10
-0.2081
 20
0.1294
 30
0.2649
 70
192
 0
VERTEX
 8
LOFT_3
 10
-0.2048
 20
0.1252
 30
0.2649
 70
192
 0
VERTEX
 8
LOFT_3
 10
-0.2008
 20
0.1218
 30
0.2649
 70
192
 0
VERTEX
 8
LOFT_3
 10
-0.1961
 20
0.1192
 30
0.2649
 70
192
 0
VERTEX
 8
LOFT_3
 10
-0.1909
 20
0.1177
 30
0.2649
 70
192
 0
VERTEX
 8
LOFT_3
 10
-0.1853
 20
0.1174
 30
0.2649
 70
192
 0
VERTEX
 8
LOFT_3
 10
-0.1798
 20
0.1183
 30
0.2649
 70
192
 0
VERTEX
 8
LOFT_3
 10
-0.1748
 20
0.1204
 30
0.2649
 70
192
 0
VERTEX
 8
LOFT_3
 10
-0.1705
 20
0.1234
 30
0.2649
 70
192
 0
VERTEX
 8
LOFT_3
 10
-0.1668
 20
0.1272
 30
0.2649
 70
192
 0
VERTEX
 8
LOFT_3
 10
-0.1641
 20
0.1317
 30
0.2649
 70
192
 0
VERTEX
 8
LOFT_3
 10
-0.1623
 20
0.1368
 30
0.2649
 70
192
 0
VERTEX
 8
LOFT_3
 10
0
 20
0
 30
0
 70
128
 71
2
 72
31
 73
30
 74
1
 0
VERTEX
 8
LOFT_3
 10
0
 20
0
 30
0
 70
128
 71
3
 72
32
 73
31
 74
2
 0
VERTEX
 8
LOFT_3
 10
0
 20
0
 30
0
 70
128
 71
4
 72
33
 73
32
 74
3
 0
VERTEX
 8
LOFT_3
 10
0
 20
0
 30
0
 70
128
 71
5
 72
34
 73
33
 74
4
 0
VERTEX
 8
LOFT_3
 10
0
 20
0
 30
0
 70
128
 71
6
 72
35
 73
34
 74
5
 0
VERTEX
 8
LOFT_3
 10
0
 20
0
 30
0
 70
128
 71
7
 72
36
 73
35
 74
6
 0
VERTEX
 8
LOFT_3
 10
0
 20
0
 30
0
 70
128
 71
8
 72
37
 73
36
 74
7
 0
VERTEX
 8
LOFT_3
 10
0
 20
0
 30
0
 70
128
 71
9
 72
38
 73
37
 74
8
 0
VERTEX
 8
LOFT_3
 10
0
 20
0
 30
0
 70
128
 71
10
 72
39
 73
38
 74
9
 0
VERTEX
 8
LOFT_3
 10
0
 20
0
 30
0
 70
128
 71
11
 72
40
 73
39
 74
10
 0
VERTEX
 8
LOFT_3
 10
0
 20
0
 30
0
 70
128
 71
12
 72
41
 73
40
 74
11
 0
VERTEX
 8
LOFT_3
 10
0
 20
0
 30
0
 70
128
 71
13
 72
42
 73
41
 74
12
 0
VERTEX
 8
LOFT_3
 10
0
 20
0
 30
0
 70
128
 71
14
 72
43
 73
42
 74
13
 0
VERTEX
 8
LOFT_3
 10
0
 20
0
 30
0
 70
128
 71
15
 72
44
 73
43
 74
14
 0
VERTEX
 8
LOFT_3
 10
0
 20
0
 30
0
 70
128
 71
16
 72
45
 73
44
 74
15
 0
VERTEX
 8
LOFT_3
 10
0
 20
0
 30
0
 70
128
 71
17
 72
46
 73
45
 74
16
 0
VERTEX
 8
LOFT_3
 10
0
 20
0
 30
0
 70
128
 71
18
 72
47
 73
46
 74
17
 0
VERTEX
 8
LOFT_3
 10
0
 20
0
 30
0
 70
128
 71
19
 72
48
 73
47
 74
18
 0
VERTEX
 8
LOFT_3
 10
0
 20
0
 30
0
 70
128
 71
20
 72
49
 73
48
 74
19
 0
VERTEX
 8
LOFT_3
 10
0
 20
0
 30
0
 70
128
 71
21
 72
50
 73
49
 74
20
 0
VERTEX
 8
LOFT_3
 10
0
 20
0
 30
0
 70
128
 71
22
 72
51
 73
50
 74
21
 0
VERTEX
 8
LOFT_3
 10
0
 20
0
 30
0
 70
128
 71
23
 72
52
 73
51
 74
22
 0
VERTEX
 8
LOFT_3
 10
0
 20
0
 30
0
 70
128
 71
24
 72
53
 73
52
 74
23
 0
VERTEX
 8
LOFT_3
 10
0
 20
0
 30
0
 70
128
 71
25
 72
54
 73
53
 74
24
 0
VERTEX
 8
LOFT_3
 10
0
 20
0
 30
0
 70
128
 71
26
 72
55
 73
54
 74
25
 0
VERTEX
 8
LOFT_3
 10
0
 20
0
 30
0
 70
128
 71
27
 72
56
 73
55
 74
26
 0
VERTEX
 8
LOFT_3
 10
0
 20
0
 30
0
 70
128
 71
28
 72
57
 73
56
 74
27
 0
VERTEX
 8
LOFT_3
 10
0
 20
0
 30
0
 70
128
 71
29
 72
58
 73
57
 74
28
 0
VERTEX
 8
LOFT_3
 10
0
 20
0
 30
0
 70
128
 71
1
 72
30
 73
58
 74
29
 0
VERTEX
 8
LOFT_3
 10
0
 20
0
 30
0
 70
128
 71
31
 72
60
 73
59
 74
30
 0
VERTEX
 8
LOFT_3
 10
0
 20
0
 30
0
 70
128
 71
32
 72
61
 73
60
 74
31
 0
VERTEX
 8
LOFT_3
 10
0
 20
0
 30
0
 70
128
 71
33
 72
62
 73
61
 74
32
 0
VERTEX
 8
LOFT_3
 10
0
 20
0
 30
0
 70
128
 71
34
 72
63
 73
62
 74
33
 0
VERTEX
 8
LOFT_3
 10
0
 20
0
 30
0
 70
128
 71
35
 72
64
 73
63
 74
34
 0
VERTEX
 8
LOFT_3
 10
0
 20
0
 30
0
 70
128
 71
36
 72
65
 73
64
 74
35
 0
VERTEX
 8
LOFT_3
 10
0
 20
0
 30
0
 70
128
 71
37
 72
66
 73
65
 74
36
 0
VERTEX
 8
LOFT_3
 10
0
 20
0
 30
0
 70
128
 71
38
 72
67
 73
66
 74
37
 0
VERTEX
 8
LOFT_3
 10
0
 20
0
 30
0
 70
128
 71
39
 72
68
 73
67
 74
38
 0
VERTEX
 8
LOFT_3
 10
0
 20
0
 30
0
 70
128
 71
40
 72
69
 73
68
 74
39
 0
VERTEX
 8
LOFT_3
 10
0
 20
0
 30
0
 70
128
 71
41
 72
70
 73
69
 74
40
 0
VERTEX
 8
LOFT_3
 10
0
 20
0
 30
0
 70
128
 71
42
 72
71
 73
70
 74
41
 0
VERTEX
 8
LOFT_3
 10
0
 20
0
 30
0
 70
128
 71
43
 72
72
 73
71
 74
42
 0
VERTEX
 8
LOFT_3
 10
0
 20
0
 30
0
 70
128
 71
44
 72
73
 73
72
 74
43
 0
VERTEX
 8
LOFT_3
 10
0
 20
0
 30
0
 70
128
 71
45
 72
74
 73
73
 74
44
 0
VERTEX
 8
LOFT_3
 10
0
 20
0
 30
0
 70
128
 71
46
 72
75
 73
74
 74
45
 0
VERTEX
 8
LOFT_3
 10
0
 20
0
 30
0
 70
128
 71
47
 72
76
 73
75
 74
46
 0
VERTEX
 8
LOFT_3
 10
0
 20
0
 30
0
 70
128
 71
48
 72
77
 73
76
 74
47
 0
VERTEX
 8
LOFT_3
 10
0
 20
0
 30
0
 70
128
 71
49
 72
78
 73
77
 74
48
 0
VERTEX
 8
LOFT_3
 10
0
 20
0
 30
0
 70
128
 71
50
 72
79
 73
78
 74
49
 0
VERTEX
 8
LOFT_3
 10
0
 20
0
 30
0
 70
128
 71
51
 72
80
 73
79
 74
50
 0
VERTEX
 8
LOFT_3
 10
0
 20
0
 30
0
 70
128
 71
52
 72
81
 73
80
 74
51
 0
VERTEX
 8
LOFT_3
 10
0
 20
0
 30
0
 70
128
 71
53
 72
82
 73
81
 74
52
 0
VERTEX
 8
LOFT_3
 10
0
 20
0
 30
0
 70
128
 71
54
 72
83
 73
82
 74
53
 0
VERTEX
 8
LOFT_3
 10
0
 20
0
 30
0
 70
128
 71
55
 72
84
 73
83
 74
54
 0
VERTEX
 8
LOFT_3
 10
0
 20
0
 30
0
 70
128
 71
56
 72
85
 73
84
 74
55
 0
VERTEX
 8
LOFT_3
 10
0
 20
0
 30
0
 70
128
 71
57
 72
86
 73
85
 74
56
 0
VERTEX
 8
LOFT_3
 10
0
 20
0
 30
0
 70
128
 71
58
 72
87
 73
86
 74
57
 0
VERTEX
 8
LOFT_3
 10
0
 20
0
 30
0
 70
128
 71
30
 72
59
 73
87
 74
58
 0
VERTEX
 8
LOFT_3
 10
0
 20
0
 30
0
 70
128
 71
60
 72
89
 73
88
 74
59
 0
VERTEX
 8
LOFT_3
 10
0
 20
0
 30
0
 70
128
 71
61
 72
90
 73
89
 74
60
 0
VERTEX
 8
LOFT_3
 10
0
 20
0
 30
0
 70
128
 71
62
 72
91
 73
90
 74
61
 0
VERTEX
 8
LOFT_3
 10
0
 20
0
 30
0
 70
128
 71
63
 72
92
 73
91
 74
62
 0
VERTEX
 8
LOFT_3
 10
0
 20
0
 30
0
 70
128
 71
64
 72
93
 73
92
 74
63
 0
VERTEX
 8
LOFT_3
 10
0
 20
0
 30
0
 70
128
 71
65
 72
94
 73
93
 74
64
 0
VERTEX
 8
LOFT_3
 10
0
 20
0
 30
0
 70
128
 71
66
 72
95
 73
94
 74
65
 0
VERTEX
 8
LOFT_3
 10
0
 20
0
 30
0
 70
128
 71
67
 72
96
 73
95
 74
66
 0
VERTEX
 8
LOFT_3
 10
0
 20
0
 30
0
 70
128
 71
68
 72
97
 73
96
 74
67
 0
VERTEX
 8
LOFT_3
 10
0
 20
0
 30
0
 70
128
 71
69
 72
98
 73
97
 74
68
 0
VERTEX
 8
LOFT_3
 10
0
 20
0
 30
0
 70
128
 71
70
 72
99
 73
98
 74
69
 0
VERTEX
 8
LOFT_3
 10
0
 20
0
 30
0
 70
128
 71
71
 72
100
 73
99
 74
70
 0
VERTEX
 8
LOFT_3
 10
0
 20
0
 30
0
 70
128
 71
72
 72
101
 73
100
 74
71
 0
VERTEX
 8
LOFT_3
 10
0
 20
0
 30
0
 70
128
 71
73
 72
102
 73
101
 74
72
 0
VERTEX
 8
LOFT_3
 10
0
 20
0
 30
0
 70
128
 71
74
 72
103
 73
102
 74
73
 0
VERTEX
 8
LOFT_3
 10
0
 20
0
 30
0
 70
128
 71
75
 72
104
 73
103
 74
74
 0
VERTEX
 8
LOFT_3
 10
0
 20
0
 30
0
 70
128
 71
76
 72
105
 73
104
 74
75
 0
VERTEX
 8
LOFT_3
 10
0
 20
0
 30
0
 70
128
 71
77
 72
106
 73
105
 74
76
 0
VERTEX
 8
LOFT_3
 10
0
 20
0
 30
0
 70
128
 71
78
 72
107
 73
106
 74
77
 0
VERTEX
 8
LOFT_3
 10
0
 20
0
 30
0
 70
128
 71
79
 72
108
 73
107
 74
78
 0
VERTEX
 8
LOFT_3
 10
0
 20
0
 30
0
 70
128
 71
80
 72
109
 73
108
 74
79
 0
VERTEX
 8
LOFT_3
 10
0
 20
0
 30
0
 70
128
 71
81
 72
110
 73
109
 74
80
 0
VERTEX
 8
LOFT_3
 10
0
 20
0
 30
0
 70
128
 71
82
 72
111
 73
110
 74
81
 0
VERTEX
 8
LOFT_3
 10
0
 20
0
 30
0
 70
128
 71
83
 72
112
 73
111
 74
82
 0
VERTEX
 8
LOFT_3
 10
0
 20
0
 30
0
 70
128
 71
84
 72
113
 73
112
 74
83
 0
VERTEX
 8
LOFT_3
 10
0
 20
0
 30
0
 70
128
 71
85
 72
114
 73
113
 74
84
 0
VERTEX
 8
LOFT_3
 10
0
 20
0
 30
0
 70
128
 71
86
 72
115
 73
114
 74
85
 0
VERTEX
 8
LOFT_3
 10
0
 20
0
 30
0
 70
128
 71
87
 72
116
 73
115
 74
86
 0
VERTEX
 8
LOFT_3
 10
0
 20
0
 30
0
 70
128
 71
59
 72
88
 73
116
 74
87
 0
VERTEX
 8
LOFT_3
 10
0
 20
0
 30
0
 70
128
 71
89
 72
118
 73
117
 74
88
 0
VERTEX
 8
LOFT_3
 10
0
 20
0
 30
0
 70
128
 71
90
 72
119
 73
118
 74
89
 0
VERTEX
 8
LOFT_3
 10
0
 20
0
 30
0
 70
128
 71
91
 72
120
 73
119
 74
90
 0
VERTEX
 8
LOFT_3
 10
0
 20
0
 30
0
 70
128
 71
92
 72
121
 73
120
 74
91
 0
VERTEX
 8
LOFT_3
 10
0
 20
0
 30
0
 70
128
 71
93
 72
122
 73
121
 74
92
 0
VERTEX
 8
LOFT_3
 10
0
 20
0
 30
0
 70
128
 71
94
 72
123
 73
122
 74
93
 0
VERTEX
 8
LOFT_3
 10
0
 20
0
 30
0
 70
128
 71
95
 72
124
 73
123
 74
94
 0
VERTEX
 8
LOFT_3
 10
0
 20
0
 30
0
 70
128
 71
96
 72
125
 73
124
 74
95
 0
VERTEX
 8
LOFT_3
 10
0
 20
0
 30
0
 70
128
 71
97
 72
126
 73
125
 74
96
 0
VERTEX
 8
LOFT_3
 10
0
 20
0
 30
0
 70
128
 71
98
 72
127
 73
126
 74
97
 0
VERTEX
 8
LOFT_3
 10
0
 20
0
 30
0
 70
128
 71
99
 72
128
 73
127
 74
98
 0
VERTEX
 8
LOFT_3
 10
0
 20
0
 30
0
 70
128
 71
100
 72
129
 73
128
 74
99
 0
VERTEX
 8
LOFT_3
 10
0
 20
0
 30
0
 70
128
 71
101
 72
130
 73
129
 74
100
 0
VERTEX
 8
LOFT_3
 10
0
 20
0
 30
0
 70
128
 71
102
 72
131
 73
130
 74
101
 0
VERTEX
 8
LOFT_3
 10
0
 20
0
 30
0
 70
128
 71
103
 72
132
 73
131
 74
102
 0
VERTEX
 8
LOFT_3
 10
0
 20
0
 30
0
 70
128
 71
104
 72
133
 73
132
 74
103
 0
VERTEX
 8
LOFT_3
 10
0
 20
0
 30
0
 70
128
 71
105
 72
134
 73
133
 74
104
 0
VERTEX
 8
LOFT_3
 10
0
 20
0
 30
0
 70
128
 71
106
 72
135
 73
134
 74
105
 0
VERTEX
 8
LOFT_3
 10
0
 20
0
 30
0
 70
128
 71
107
 72
136
 73
135
 74
106
 0
VERTEX
 8
LOFT_3
 10
0
 20
0
 30
0
 70
128
 71
108
 72
137
 73
136
 74
107
 0
VERTEX
 8
LOFT_3
 10
0
 20
0
 30
0
 70
128
 71
109
 72
138
 73
137
 74
108
 0
VERTEX
 8
LOFT_3
 10
0
 20
0
 30
0
 70
128
 71
110
 72
139
 73
138
 74
109
 0
VERTEX
 8
LOFT_3
 10
0
 20
0
 30
0
 70
128
 71
111
 72
140
 73
139
 74
110
 0
VERTEX
 8
LOFT_3
 10
0
 20
0
 30
0
 70
128
 71
112
 72
141
 73
140
 74
111
 0
VERTEX
 8
LOFT_3
 10
0
 20
0
 30
0
 70
128
 71
113
 72
142
 73
141
 74
112
 0
VERTEX
 8
LOFT_3
 10
0
 20
0
 30
0
 70
128
 71
114
 72
143
 73
142
 74
113
 0
VERTEX
 8
LOFT_3
 10
0
 20
0
 30
0
 70
128
 71
115
 72
144
 73
143
 74
114
 0
VERTEX
 8
LOFT_3
 10
0
 20
0
 30
0
 70
128
 71
116
 72
145
 73
144
 74
115
 0
VERTEX
 8
LOFT_3
 10
0
 20
0
 30
0
 70
128
 71
88
 72
117
 73
145
 74
116
 0
VERTEX
 8
LOFT_3
 10
0
 20
0
 30
0
 70
128
 71
118
 72
147
 73
146
 74
117
 0
VERTEX
 8
LOFT_3
 10
0
 20
0
 30
0
 70
128
 71
119
 72
148
 73
147
 74
118
 0
VERTEX
 8
LOFT_3
 10
0
 20
0
 30
0
 70
128
 71
120
 72
149
 73
148
 74
119
 0
VERTEX
 8
LOFT_3
 10
0
 20
0
 30
0
 70
128
 71
121
 72
150
 73
149
 74
120
 0
VERTEX
 8
LOFT_3
 10
0
 20
0
 30
0
 70
128
 71
122
 72
151
 73
150
 74
121
 0
VERTEX
 8
LOFT_3
 10
0
 20
0
 30
0
 70
128
 71
123
 72
152
 73
151
 74
122
 0
VERTEX
 8
LOFT_3
 10
0
 20
0
 30
0
 70
128
 71
124
 72
153
 73
152
 74
123
 0
VERTEX
 8
LOFT_3
 10
0
 20
0
 30
0
 70
128
 71
125
 72
154
 73
153
 74
124
 0
VERTEX
 8
LOFT_3
 10
0
 20
0
 30
0
 70
128
 71
126
 72
155
 73
154
 74
125
 0
VERTEX
 8
LOFT_3
 10
0
 20
0
 30
0
 70
128
 71
127
 72
156
 73
155
 74
126
 0
VERTEX
 8
LOFT_3
 10
0
 20
0
 30
0
 70
128
 71
128
 72
157
 73
156
 74
127
 0
VERTEX
 8
LOFT_3
 10
0
 20
0
 30
0
 70
128
 71
129
 72
158
 73
157
 74
128
 0
VERTEX
 8
LOFT_3
 10
0
 20
0
 30
0
 70
128
 71
130
 72
159
 73
158
 74
129
 0
VERTEX
 8
LOFT_3
 10
0
 20
0
 30
0
 70
128
 71
131
 72
160
 73
159
 74
130
 0
VERTEX
 8
LOFT_3
 10
0
 20
0
 30
0
 70
128
 71
132
 72
161
 73
160
 74
131
 0
VERTEX
 8
LOFT_3
 10
0
 20
0
 30
0
 70
128
 71
133
 72
162
 73
161
 74
132
 0
VERTEX
 8
LOFT_3
 10
0
 20
0
 30
0
 70
128
 71
134
 72
163
 73
162
 74
133
 0
VERTEX
 8
LOFT_3
 10
0
 20
0
 30
0
 70
128
 71
135
 72
164
 73
163
 74
134
 0
VERTEX
 8
LOFT_3
 10
0
 20
0
 30
0
 70
128
 71
136
 72
165
 73
164
 74
135
 0
VERTEX
 8
LOFT_3
 10
0
 20
0
 30
0
 70
128
 71
137
 72
166
 73
165
 74
136
 0
VERTEX
 8
LOFT_3
 10
0
 20
0
 30
0
 70
128
 71
138
 72
167
 73
166
 74
137
 0
VERTEX
 8
LOFT_3
 10
0
 20
0
 30
0
 70
128
 71
139
 72
168
 73
167
 74
138
 0
VERTEX
 8
LOFT_3
 10
0
 20
0
 30
0
 70
128
 71
140
 72
169
 73
168
 74
139
 0
VERTEX
 8
LOFT_3
 10
0
 20
0
 30
0
 70
128
 71
141
 72
170
 73
169
 74
140
 0
VERTEX
 8
LOFT_3
 10
0
 20
0
 30
0
 70
128
 71
142
 72
171
 73
170
 74
141
 0
VERTEX
 8
LOFT_3
 10
0
 20
0
 30
0
 70
128
 71
143
 72
172
 73
171
 74
142
 0
VERTEX
 8
LOFT_3
 10
0
 20
0
 30
0
 70
128
 71
144
 72
173
 73
172
 74
143
 0
VERTEX
 8
LOFT_3
 10
0
 20
0
 30
0
 70
128
 71
145
 72
174
 73
173
 74
144
 0
VERTEX
 8
LOFT_3
 10
0
 20
0
 30
0
 70
128
 71
117
 72
146
 73
174
 74
145
 0
VERTEX
 8
LOFT_3
 10
0
 20
0
 30
0
 70
128
 71
147
 72
176
 73
175
 74
146
 0
VERTEX
 8
LOFT_3
 10
0
 20
0
 30
0
 70
128
 71
148
 72
177
 73
176
 74
147
 0
VERTEX
 8
LOFT_3
 10
0
 20
0
 30
0
 70
128
 71
149
 72
178
 73
177
 74
148
 0
VERTEX
 8
LOFT_3
 10
0
 20
0
 30
0
 70
128
 71
150
 72
179
 73
178
 74
149
 0
VERTEX
 8
LOFT_3
 10
0
 20
0
 30
0
 70
128
 71
151
 72
180
 73
179
 74
150
 0
VERTEX
 8
LOFT_3
 10
0
 20
0
 30
0
 70
128
 71
152
 72
181
 73
180
 74
151
 0
VERTEX
 8
LOFT_3
 10
0
 20
0
 30
0
 70
128
 71
153
 72
182
 73
181
 74
152
 0
VERTEX
 8
LOFT_3
 10
0
 20
0
 30
0
 70
128
 71
154
 72
183
 73
182
 74
153
 0
VERTEX
 8
LOFT_3
 10
0
 20
0
 30
0
 70
128
 71
155
 72
184
 73
183
 74
154
 0
VERTEX
 8
LOFT_3
 10
0
 20
0
 30
0
 70
128
 71
156
 72
185
 73
184
 74
155
 0
VERTEX
 8
LOFT_3
 10
0
 20
0
 30
0
 70
128
 71
157
 72
186
 73
185
 74
156
 0
VERTEX
 8
LOFT_3
 10
0
 20
0
 30
0
 70
128
 71
158
 72
187
 73
186
 74
157
 0
VERTEX
 8
LOFT_3
 10
0
 20
0
 30
0
 70
128
 71
159
 72
188
 73
187
 74
158
 0
VERTEX
 8
LOFT_3
 10
0
 20
0
 30
0
 70
128
 71
160
 72
189
 73
188
 74
159
 0
VERTEX
 8
LOFT_3
 10
0
 20
0
 30
0
 70
128
 71
161
 72
190
 73
189
 74
160
 0
VERTEX
 8
LOFT_3
 10
0
 20
0
 30
0
 70
128
 71
162
 72
191
 73
190
 74
161
 0
VERTEX
 8
LOFT_3
 10
0
 20
0
 30
0
 70
128
 71
163
 72
192
 73
191
 74
162
 0
VERTEX
 8
LOFT_3
 10
0
 20
0
 30
0
 70
128
 71
164
 72
193
 73
192
 74
163
 0
VERTEX
 8
LOFT_3
 10
0
 20
0
 30
0
 70
128
 71
165
 72
194
 73
193
 74
164
 0
VERTEX
 8
LOFT_3
 10
0
 20
0
 30
0
 70
128
 71
166
 72
195
 73
194
 74
165
 0
VERTEX
 8
LOFT_3
 10
0
 20
0
 30
0
 70
128
 71
167
 72
196
 73
195
 74
166
 0
VERTEX
 8
LOFT_3
 10
0
 20
0
 30
0
 70
128
 71
168
 72
197
 73
196
 74
167
 0
VERTEX
 8
LOFT_3
 10
0
 20
0
 30
0
 70
128
 71
169
 72
198
 73
197
 74
168
 0
VERTEX
 8
LOFT_3
 10
0
 20
0
 30
0
 70
128
 71
170
 72
199
 73
198
 74
169
 0
VERTEX
 8
LOFT_3
 10
0
 20
0
 30
0
 70
128
 71
171
 72
200
 73
199
 74
170
 0
VERTEX
 8
LOFT_3
 10
0
 20
0
 30
0
 70
128
 71
172
 72
201
 73
200
 74
171
 0
VERTEX
 8
LOFT_3
 10
0
 20
0
 30
0
 70
128
 71
173
 72
202
 73
201
 74
172
 0
VERTEX
 8
LOFT_3
 10
0
 20
0
 30
0
 70
128
 71
174
 72
203
 73
202
 74
173
 0
VERTEX
 8
LOFT_3
 10
0
 20
0
 30
0
 70
128
 71
146
 72
175
 73
203
 74
174
 0
VERTEX
 8
LOFT_3
 10
0
 20
0
 30
0
 70
128
 71
176
 72
205
 73
204
 74
175
 0
VERTEX
 8
LOFT_3
 10
0
 20
0
 30
0
 70
128
 71
177
 72
206
 73
205
 74
176
 0
VERTEX
 8
LOFT_3
 10
0
 20
0
 30
0
 70
128
 71
178
 72
207
 73
206
 74
177
 0
VERTEX
 8
LOFT_3
 10
0
 20
0
 30
0
 70
128
 71
179
 72
208
 73
207
 74
178
 0
VERTEX
 8
LOFT_3
 10
0
 20
0
 30
0
 70
128
 71
180
 72
209
 73
208
 74
179
 0
VERTEX
 8
LOFT_3
 10
0
 20
0
 30
0
 70
128
 71
181
 72
210
 73
209
 74
180
 0
VERTEX
 8
LOFT_3
 10
0
 20
0
 30
0
 70
128
 71
182
 72
211
 73
210
 74
181
 0
VERTEX
 8
LOFT_3
 10
0
 20
0
 30
0
 70
128
 71
183
 72
212
 73
211
 74
182
 0
VERTEX
 8
LOFT_3
 10
0
 20
0
 30
0
 70
128
 71
184
 72
213
 73
212
 74
183
 0
VERTEX
 8
LOFT_3
 10
0
 20
0
 30
0
 70
128
 71
185
 72
214
 73
213
 74
184
 0
VERTEX
 8
LOFT_3
 10
0
 20
0
 30
0
 70
128
 71
186
 72
215
 73
214
 74
185
 0
VERTEX
 8
LOFT_3
 10
0
 20
0
 30
0
 70
128
 71
187
 72
216
 73
215
 74
186
 0
VERTEX
 8
LOFT_3
 10
0
 20
0
 30
0
 70
128
 71
188
 72
217
 73
216
 74
187
 0
VERTEX
 8
LOFT_3
 10
0
 20
0
 30
0
 70
128
 71
189
 72
218
 73
217
 74
188
 0
VERTEX
 8
LOFT_3
 10
0
 20
0
 30
0
 70
128
 71
190
 72
219
 73
218
 74
189
 0
VERTEX
 8
LOFT_3
 10
0
 20
0
 30
0
 70
128
 71
191
 72
220
 73
219
 74
190
 0
VERTEX
 8
LOFT_3
 10
0
 20
0
 30
0
 70
128
 71
192
 72
221
 73
220
 74
191
 0
VERTEX
 8
LOFT_3
 10
0
 20
0
 30
0
 70
128
 71
193
 72
222
 73
221
 74
192
 0
VERTEX
 8
LOFT_3
 10
0
 20
0
 30
0
 70
128
 71
194
 72
223
 73
222
 74
193
 0
VERTEX
 8
LOFT_3
 10
0
 20
0
 30
0
 70
128
 71
195
 72
224
 73
223
 74
194
 0
VERTEX
 8
LOFT_3
 10
0
 20
0
 30
0
 70
128
 71
196
 72
225
 73
224
 74
195
 0
VERTEX
 8
LOFT_3
 10
0
 20
0
 30
0
 70
128
 71
197
 72
226
 73
225
 74
196
 0
VERTEX
 8
LOFT_3
 10
0
 20
0
 30
0
 70
128
 71
198
 72
227
 73
226
 74
197
 0
VERTEX
 8
LOFT_3
 10
0
 20
0
 30
0
 70
128
 71
199
 72
228
 73
227
 74
198
 0
VERTEX
 8
LOFT_3
 10
0
 20
0
 30
0
 70
128
 71
200
 72
229
 73
228
 74
199
 0
VERTEX
 8
LOFT_3
 10
0
 20
0
 30
0
 70
128
 71
201
 72
230
 73
229
 74
200
 0
VERTEX
 8
LOFT_3
 10
0
 20
0
 30
0
 70
128
 71
202
 72
231
 73
230
 74
201
 0
VERTEX
 8
LOFT_3
 10
0
 20
0
 30
0
 70
128
 71
203
 72
232
 73
231
 74
202
 0
VERTEX
 8
LOFT_3
 10
0
 20
0
 30
0
 70
128
 71
175
 72
204
 73
232
 74
203
 0
VERTEX
 8
LOFT_3
 10
0
 20
0
 30
0
 70
128
 71
205
 72
234
 73
233
 74
204
 0
VERTEX
 8
LOFT_3
 10
0
 20
0
 30
0
 70
128
 71
206
 72
235
 73
234
 74
205
 0
VERTEX
 8
LOFT_3
 10
0
 20
0
 30
0
 70
128
 71
207
 72
236
 73
235
 74
206
 0
VERTEX
 8
LOFT_3
 10
0
 20
0
 30
0
 70
128
 71
208
 72
237
 73
236
 74
207
 0
VERTEX
 8
LOFT_3
 10
0
 20
0
 30
0
 70
128
 71
209
 72
238
 73
237
 74
208
 0
VERTEX
 8
LOFT_3
 10
0
 20
0
 30
0
 70
128
 71
210
 72
239
 73
238
 74
209
 0
VERTEX
 8
LOFT_3
 10
0
 20
0
 30
0
 70
128
 71
211
 72
240
 73
239
 74
210
 0
VERTEX
 8
LOFT_3
 10
0
 20
0
 30
0
 70
128
 71
212
 72
241
 73
240
 74
211
 0
VERTEX
 8
LOFT_3
 10
0
 20
0
 30
0
 70
128
 71
213
 72
242
 73
241
 74
212
 0
VERTEX
 8
LOFT_3
 10
0
 20
0
 30
0
 70
128
 71
214
 72
243
 73
242
 74
213
 0
VERTEX
 8
LOFT_3
 10
0
 20
0
 30
0
 70
128
 71
215
 72
244
 73
243
 74
214
 0
VERTEX
 8
LOFT_3
 10
0
 20
0
 30
0
 70
128
 71
216
 72
245
 73
244
 74
215
 0
VERTEX
 8
LOFT_3
 10
0
 20
0
 30
0
 70
128
 71
217
 72
246
 73
245
 74
216
 0
VERTEX
 8
LOFT_3
 10
0
 20
0
 30
0
 70
128
 71
218
 72
247
 73
246
 74
217
 0
VERTEX
 8
LOFT_3
 10
0
 20
0
 30
0
 70
128
 71
219
 72
248
 73
247
 74
218
 0
VERTEX
 8
LOFT_3
 10
0
 20
0
 30
0
 70
128
 71
220
 72
249
 73
248
 74
219
 0
VERTEX
 8
LOFT_3
 10
0
 20
0
 30
0
 70
128
 71
221
 72
250
 73
249
 74
220
 0
VERTEX
 8
LOFT_3
 10
0
 20
0
 30
0
 70
128
 71
222
 72
251
 73
250
 74
221
 0
VERTEX
 8
LOFT_3
 10
0
 20
0
 30
0
 70
128
 71
223
 72
252
 73
251
 74
222
 0
VERTEX
 8
LOFT_3
 10
0
 20
0
 30
0
 70
128
 71
224
 72
253
 73
252
 74
223
 0
VERTEX
 8
LOFT_3
 10
0
 20
0
 30
0
 70
128
 71
225
 72
254
 73
253
 74
224
 0
VERTEX
 8
LOFT_3
 10
0
 20
0
 30
0
 70
128
 71
226
 72
255
 73
254
 74
225
 0
VERTEX
 8
LOFT_3
 10
0
 20
0
 30
0
 70
128
 71
227
 72
256
 73
255
 74
226
 0
VERTEX
 8
LOFT_3
 10
0
 20
0
 30
0
 70
128
 71
228
 72
257
 73
256
 74
227
 0
VERTEX
 8
LOFT_3
 10
0
 20
0
 30
0
 70
128
 71
229
 72
258
 73
257
 74
228
 0
VERTEX
 8
LOFT_3
 10
0
 20
0
 30
0
 70
128
 71
230
 72
259
 73
258
 74
229
 0
VERTEX
 8
LOFT_3
 10
0
 20
0
 30
0
 70
128
 71
231
 72
260
 73
259
 74
230
 0
VERTEX
 8
LOFT_3
 10
0
 20
0
 30
0
 70
128
 71
232
 72
261
 73
260
 74
231
 0
VERTEX
 8
LOFT_3
 10
0
 20
0
 30
0
 70
128
 71
204
 72
233
 73
261
 74
232
 0
VERTEX
 8
LOFT_3
 10
0
 20
0
 30
0
 70
128
 71
234
 72
263
 73
262
 74
233
 0
VERTEX
 8
LOFT_3
 10
0
 20
0
 30
0
 70
128
 71
235
 72
264
 73
263
 74
234
 0
VERTEX
 8
LOFT_3
 10
0
 20
0
 30
0
 70
128
 71
236
 72
265
 73
264
 74
235
 0
VERTEX
 8
LOFT_3
 10
0
 20
0
 30
0
 70
128
 71
237
 72
266
 73
265
 74
236
 0
VERTEX
 8
LOFT_3
 10
0
 20
0
 30
0
 70
128
 71
238
 72
267
 73
266
 74
237
 0
VERTEX
 8
LOFT_3
 10
0
 20
0
 30
0
 70
128
 71
239
 72
268
 73
267
 74
238
 0
VERTEX
 8
LOFT_3
 10
0
 20
0
 30
0
 70
128
 71
240
 72
269
 73
268
 74
239
 0
VERTEX
 8
LOFT_3
 10
0
 20
0
 30
0
 70
128
 71
241
 72
270
 73
269
 74
240
 0
VERTEX
 8
LOFT_3
 10
0
 20
0
 30
0
 70
128
 71
242
 72
271
 73
270
 74
241
 0
VERTEX
 8
LOFT_3
 10
0
 20
0
 30
0
 70
128
 71
243
 72
272
 73
271
 74
242
 0
VERTEX
 8
LOFT_3
 10
0
 20
0
 30
0
 70
128
 71
244
 72
273
 73
272
 74
243
 0
VERTEX
 8
LOFT_3
 10
0
 20
0
 30
0
 70
128
 71
245
 72
274
 73
273
 74
244
 0
VERTEX
 8
LOFT_3
 10
0
 20
0
 30
0
 70
128
 71
246
 72
275
 73
274
 74
245
 0
VERTEX
 8
LOFT_3
 10
0
 20
0
 30
0
 70
128
 71
247
 72
276
 73
275
 74
246
 0
VERTEX
 8
LOFT_3
 10
0
 20
0
 30
0
 70
128
 71
248
 72
277
 73
276
 74
247
 0
VERTEX
 8
LOFT_3
 10
0
 20
0
 30
0
 70
128
 71
249
 72
278
 73
277
 74
248
 0
VERTEX
 8
LOFT_3
 10
0
 20
0
 30
0
 70
128
 71
250
 72
279
 73
278
 74
249
 0
VERTEX
 8
LOFT_3
 10
0
 20
0
 30
0
 70
128
 71
251
 72
280
 73
279
 74
250
 0
VERTEX
 8
LOFT_3
 10
0
 20
0
 30
0
 70
128
 71
252
 72
281
 73
280
 74
251
 0
VERTEX
 8
LOFT_3
 10
0
 20
0
 30
0
 70
128
 71
253
 72
282
 73
281
 74
252
 0
VERTEX
 8
LOFT_3
 10
0
 20
0
 30
0
 70
128
 71
254
 72
283
 73
282
 74
253
 0
VERTEX
 8
LOFT_3
 10
0
 20
0
 30
0
 70
128
 71
255
 72
284
 73
283
 74
254
 0
VERTEX
 8
LOFT_3
 10
0
 20
0
 30
0
 70
128
 71
256
 72
285
 73
284
 74
255
 0
VERTEX
 8
LOFT_3
 10
0
 20
0
 30
0
 70
128
 71
257
 72
286
 73
285
 74
256
 0
VERTEX
 8
LOFT_3
 10
0
 20
0
 30
0
 70
128
 71
258
 72
287
 73
286
 74
257
 0
VERTEX
 8
LOFT_3
 10
0
 20
0
 30
0
 70
128
 71
259
 72
288
 73
287
 74
258
 0
VERTEX
 8
LOFT_3
 10
0
 20
0
 30
0
 70
128
 71
260
 72
289
 73
288
 74
259
 0
VERTEX
 8
LOFT_3
 10
0
 20
0
 30
0
 70
128
 71
261
 72
290
 73
289
 74
260
 0
VERTEX
 8
LOFT_3
 10
0
 20
0
 30
0
 70
128
 71
233
 72
262
 73
290
 74
261
 0
VERTEX
 8
LOFT_3
 10
0
 20
0
 30
0
 70
128
 71
263
 72
292
 73
291
 74
262
 0
VERTEX
 8
LOFT_3
 10
0
 20
0
 30
0
 70
128
 71
264
 72
293
 73
292
 74
263
 0
VERTEX
 8
LOFT_3
 10
0
 20
0
 30
0
 70
128
 71
265
 72
294
 73
293
 74
264
 0
VERTEX
 8
LOFT_3
 10
0
 20
0
 30
0
 70
128
 71
266
 72
295
 73
294
 74
265
 0
VERTEX
 8
LOFT_3
 10
0
 20
0
 30
0
 70
128
 71
267
 72
296
 73
295
 74
266
 0
VERTEX
 8
LOFT_3
 10
0
 20
0
 30
0
 70
128
 71
268
 72
297
 73
296
 74
267
 0
VERTEX
 8
LOFT_3
 10
0
 20
0
 30
0
 70
128
 71
269
 72
298
 73
297
 74
268
 0
VERTEX
 8
LOFT_3
 10
0
 20
0
 30
0
 70
128
 71
270
 72
299
 73
298
 74
269
 0
VERTEX
 8
LOFT_3
 10
0
 20
0
 30
0
 70
128
 71
271
 72
300
 73
299
 74
270
 0
VERTEX
 8
LOFT_3
 10
0
 20
0
 30
0
 70
128
 71
272
 72
301
 73
300
 74
271
 0
VERTEX
 8
LOFT_3
 10
0
 20
0
 30
0
 70
128
 71
273
 72
302
 73
301
 74
272
 0
VERTEX
 8
LOFT_3
 10
0
 20
0
 30
0
 70
128
 71
274
 72
303
 73
302
 74
273
 0
VERTEX
 8
LOFT_3
 10
0
 20
0
 30
0
 70
128
 71
275
 72
304
 73
303
 74
274
 0
VERTEX
 8
LOFT_3
 10
0
 20
0
 30
0
 70
128
 71
276
 72
305
 73
304
 74
275
 0
VERTEX
 8
LOFT_3
 10
0
 20
0
 30
0
 70
128
 71
277
 72
306
 73
305
 74
276
 0
VERTEX
 8
LOFT_3
 10
0
 20
0
 30
0
 70
128
 71
278
 72
307
 73
306
 74
277
 0
VERTEX
 8
LOFT_3
 10
0
 20
0
 30
0
 70
128
 71
279
 72
308
 73
307
 74
278
 0
VERTEX
 8
LOFT_3
 10
0
 20
0
 30
0
 70
128
 71
280
 72
309
 73
308
 74
279
 0
VERTEX
 8
LOFT_3
 10
0
 20
0
 30
0
 70
128
 71
281
 72
310
 73
309
 74
280
 0
VERTEX
 8
LOFT_3
 10
0
 20
0
 30
0
 70
128
 71
282
 72
311
 73
310
 74
281
 0
VERTEX
 8
LOFT_3
 10
0
 20
0
 30
0
 70
128
 71
283
 72
312
 73
311
 74
282
 0
VERTEX
 8
LOFT_3
 10
0
 20
0
 30
0
 70
128
 71
284
 72
313
 73
312
 74
283
 0
VERTEX
 8
LOFT_3
 10
0
 20
0
 30
0
 70
128
 71
285
 72
314
 73
313
 74
284
 0
VERTEX
 8
LOFT_3
 10
0
 20
0
 30
0
 70
128
 71
286
 72
315
 73
314
 74
285
 0
VERTEX
 8
LOFT_3
 10
0
 20
0
 30
0
 70
128
 71
287
 72
316
 73
315
 74
286
 0
VERTEX
 8
LOFT_3
 10
0
 20
0
 30
0
 70
128
 71
288
 72
317
 73
316
 74
287
 0
VERTEX
 8
LOFT_3
 10
0
 20
0
 30
0
 70
128
 71
289
 72
318
 73
317
 74
288
 0
VERTEX
 8
LOFT_3
 10
0
 20
0
 30
0
 70
128
 71
290
 72
319
 73
318
 74
289
 0
VERTEX
 8
LOFT_3
 10
0
 20
0
 30
0
 70
128
 71
262
 72
291
 73
319
 74
290
 0
SEQEND
 0
POLYLINE
 8
TAPA_1
 66
1
 10
0.0
 20
0.0
 30
0.0
 70
64
 71
29
 72
27
 0
VERTEX
 8
TAPA_1
 10
-0.1846
 20
0.1424
 30
0.0124
 70
192
 0
VERTEX
 8
TAPA_1
 10
-0.1849
 20
0.1453
 30
0.0124
 70
192
 0
VERTEX
 8
TAPA_1
 10
-0.1858
 20
0.1479
 30
0.0124
 70
192
 0
VERTEX
 8
TAPA_1
 10
-0.1873
 20
0.1503
 30
0.0124
 70
192
 0
VERTEX
 8
TAPA_1
 10
-0.1892
 20
0.1523
 30
0.0124
 70
192
 0
VERTEX
 8
TAPA_1
 10
-0.1914
 20
0.1538
 30
0.0124
 70
192
 0
VERTEX
 8
TAPA_1
 10
-0.194
 20
0.1549
 30
0.0124
 70
192
 0
VERTEX
 8
TAPA_1
 10
-0.1969
 20
0.1554
 30
0.0124
 70
192
 0
VERTEX
 8
TAPA_1
 10
-0.1998
 20
0.1552
 30
0.0124
 70
192
 0
VERTEX
 8
TAPA_1
 10
-0.2025
 20
0.1544
 30
0.0124
 70
192
 0
VERTEX
 8
TAPA_1
 10
-0.2049
 20
0.1531
 30
0.0124
 70
192
 0
VERTEX
 8
TAPA_1
 10
-0.207
 20
0.1513
 30
0.0124
 70
192
 0
VERTEX
 8
TAPA_1
 10
-0.2087
 20
0.1492
 30
0.0124
 70
192
 0
VERTEX
 8
TAPA_1
 10
-0.2099
 20
0.1466
 30
0.0124
 70
192
 0
VERTEX
 8
TAPA_1
 10
-0.2105
 20
0.1439
 30
0.0124
 70
192
 0
VERTEX
 8
TAPA_1
 10
-0.2105
 20
0.1409
 30
0.0124
 70
192
 0
VERTEX
 8
TAPA_1
 10
-0.2099
 20
0.1381
 30
0.0124
 70
192
 0
VERTEX
 8
TAPA_1
 10
-0.2087
 20
0.1356
 30
0.0124
 70
192
 0
VERTEX
 8
TAPA_1
 10
-0.207
 20
0.1334
 30
0.0124
 70
192
 0
VERTEX
 8
TAPA_1
 10
-0.2049
 20
0.1317
 30
0.0124
 70
192
 0
VERTEX
 8
TAPA_1
 10
-0.2025
 20
0.1303
 30
0.0124
 70
192
 0
VERTEX
 8
TAPA_1
 10
-0.1998
 20
0.1296
 30
0.0124
 70
192
 0
VERTEX
 8
TAPA_1
 10
-0.1969
 20
0.1294
 30
0.0124
 70
192
 0
VERTEX
 8
TAPA_1
 10
-0.194
 20
0.1299
 30
0.0124
 70
192
 0
VERTEX
 8
TAPA_1
 10
-0.1914
 20
0.1309
 30
0.0124
 70
192
 0
VERTEX
 8
TAPA_1
 10
-0.1892
 20
0.1325
 30
0.0124
 70
192
 0
VERTEX
 8
TAPA_1
 10
-0.1873
 20
0.1345
 30
0.0124
 70
192
 0
VERTEX
 8
TAPA_1
 10
-0.1858
 20
0.1369
 30
0.0124
 70
192
 0
VERTEX
 8
TAPA_1
 10
-0.1849
 20
0.1395
 30
0.0124
 70
192
 0
VERTEX
 8
TAPA_1
 10
0
 20
0
 30
0
 70
128
 71
1
 72
2
 73
4
 74
4
 0
VERTEX
 8
TAPA_1
 10
0
 20
0
 30
0
 70
128
 71
1
 72
4
 73
5
 74
5
 0
VERTEX
 8
TAPA_1
 10
0
 20
0
 30
0
 70
128
 71
1
 72
5
 73
8
 74
8
 0
VERTEX
 8
TAPA_1
 10
0
 20
0
 30
0
 70
128
 71
1
 72
8
 73
23
 74
23
 0
VERTEX
 8
TAPA_1
 10
0
 20
0
 30
0
 70
128
 71
1
 72
23
 73
26
 74
26
 0
VERTEX
 8
TAPA_1
 10
0
 20
0
 30
0
 70
128
 71
1
 72
26
 73
27
 74
27
 0
VERTEX
 8
TAPA_1
 10
0
 20
0
 30
0
 70
128
 71
1
 72
27
 73
29
 74
29
 0
VERTEX
 8
TAPA_1
 10
0
 20
0
 30
0
 70
128
 71
2
 72
3
 73
4
 74
4
 0
VERTEX
 8
TAPA_1
 10
0
 20
0
 30
0
 70
128
 71
5
 72
6
 73
8
 74
8
 0
VERTEX
 8
TAPA_1
 10
0
 20
0
 30
0
 70
128
 71
6
 72
7
 73
8
 74
8
 0
VERTEX
 8
TAPA_1
 10
0
 20
0
 30
0
 70
128
 71
8
 72
9
 73
15
 74
15
 0
VERTEX
 8
TAPA_1
 10
0
 20
0
 30
0
 70
128
 71
8
 72
15
 73
23
 74
23
 0
VERTEX
 8
TAPA_1
 10
0
 20
0
 30
0
 70
128
 71
9
 72
10
 73
11
 74
11
 0
VERTEX
 8
TAPA_1
 10
0
 20
0
 30
0
 70
128
 71
9
 72
11
 73
12
 74
12
 0
VERTEX
 8
TAPA_1
 10
0
 20
0
 30
0
 70
128
 71
9
 72
12
 73
15
 74
15
 0
VERTEX
 8
TAPA_1
 10
0
 20
0
 30
0
 70
128
 71
12
 72
13
 73
15
 74
15
 0
VERTEX
 8
TAPA_1
 10
0
 20
0
 30
0
 70
128
 71
13
 72
14
 73
15
 74
15
 0
VERTEX
 8
TAPA_1
 10
0
 20
0
 30
0
 70
128
 71
15
 72
16
 73
23
 74
23
 0
VERTEX
 8
TAPA_1
 10
0
 20
0
 30
0
 70
128
 71
16
 72
17
 73
18
 74
18
 0
VERTEX
 8
TAPA_1
 10
0
 20
0
 30
0
 70
128
 71
16
 72
18
 73
19
 74
19
 0
VERTEX
 8
TAPA_1
 10
0
 20
0
 30
0
 70
128
 71
16
 72
19
 73
22
 74
22
 0
VERTEX
 8
TAPA_1
 10
0
 20
0
 30
0
 70
128
 71
16
 72
22
 73
23
 74
23
 0
VERTEX
 8
TAPA_1
 10
0
 20
0
 30
0
 70
128
 71
19
 72
20
 73
22
 74
22
 0
VERTEX
 8
TAPA_1
 10
0
 20
0
 30
0
 70
128
 71
20
 72
21
 73
22
 74
22
 0
VERTEX
 8
TAPA_1
 10
0
 20
0
 30
0
 70
128
 71
23
 72
24
 73
25
 74
25
 0
VERTEX
 8
TAPA_1
 10
0
 20
0
 30
0
 70
128
 71
23
 72
25
 73
26
 74
26
 0
VERTEX
 8
TAPA_1
 10
0
 20
0
 30
0
 70
128
 71
27
 72
28
 73
29
 74
29
 0
SEQEND
 0
POLYLINE
 8
TAPA_2
 66
1
 10
0.0
 20
0.0
 30
0.0
 70
64
 71
29
 72
27
 0
VERTEX
 8
TAPA_2
 10
-0.1617
 20
0.1424
 30
0.2649
 70
192
 0
VERTEX
 8
TAPA_2
 10
-0.1623
 20
0.1479
 30
0.2649
 70
192
 0
VERTEX
 8
TAPA_2
 10
-0.1641
 20
0.1531
 30
0.2649
 70
192
 0
VERTEX
 8
TAPA_2
 10
-0.1668
 20
0.1576
 30
0.2649
 70
192
 0
VERTEX
 8
TAPA_2
 10
-0.1705
 20
0.1614
 30
0.2649
 70
192
 0
VERTEX
 8
TAPA_2
 10
-0.1748
 20
0.1644
 30
0.2649
 70
192
 0
VERTEX
 8
TAPA_2
 10
-0.1798
 20
0.1664
 30
0.2649
 70
192
 0
VERTEX
 8
TAPA_2
 10
-0.1853
 20
0.1674
 30
0.2649
 70
192
 0
VERTEX
 8
TAPA_2
 10
-0.1909
 20
0.167
 30
0.2649
 70
192
 0
VERTEX
 8
TAPA_2
 10
-0.1961
 20
0.1656
 30
0.2649
 70
192
 0
VERTEX
 8
TAPA_2
 10
-0.2008
 20
0.163
 30
0.2649
 70
192
 0
VERTEX
 8
TAPA_2
 10
-0.2048
 20
0.1596
 30
0.2649
 70
192
 0
VERTEX
 8
TAPA_2
 10
-0.2081
 20
0.1554
 30
0.2649
 70
192
 0
VERTEX
 8
TAPA_2
 10
-0.2103
 20
0.1506
 30
0.2649
 70
192
 0
VERTEX
 8
TAPA_2
 10
-0.2115
 20
0.1452
 30
0.2649
 70
192
 0
VERTEX
 8
TAPA_2
 10
-0.2115
 20
0.1396
 30
0.2649
 70
192
 0
VERTEX
 8
TAPA_2
 10
-0.2103
 20
0.1342
 30
0.2649
 70
192
 0
VERTEX
 8
TAPA_2
 10
-0.2081
 20
0.1294
 30
0.2649
 70
192
 0
VERTEX
 8
TAPA_2
 10
-0.2048
 20
0.1252
 30
0.2649
 70
192
 0
VERTEX
 8
TAPA_2
 10
-0.2008
 20
0.1218
 30
0.2649
 70
192
 0
VERTEX
 8
TAPA_2
 10
-0.1961
 20
0.1192
 30
0.2649
 70
192
 0
VERTEX
 8
TAPA_2
 10
-0.1909
 20
0.1177
 30
0.2649
 70
192
 0
VERTEX
 8
TAPA_2
 10
-0.1853
 20
0.1174
 30
0.2649
 70
192
 0
VERTEX
 8
TAPA_2
 10
-0.1798
 20
0.1183
 30
0.2649
 70
192
 0
VERTEX
 8
TAPA_2
 10
-0.1748
 20
0.1204
 30
0.2649
 70
192
 0
VERTEX
 8
TAPA_2
 10
-0.1705
 20
0.1234
 30
0.2649
 70
192
 0
VERTEX
 8
TAPA_2
 10
-0.1668
 20
0.1272
 30
0.2649
 70
192
 0
VERTEX
 8
TAPA_2
 10
-0.1641
 20
0.1317
 30
0.2649
 70
192
 0
VERTEX
 8
TAPA_2
 10
-0.1623
 20
0.1368
 30
0.2649
 70
192
 0
VERTEX
 8
TAPA_2
 10
0
 20
0
 30
0
 70
128
 71
29
 72
28
 73
27
 74
27
 0
VERTEX
 8
TAPA_2
 10
0
 20
0
 30
0
 70
128
 71
29
 72
27
 73
1
 74
1
 0
VERTEX
 8
TAPA_2
 10
0
 20
0
 30
0
 70
128
 71
27
 72
26
 73
1
 74
1
 0
VERTEX
 8
TAPA_2
 10
0
 20
0
 30
0
 70
128
 71
26
 72
25
 73
23
 74
23
 0
VERTEX
 8
TAPA_2
 10
0
 20
0
 30
0
 70
128
 71
26
 72
23
 73
1
 74
1
 0
VERTEX
 8
TAPA_2
 10
0
 20
0
 30
0
 70
128
 71
25
 72
24
 73
23
 74
23
 0
VERTEX
 8
TAPA_2
 10
0
 20
0
 30
0
 70
128
 71
23
 72
22
 73
16
 74
16
 0
VERTEX
 8
TAPA_2
 10
0
 20
0
 30
0
 70
128
 71
23
 72
16
 73
15
 74
15
 0
VERTEX
 8
TAPA_2
 10
0
 20
0
 30
0
 70
128
 71
23
 72
15
 73
8
 74
8
 0
VERTEX
 8
TAPA_2
 10
0
 20
0
 30
0
 70
128
 71
23
 72
8
 73
1
 74
1
 0
VERTEX
 8
TAPA_2
 10
0
 20
0
 30
0
 70
128
 71
22
 72
21
 73
20
 74
20
 0
VERTEX
 8
TAPA_2
 10
0
 20
0
 30
0
 70
128
 71
22
 72
20
 73
19
 74
19
 0
VERTEX
 8
TAPA_2
 10
0
 20
0
 30
0
 70
128
 71
22
 72
19
 73
16
 74
16
 0
VERTEX
 8
TAPA_2
 10
0
 20
0
 30
0
 70
128
 71
19
 72
18
 73
16
 74
16
 0
VERTEX
 8
TAPA_2
 10
0
 20
0
 30
0
 70
128
 71
18
 72
17
 73
16
 74
16
 0
VERTEX
 8
TAPA_2
 10
0
 20
0
 30
0
 70
128
 71
15
 72
14
 73
13
 74
13
 0
VERTEX
 8
TAPA_2
 10
0
 20
0
 30
0
 70
128
 71
15
 72
13
 73
12
 74
12
 0
VERTEX
 8
TAPA_2
 10
0
 20
0
 30
0
 70
128
 71
15
 72
12
 73
9
 74
9
 0
VERTEX
 8
TAPA_2
 10
0
 20
0
 30
0
 70
128
 71
15
 72
9
 73
8
 74
8
 0
VERTEX
 8
TAPA_2
 10
0
 20
0
 30
0
 70
128
 71
12
 72
11
 73
9
 74
9
 0
VERTEX
 8
TAPA_2
 10
0
 20
0
 30
0
 70
128
 71
11
 72
10
 73
9
 74
9
 0
VERTEX
 8
TAPA_2
 10
0
 20
0
 30
0
 70
128
 71
8
 72
7
 73
6
 74
6
 0
VERTEX
 8
TAPA_2
 10
0
 20
0
 30
0
 70
128
 71
8
 72
6
 73
5
 74
5
 0
VERTEX
 8
TAPA_2
 10
0
 20
0
 30
0
 70
128
 71
8
 72
5
 73
1
 74
1
 0
VERTEX
 8
TAPA_2
 10
0
 20
0
 30
0
 70
128
 71
5
 72
4
 73
1
 74
1
 0
VERTEX
 8
TAPA_2
 10
0
 20
0
 30
0
 70
128
 71
4
 72
3
 73
2
 74
2
 0
VERTEX
 8
TAPA_2
 10
0
 20
0
 30
0
 70
128
 71
4
 72
2
 73
1
 74
1
 0
SEQEND
 0
POLYLINE
 8
LOFT_2
 66
1
 10
0.0
 20
0.0
 30
0.0
 70
64
 71
319
 72
290
 0
VERTEX
 8
LOFT_2
 10
0.1769
 20
0.1498
 30
0.0124
 70
192
 0
VERTEX
 8
LOFT_2
 10
0.174
 20
0.1494
 30
0.0124
 70
192
 0
VERTEX
 8
LOFT_2
 10
0.1714
 20
0.1485
 30
0.0124
 70
192
 0
VERTEX
 8
LOFT_2
 10
0.169
 20
0.1471
 30
0.0124
 70
192
 0
VERTEX
 8
LOFT_2
 10
0.167
 20
0.1452
 30
0.0124
 70
192
 0
VERTEX
 8
LOFT_2
 10
0.1655
 20
0.1429
 30
0.0124
 70
192
 0
VERTEX
 8
LOFT_2
 10
0.1644
 20
0.1403
 30
0.0124
 70
192
 0
VERTEX
 8
LOFT_2
 10
0.1639
 20
0.1375
 30
0.0124
 70
192
 0
VERTEX
 8
LOFT_2
 10
0.1641
 20
0.1346
 30
0.0124
 70
192
 0
VERTEX
 8
LOFT_2
 10
0.1649
 20
0.1319
 30
0.0124
 70
192
 0
VERTEX
 8
LOFT_2
 10
0.1662
 20
0.1294
 30
0.0124
 70
192
 0
VERTEX
 8
LOFT_2
 10
0.168
 20
0.1273
 30
0.0124
 70
192
 0
VERTEX
 8
LOFT_2
 10
0.1702
 20
0.1256
 30
0.0124
 70
192
 0
VERTEX
 8
LOFT_2
 10
0.1727
 20
0.1245
 30
0.0124
 70
192
 0
VERTEX
 8
LOFT_2
 10
0.1755
 20
0.1238
 30
0.0124
 70
192
 0
VERTEX
 8
LOFT_2
 10
0.1784
 20
0.1238
 30
0.0124
 70
192
 0
VERTEX
 8
LOFT_2
 10
0.1812
 20
0.1245
 30
0.0124
 70
192
 0
VERTEX
 8
LOFT_2
 10
0.1837
 20
0.1256
 30
0.0124
 70
192
 0
VERTEX
 8
LOFT_2
 10
0.1859
 20
0.1273
 30
0.0124
 70
192
 0
VERTEX
 8
LOFT_2
 10
0.1877
 20
0.1294
 30
0.0124
 70
192
 0
VERTEX
 8
LOFT_2
 10
0.189
 20
0.1319
 30
0.0124
 70
192
 0
VERTEX
 8
LOFT_2
 10
0.1897
 20
0.1346
 30
0.0124
 70
192
 0
VERTEX
 8
LOFT_2
 10
0.1899
 20
0.1375
 30
0.0124
 70
192
 0
VERTEX
 8
LOFT_2
 10
0.1894
 20
0.1403
 30
0.0124
 70
192
 0
VERTEX
 8
LOFT_2
 10
0.1884
 20
0.1429
 30
0.0124
 70
192
 0
VERTEX
 8
LOFT_2
 10
0.1868
 20
0.1452
 30
0.0124
 70
192
 0
VERTEX
 8
LOFT_2
 10
0.1848
 20
0.1471
 30
0.0124
 70
192
 0
VERTEX
 8
LOFT_2
 10
0.1825
 20
0.1485
 30
0.0124
 70
192
 0
VERTEX
 8
LOFT_2
 10
0.1798
 20
0.1494
 30
0.0124
 70
192
 0
VERTEX
 8
LOFT_2
 10
0.1769
 20
0.152
 30
0.0377
 70
192
 0
VERTEX
 8
LOFT_2
 10
0.1738
 20
0.1517
 30
0.0377
 70
192
 0
VERTEX
 8
LOFT_2
 10
0.1709
 20
0.1507
 30
0.0377
 70
192
 0
VERTEX
 8
LOFT_2
 10
0.1683
 20
0.1491
 30
0.0377
 70
192
 0
VERTEX
 8
LOFT_2
 10
0.1661
 20
0.1471
 30
0.0377
 70
192
 0
VERTEX
 8
LOFT_2
 10
0.1644
 20
0.1446
 30
0.0377
 70
192
 0
VERTEX
 8
LOFT_2
 10
0.1633
 20
0.1418
 30
0.0377
 70
192
 0
VERTEX
 8
LOFT_2
 10
0.1627
 20
0.1387
 30
0.0377
 70
192
 0
VERTEX
 8
LOFT_2
 10
0.1629
 20
0.1355
 30
0.0377
 70
192
 0
VERTEX
 8
LOFT_2
 10
0.1638
 20
0.1325
 30
0.0377
 70
192
 0
VERTEX
 8
LOFT_2
 10
0.1652
 20
0.1298
 30
0.0377
 70
192
 0
VERTEX
 8
LOFT_2
 10
0.1671
 20
0.1275
 30
0.0377
 70
192
 0
VERTEX
 8
LOFT_2
 10
0.1695
 20
0.1257
 30
0.0377
 70
192
 0
VERTEX
 8
LOFT_2
 10
0.1723
 20
0.1244
 30
0.0377
 70
192
 0
VERTEX
 8
LOFT_2
 10
0.1753
 20
0.1237
 30
0.0377
 70
192
 0
VERTEX
 8
LOFT_2
 10
0.1785
 20
0.1237
 30
0.0377
 70
192
 0
VERTEX
 8
LOFT_2
 10
0.1816
 20
0.1244
 30
0.0377
 70
192
 0
VERTEX
 8
LOFT_2
 10
0.1843
 20
0.1257
 30
0.0377
 70
192
 0
VERTEX
 8
LOFT_2
 10
0.1867
 20
0.1275
 30
0.0377
 70
192
 0
VERTEX
 8
LOFT_2
 10
0.1886
 20
0.1298
 30
0.0377
 70
192
 0
VERTEX
 8
LOFT_2
 10
0.1901
 20
0.1325
 30
0.0377
 70
192
 0
VERTEX
 8
LOFT_2
 10
0.1909
 20
0.1355
 30
0.0377
 70
192
 0
VERTEX
 8
LOFT_2
 10
0.1911
 20
0.1387
 30
0.0377
 70
192
 0
VERTEX
 8
LOFT_2
 10
0.1906
 20
0.1418
 30
0.0377
 70
192
 0
VERTEX
 8
LOFT_2
 10
0.1894
 20
0.1446
 30
0.0377
 70
192
 0
VERTEX
 8
LOFT_2
 10
0.1877
 20
0.1471
 30
0.0377
 70
192
 0
VERTEX
 8
LOFT_2
 10
0.1856
 20
0.1491
 30
0.0377
 70
192
 0
VERTEX
 8
LOFT_2
 10
0.183
 20
0.1507
 30
0.0377
 70
192
 0
VERTEX
 8
LOFT_2
 10
0.1801
 20
0.1517
 30
0.0377
 70
192
 0
VERTEX
 8
LOFT_2
 10
0.1769
 20
0.1543
 30
0.0629
 70
192
 0
VERTEX
 8
LOFT_2
 10
0.1735
 20
0.154
 30
0.0629
 70
192
 0
VERTEX
 8
LOFT_2
 10
0.1704
 20
0.1529
 30
0.0629
 70
192
 0
VERTEX
 8
LOFT_2
 10
0.1676
 20
0.1512
 30
0.0629
 70
192
 0
VERTEX
 8
LOFT_2
 10
0.1652
 20
0.1489
 30
0.0629
 70
192
 0
VERTEX
 8
LOFT_2
 10
0.1634
 20
0.1462
 30
0.0629
 70
192
 0
VERTEX
 8
LOFT_2
 10
0.1621
 20
0.1432
 30
0.0629
 70
192
 0
VERTEX
 8
LOFT_2
 10
0.1615
 20
0.1398
 30
0.0629
 70
192
 0
VERTEX
 8
LOFT_2
 10
0.1617
 20
0.1364
 30
0.0629
 70
192
 0
VERTEX
 8
LOFT_2
 10
0.1627
 20
0.1331
 30
0.0629
 70
192
 0
VERTEX
 8
LOFT_2
 10
0.1642
 20
0.1302
 30
0.0629
 70
192
 0
VERTEX
 8
LOFT_2
 10
0.1663
 20
0.1278
 30
0.0629
 70
192
 0
VERTEX
 8
LOFT_2
 10
0.1689
 20
0.1258
 30
0.0629
 70
192
 0
VERTEX
 8
LOFT_2
 10
0.1719
 20
0.1244
 30
0.0629
 70
192
 0
VERTEX
 8
LOFT_2
 10
0.1752
 20
0.1236
 30
0.0629
 70
192
 0
VERTEX
 8
LOFT_2
 10
0.1787
 20
0.1236
 30
0.0629
 70
192
 0
VERTEX
 8
LOFT_2
 10
0.182
 20
0.1244
 30
0.0629
 70
192
 0
VERTEX
 8
LOFT_2
 10
0.1849
 20
0.1258
 30
0.0629
 70
192
 0
VERTEX
 8
LOFT_2
 10
0.1875
 20
0.1278
 30
0.0629
 70
192
 0
VERTEX
 8
LOFT_2
 10
0.1896
 20
0.1302
 30
0.0629
 70
192
 0
VERTEX
 8
LOFT_2
 10
0.1912
 20
0.1331
 30
0.0629
 70
192
 0
VERTEX
 8
LOFT_2
 10
0.1921
 20
0.1364
 30
0.0629
 70
192
 0
VERTEX
 8
LOFT_2
 10
0.1923
 20
0.1398
 30
0.0629
 70
192
 0
VERTEX
 8
LOFT_2
 10
0.1917
 20
0.1432
 30
0.0629
 70
192
 0
VERTEX
 8
LOFT_2
 10
0.1905
 20
0.1462
 30
0.0629
 70
192
 0
VERTEX
 8
LOFT_2
 10
0.1886
 20
0.1489
 30
0.0629
 70
192
 0
VERTEX
 8
LOFT_2
 10
0.1863
 20
0.1512
 30
0.0629
 70
192
 0
VERTEX
 8
LOFT_2
 10
0.1835
 20
0.1529
 30
0.0629
 70
192
 0
VERTEX
 8
LOFT_2
 10
0.1803
 20
0.154
 30
0.0629
 70
192
 0
VERTEX
 8
LOFT_2
 10
0.1769
 20
0.1566
 30
0.0882
 70
192
 0
VERTEX
 8
LOFT_2
 10
0.1732
 20
0.1562
 30
0.0882
 70
192
 0
VERTEX
 8
LOFT_2
 10
0.1698
 20
0.1551
 30
0.0882
 70
192
 0
VERTEX
 8
LOFT_2
 10
0.1668
 20
0.1532
 30
0.0882
 70
192
 0
VERTEX
 8
LOFT_2
 10
0.1643
 20
0.1508
 30
0.0882
 70
192
 0
VERTEX
 8
LOFT_2
 10
0.1623
 20
0.1479
 30
0.0882
 70
192
 0
VERTEX
 8
LOFT_2
 10
0.161
 20
0.1446
 30
0.0882
 70
192
 0
VERTEX
 8
LOFT_2
 10
0.1604
 20
0.141
 30
0.0882
 70
192
 0
VERTEX
 8
LOFT_2
 10
0.1606
 20
0.1372
 30
0.0882
 70
192
 0
VERTEX
 8
LOFT_2
 10
0.1615
 20
0.1338
 30
0.0882
 70
192
 0
VERTEX
 8
LOFT_2
 10
0.1632
 20
0.1307
 30
0.0882
 70
192
 0
VERTEX
 8
LOFT_2
 10
0.1655
 20
0.128
 30
0.0882
 70
192
 0
VERTEX
 8
LOFT_2
 10
0.1683
 20
0.1258
 30
0.0882
 70
192
 0
VERTEX
 8
LOFT_2
 10
0.1715
 20
0.1243
 30
0.0882
 70
192
 0
VERTEX
 8
LOFT_2
 10
0.1751
 20
0.1235
 30
0.0882
 70
192
 0
VERTEX
 8
LOFT_2
 10
0.1788
 20
0.1235
 30
0.0882
 70
192
 0
VERTEX
 8
LOFT_2
 10
0.1823
 20
0.1243
 30
0.0882
 70
192
 0
VERTEX
 8
LOFT_2
 10
0.1856
 20
0.1258
 30
0.0882
 70
192
 0
VERTEX
 8
LOFT_2
 10
0.1884
 20
0.128
 30
0.0882
 70
192
 0
VERTEX
 8
LOFT_2
 10
0.1906
 20
0.1307
 30
0.0882
 70
192
 0
VERTEX
 8
LOFT_2
 10
0.1923
 20
0.1338
 30
0.0882
 70
192
 0
VERTEX
 8
LOFT_2
 10
0.1933
 20
0.1372
 30
0.0882
 70
192
 0
VERTEX
 8
LOFT_2
 10
0.1935
 20
0.141
 30
0.0882
 70
192
 0
VERTEX
 8
LOFT_2
 10
0.1929
 20
0.1446
 30
0.0882
 70
192
 0
VERTEX
 8
LOFT_2
 10
0.1916
 20
0.1479
 30
0.0882
 70
192
 0
VERTEX
 8
LOFT_2
 10
0.1896
 20
0.1508
 30
0.0882
 70
192
 0
VERTEX
 8
LOFT_2
 10
0.187
 20
0.1532
 30
0.0882
 70
192
 0
VERTEX
 8
LOFT_2
 10
0.184
 20
0.1551
 30
0.0882
 70
192
 0
VERTEX
 8
LOFT_2
 10
0.1806
 20
0.1562
 30
0.0882
 70
192
 0
VERTEX
 8
LOFT_2
 10
0.1769
 20
0.1589
 30
0.1134
 70
192
 0
VERTEX
 8
LOFT_2
 10
0.173
 20
0.1585
 30
0.1134
 70
192
 0
VERTEX
 8
LOFT_2
 10
0.1693
 20
0.1572
 30
0.1134
 70
192
 0
VERTEX
 8
LOFT_2
 10
0.1661
 20
0.1553
 30
0.1134
 70
192
 0
VERTEX
 8
LOFT_2
 10
0.1634
 20
0.1527
 30
0.1134
 70
192
 0
VERTEX
 8
LOFT_2
 10
0.1612
 20
0.1496
 30
0.1134
 70
192
 0
VERTEX
 8
LOFT_2
 10
0.1598
 20
0.146
 30
0.1134
 70
192
 0
VERTEX
 8
LOFT_2
 10
0.1592
 20
0.1421
 30
0.1134
 70
192
 0
VERTEX
 8
LOFT_2
 10
0.1594
 20
0.1381
 30
0.1134
 70
192
 0
VERTEX
 8
LOFT_2
 10
0.1604
 20
0.1344
 30
0.1134
 70
192
 0
VERTEX
 8
LOFT_2
 10
0.1622
 20
0.1311
 30
0.1134
 70
192
 0
VERTEX
 8
LOFT_2
 10
0.1647
 20
0.1282
 30
0.1134
 70
192
 0
VERTEX
 8
LOFT_2
 10
0.1677
 20
0.1259
 30
0.1134
 70
192
 0
VERTEX
 8
LOFT_2
 10
0.1711
 20
0.1243
 30
0.1134
 70
192
 0
VERTEX
 8
LOFT_2
 10
0.1749
 20
0.1234
 30
0.1134
 70
192
 0
VERTEX
 8
LOFT_2
 10
0.1789
 20
0.1234
 30
0.1134
 70
192
 0
VERTEX
 8
LOFT_2
 10
0.1827
 20
0.1243
 30
0.1134
 70
192
 0
VERTEX
 8
LOFT_2
 10
0.1862
 20
0.1259
 30
0.1134
 70
192
 0
VERTEX
 8
LOFT_2
 10
0.1892
 20
0.1282
 30
0.1134
 70
192
 0
VERTEX
 8
LOFT_2
 10
0.1916
 20
0.1311
 30
0.1134
 70
192
 0
VERTEX
 8
LOFT_2
 10
0.1934
 20
0.1344
 30
0.1134
 70
192
 0
VERTEX
 8
LOFT_2
 10
0.1945
 20
0.1381
 30
0.1134
 70
192
 0
VERTEX
 8
LOFT_2
 10
0.1947
 20
0.1421
 30
0.1134
 70
192
 0
VERTEX
 8
LOFT_2
 10
0.194
 20
0.146
 30
0.1134
 70
192
 0
VERTEX
 8
LOFT_2
 10
0.1926
 20
0.1496
 30
0.1134
 70
192
 0
VERTEX
 8
LOFT_2
 10
0.1905
 20
0.1527
 30
0.1134
 70
192
 0
VERTEX
 8
LOFT_2
 10
0.1877
 20
0.1553
 30
0.1134
 70
192
 0
VERTEX
 8
LOFT_2
 10
0.1845
 20
0.1572
 30
0.1134
 70
192
 0
VERTEX
 8
LOFT_2
 10
0.1809
 20
0.1585
 30
0.1134
 70
192
 0
VERTEX
 8
LOFT_2
 10
0.1769
 20
0.1612
 30
0.1386
 70
192
 0
VERTEX
 8
LOFT_2
 10
0.1727
 20
0.1607
 30
0.1386
 70
192
 0
VERTEX
 8
LOFT_2
 10
0.1688
 20
0.1594
 30
0.1386
 70
192
 0
VERTEX
 8
LOFT_2
 10
0.1654
 20
0.1573
 30
0.1386
 70
192
 0
VERTEX
 8
LOFT_2
 10
0.1625
 20
0.1545
 30
0.1386
 70
192
 0
VERTEX
 8
LOFT_2
 10
0.1602
 20
0.1512
 30
0.1386
 70
192
 0
VERTEX
 8
LOFT_2
 10
0.1586
 20
0.1474
 30
0.1386
 70
192
 0
VERTEX
 8
LOFT_2
 10
0.158
 20
0.1433
 30
0.1386
 70
192
 0
VERTEX
 8
LOFT_2
 10
0.1582
 20
0.139
 30
0.1386
 70
192
 0
VERTEX
 8
LOFT_2
 10
0.1593
 20
0.135
 30
0.1386
 70
192
 0
VERTEX
 8
LOFT_2
 10
0.1612
 20
0.1315
 30
0.1386
 70
192
 0
VERTEX
 8
LOFT_2
 10
0.1638
 20
0.1284
 30
0.1386
 70
192
 0
VERTEX
 8
LOFT_2
 10
0.167
 20
0.126
 30
0.1386
 70
192
 0
VERTEX
 8
LOFT_2
 10
0.1707
 20
0.1242
 30
0.1386
 70
192
 0
VERTEX
 8
LOFT_2
 10
0.1748
 20
0.1233
 30
0.1386
 70
192
 0
VERTEX
 8
LOFT_2
 10
0.1791
 20
0.1233
 30
0.1386
 70
192
 0
VERTEX
 8
LOFT_2
 10
0.1831
 20
0.1242
 30
0.1386
 70
192
 0
VERTEX
 8
LOFT_2
 10
0.1868
 20
0.126
 30
0.1386
 70
192
 0
VERTEX
 8
LOFT_2
 10
0.19
 20
0.1284
 30
0.1386
 70
192
 0
VERTEX
 8
LOFT_2
 10
0.1926
 20
0.1315
 30
0.1386
 70
192
 0
VERTEX
 8
LOFT_2
 10
0.1945
 20
0.135
 30
0.1386
 70
192
 0
VERTEX
 8
LOFT_2
 10
0.1957
 20
0.139
 30
0.1386
 70
192
 0
VERTEX
 8
LOFT_2
 10
0.1959
 20
0.1433
 30
0.1386
 70
192
 0
VERTEX
 8
LOFT_2
 10
0.1952
 20
0.1474
 30
0.1386
 70
192
 0
VERTEX
 8
LOFT_2
 10
0.1937
 20
0.1512
 30
0.1386
 70
192
 0
VERTEX
 8
LOFT_2
 10
0.1914
 20
0.1545
 30
0.1386
 70
192
 0
VERTEX
 8
LOFT_2
 10
0.1885
 20
0.1573
 30
0.1386
 70
192
 0
VERTEX
 8
LOFT_2
 10
0.185
 20
0.1594
 30
0.1386
 70
192
 0
VERTEX
 8
LOFT_2
 10
0.1811
 20
0.1607
 30
0.1386
 70
192
 0
VERTEX
 8
LOFT_2
 10
0.1769
 20
0.1635
 30
0.1639
 70
192
 0
VERTEX
 8
LOFT_2
 10
0.1724
 20
0.163
 30
0.1639
 70
192
 0
VERTEX
 8
LOFT_2
 10
0.1683
 20
0.1616
 30
0.1639
 70
192
 0
VERTEX
 8
LOFT_2
 10
0.1646
 20
0.1594
 30
0.1639
 70
192
 0
VERTEX
 8
LOFT_2
 10
0.1615
 20
0.1564
 30
0.1639
 70
192
 0
VERTEX
 8
LOFT_2
 10
0.1591
 20
0.1529
 30
0.1639
 70
192
 0
VERTEX
 8
LOFT_2
 10
0.1575
 20
0.1489
 30
0.1639
 70
192
 0
VERTEX
 8
LOFT_2
 10
0.1568
 20
0.1445
 30
0.1639
 70
192
 0
VERTEX
 8
LOFT_2
 10
0.157
 20
0.1399
 30
0.1639
 70
192
 0
VERTEX
 8
LOFT_2
 10
0.1582
 20
0.1357
 30
0.1639
 70
192
 0
VERTEX
 8
LOFT_2
 10
0.1602
 20
0.1319
 30
0.1639
 70
192
 0
VERTEX
 8
LOFT_2
 10
0.163
 20
0.1286
 30
0.1639
 70
192
 0
VERTEX
 8
LOFT_2
 10
0.1664
 20
0.126
 30
0.1639
 70
192
 0
VERTEX
 8
LOFT_2
 10
0.1703
 20
0.1242
 30
0.1639
 70
192
 0
VERTEX
 8
LOFT_2
 10
0.1746
 20
0.1232
 30
0.1639
 70
192
 0
VERTEX
 8
LOFT_2
 10
0.1792
 20
0.1232
 30
0.1639
 70
192
 0
VERTEX
 8
LOFT_2
 10
0.1835
 20
0.1242
 30
0.1639
 70
192
 0
VERTEX
 8
LOFT_2
 10
0.1874
 20
0.126
 30
0.1639
 70
192
 0
VERTEX
 8
LOFT_2
 10
0.1908
 20
0.1286
 30
0.1639
 70
192
 0
VERTEX
 8
LOFT_2
 10
0.1936
 20
0.1319
 30
0.1639
 70
192
 0
VERTEX
 8
LOFT_2
 10
0.1956
 20
0.1357
 30
0.1639
 70
192
 0
VERTEX
 8
LOFT_2
 10
0.1968
 20
0.1399
 30
0.1639
 70
192
 0
VERTEX
 8
LOFT_2
 10
0.1971
 20
0.1445
 30
0.1639
 70
192
 0
VERTEX
 8
LOFT_2
 10
0.1964
 20
0.1489
 30
0.1639
 70
192
 0
VERTEX
 8
LOFT_2
 10
0.1947
 20
0.1529
 30
0.1639
 70
192
 0
VERTEX
 8
LOFT_2
 10
0.1923
 20
0.1564
 30
0.1639
 70
192
 0
VERTEX
 8
LOFT_2
 10
0.1892
 20
0.1594
 30
0.1639
 70
192
 0
VERTEX
 8
LOFT_2
 10
0.1855
 20
0.1616
 30
0.1639
 70
192
 0
VERTEX
 8
LOFT_2
 10
0.1814
 20
0.163
 30
0.1639
 70
192
 0
VERTEX
 8
LOFT_2
 10
0.1769
 20
0.1658
 30
0.1891
 70
192
 0
VERTEX
 8
LOFT_2
 10
0.1722
 20
0.1653
 30
0.1891
 70
192
 0
VERTEX
 8
LOFT_2
 10
0.1678
 20
0.1638
 30
0.1891
 70
192
 0
VERTEX
 8
LOFT_2
 10
0.1639
 20
0.1614
 30
0.1891
 70
192
 0
VERTEX
 8
LOFT_2
 10
0.1606
 20
0.1583
 30
0.1891
 70
192
 0
VERTEX
 8
LOFT_2
 10
0.1581
 20
0.1545
 30
0.1891
 70
192
 0
VERTEX
 8
LOFT_2
 10
0.1563
 20
0.1503
 30
0.1891
 70
192
 0
VERTEX
 8
LOFT_2
 10
0.1556
 20
0.1456
 30
0.1891
 70
192
 0
VERTEX
 8
LOFT_2
 10
0.1558
 20
0.1408
 30
0.1891
 70
192
 0
VERTEX
 8
LOFT_2
 10
0.1571
 20
0.1363
 30
0.1891
 70
192
 0
VERTEX
 8
LOFT_2
 10
0.1593
 20
0.1323
 30
0.1891
 70
192
 0
VERTEX
 8
LOFT_2
 10
0.1622
 20
0.1289
 30
0.1891
 70
192
 0
VERTEX
 8
LOFT_2
 10
0.1658
 20
0.1261
 30
0.1891
 70
192
 0
VERTEX
 8
LOFT_2
 10
0.1699
 20
0.1242
 30
0.1891
 70
192
 0
VERTEX
 8
LOFT_2
 10
0.1745
 20
0.1231
 30
0.1891
 70
192
 0
VERTEX
 8
LOFT_2
 10
0.1793
 20
0.1231
 30
0.1891
 70
192
 0
VERTEX
 8
LOFT_2
 10
0.1839
 20
0.1242
 30
0.1891
 70
192
 0
VERTEX
 8
LOFT_2
 10
0.1881
 20
0.1261
 30
0.1891
 70
192
 0
VERTEX
 8
LOFT_2
 10
0.1917
 20
0.1289
 30
0.1891
 70
192
 0
VERTEX
 8
LOFT_2
 10
0.1946
 20
0.1323
 30
0.1891
 70
192
 0
VERTEX
 8
LOFT_2
 10
0.1968
 20
0.1363
 30
0.1891
 70
192
 0
VERTEX
 8
LOFT_2
 10
0.198
 20
0.1408
 30
0.1891
 70
192
 0
VERTEX
 8
LOFT_2
 10
0.1983
 20
0.1456
 30
0.1891
 70
192
 0
VERTEX
 8
LOFT_2
 10
0.1975
 20
0.1503
 30
0.1891
 70
192
 0
VERTEX
 8
LOFT_2
 10
0.1958
 20
0.1545
 30
0.1891
 70
192
 0
VERTEX
 8
LOFT_2
 10
0.1932
 20
0.1583
 30
0.1891
 70
192
 0
VERTEX
 8
LOFT_2
 10
0.1899
 20
0.1614
 30
0.1891
 70
192
 0
VERTEX
 8
LOFT_2
 10
0.186
 20
0.1638
 30
0.1891
 70
192
 0
VERTEX
 8
LOFT_2
 10
0.1817
 20
0.1653
 30
0.1891
 70
192
 0
VERTEX
 8
LOFT_2
 10
0.1769
 20
0.1681
 30
0.2144
 70
192
 0
VERTEX
 8
LOFT_2
 10
0.1719
 20
0.1675
 30
0.2144
 70
192
 0
VERTEX
 8
LOFT_2
 10
0.1673
 20
0.1659
 30
0.2144
 70
192
 0
VERTEX
 8
LOFT_2
 10
0.1632
 20
0.1634
 30
0.2144
 70
192
 0
VERTEX
 8
LOFT_2
 10
0.1597
 20
0.1602
 30
0.2144
 70
192
 0
VERTEX
 8
LOFT_2
 10
0.157
 20
0.1562
 30
0.2144
 70
192
 0
VERTEX
 8
LOFT_2
 10
0.1552
 20
0.1517
 30
0.2144
 70
192
 0
VERTEX
 8
LOFT_2
 10
0.1544
 20
0.1468
 30
0.2144
 70
192
 0
VERTEX
 8
LOFT_2
 10
0.1546
 20
0.1417
 30
0.2144
 70
192
 0
VERTEX
 8
LOFT_2
 10
0.156
 20
0.137
 30
0.2144
 70
192
 0
VERTEX
 8
LOFT_2
 10
0.1583
 20
0.1327
 30
0.2144
 70
192
 0
VERTEX
 8
LOFT_2
 10
0.1614
 20
0.1291
 30
0.2144
 70
192
 0
VERTEX
 8
LOFT_2
 10
0.1652
 20
0.1262
 30
0.2144
 70
192
 0
VERTEX
 8
LOFT_2
 10
0.1695
 20
0.1241
 30
0.2144
 70
192
 0
VERTEX
 8
LOFT_2
 10
0.1744
 20
0.123
 30
0.2144
 70
192
 0
VERTEX
 8
LOFT_2
 10
0.1795
 20
0.123
 30
0.2144
 70
192
 0
VERTEX
 8
LOFT_2
 10
0.1843
 20
0.1241
 30
0.2144
 70
192
 0
VERTEX
 8
LOFT_2
 10
0.1887
 20
0.1262
 30
0.2144
 70
192
 0
VERTEX
 8
LOFT_2
 10
0.1925
 20
0.1291
 30
0.2144
 70
192
 0
VERTEX
 8
LOFT_2
 10
0.1956
 20
0.1327
 30
0.2144
 70
192
 0
VERTEX
 8
LOFT_2
 10
0.1979
 20
0.137
 30
0.2144
 70
192
 0
VERTEX
 8
LOFT_2
 10
0.1992
 20
0.1417
 30
0.2144
 70
192
 0
VERTEX
 8
LOFT_2
 10
0.1995
 20
0.1468
 30
0.2144
 70
192
 0
VERTEX
 8
LOFT_2
 10
0.1987
 20
0.1517
 30
0.2144
 70
192
 0
VERTEX
 8
LOFT_2
 10
0.1968
 20
0.1562
 30
0.2144
 70
192
 0
VERTEX
 8
LOFT_2
 10
0.1941
 20
0.1602
 30
0.2144
 70
192
 0
VERTEX
 8
LOFT_2
 10
0.1907
 20
0.1634
 30
0.2144
 70
192
 0
VERTEX
 8
LOFT_2
 10
0.1866
 20
0.1659
 30
0.2144
 70
192
 0
VERTEX
 8
LOFT_2
 10
0.1819
 20
0.1675
 30
0.2144
 70
192
 0
VERTEX
 8
LOFT_2
 10
0.1769
 20
0.1704
 30
0.2396
 70
192
 0
VERTEX
 8
LOFT_2
 10
0.1716
 20
0.1698
 30
0.2396
 70
192
 0
VERTEX
 8
LOFT_2
 10
0.1668
 20
0.1681
 30
0.2396
 70
192
 0
VERTEX
 8
LOFT_2
 10
0.1625
 20
0.1655
 30
0.2396
 70
192
 0
VERTEX
 8
LOFT_2
 10
0.1588
 20
0.162
 30
0.2396
 70
192
 0
VERTEX
 8
LOFT_2
 10
0.156
 20
0.1579
 30
0.2396
 70
192
 0
VERTEX
 8
LOFT_2
 10
0.154
 20
0.1531
 30
0.2396
 70
192
 0
VERTEX
 8
LOFT_2
 10
0.1532
 20
0.1479
 30
0.2396
 70
192
 0
VERTEX
 8
LOFT_2
 10
0.1535
 20
0.1426
 30
0.2396
 70
192
 0
VERTEX
 8
LOFT_2
 10
0.1549
 20
0.1376
 30
0.2396
 70
192
 0
VERTEX
 8
LOFT_2
 10
0.1573
 20
0.1331
 30
0.2396
 70
192
 0
VERTEX
 8
LOFT_2
 10
0.1605
 20
0.1293
 30
0.2396
 70
192
 0
VERTEX
 8
LOFT_2
 10
0.1645
 20
0.1262
 30
0.2396
 70
192
 0
VERTEX
 8
LOFT_2
 10
0.1691
 20
0.1241
 30
0.2396
 70
192
 0
VERTEX
 8
LOFT_2
 10
0.1742
 20
0.1229
 30
0.2396
 70
192
 0
VERTEX
 8
LOFT_2
 10
0.1796
 20
0.1229
 30
0.2396
 70
192
 0
VERTEX
 8
LOFT_2
 10
0.1847
 20
0.1241
 30
0.2396
 70
192
 0
VERTEX
 8
LOFT_2
 10
0.1893
 20
0.1262
 30
0.2396
 70
192
 0
VERTEX
 8
LOFT_2
 10
0.1933
 20
0.1293
 30
0.2396
 70
192
 0
VERTEX
 8
LOFT_2
 10
0.1966
 20
0.1331
 30
0.2396
 70
192
 0
VERTEX
 8
LOFT_2
 10
0.199
 20
0.1376
 30
0.2396
 70
192
 0
VERTEX
 8
LOFT_2
 10
0.2004
 20
0.1426
 30
0.2396
 70
192
 0
VERTEX
 8
LOFT_2
 10
0.2007
 20
0.1479
 30
0.2396
 70
192
 0
VERTEX
 8
LOFT_2
 10
0.1998
 20
0.1531
 30
0.2396
 70
192
 0
VERTEX
 8
LOFT_2
 10
0.1979
 20
0.1579
 30
0.2396
 70
192
 0
VERTEX
 8
LOFT_2
 10
0.195
 20
0.162
 30
0.2396
 70
192
 0
VERTEX
 8
LOFT_2
 10
0.1914
 20
0.1655
 30
0.2396
 70
192
 0
VERTEX
 8
LOFT_2
 10
0.1871
 20
0.1681
 30
0.2396
 70
192
 0
VERTEX
 8
LOFT_2
 10
0.1822
 20
0.1698
 30
0.2396
 70
192
 0
VERTEX
 8
LOFT_2
 10
0.1769
 20
0.1727
 30
0.2649
 70
192
 0
VERTEX
 8
LOFT_2
 10
0.1714
 20
0.172
 30
0.2649
 70
192
 0
VERTEX
 8
LOFT_2
 10
0.1663
 20
0.1703
 30
0.2649
 70
192
 0
VERTEX
 8
LOFT_2
 10
0.1617
 20
0.1675
 30
0.2649
 70
192
 0
VERTEX
 8
LOFT_2
 10
0.1579
 20
0.1639
 30
0.2649
 70
192
 0
VERTEX
 8
LOFT_2
 10
0.1549
 20
0.1595
 30
0.2649
 70
192
 0
VERTEX
 8
LOFT_2
 10
0.1529
 20
0.1545
 30
0.2649
 70
192
 0
VERTEX
 8
LOFT_2
 10
0.152
 20
0.1491
 30
0.2649
 70
192
 0
VERTEX
 8
LOFT_2
 10
0.1523
 20
0.1435
 30
0.2649
 70
192
 0
VERTEX
 8
LOFT_2
 10
0.1538
 20
0.1382
 30
0.2649
 70
192
 0
VERTEX
 8
LOFT_2
 10
0.1563
 20
0.1335
 30
0.2649
 70
192
 0
VERTEX
 8
LOFT_2
 10
0.1597
 20
0.1295
 30
0.2649
 70
192
 0
VERTEX
 8
LOFT_2
 10
0.1639
 20
0.1263
 30
0.2649
 70
192
 0
VERTEX
 8
LOFT_2
 10
0.1688
 20
0.124
 30
0.2649
 70
192
 0
VERTEX
 8
LOFT_2
 10
0.1741
 20
0.1228
 30
0.2649
 70
192
 0
VERTEX
 8
LOFT_2
 10
0.1797
 20
0.1228
 30
0.2649
 70
192
 0
VERTEX
 8
LOFT_2
 10
0.1851
 20
0.124
 30
0.2649
 70
192
 0
VERTEX
 8
LOFT_2
 10
0.1899
 20
0.1263
 30
0.2649
 70
192
 0
VERTEX
 8
LOFT_2
 10
0.1941
 20
0.1295
 30
0.2649
 70
192
 0
VERTEX
 8
LOFT_2
 10
0.1976
 20
0.1335
 30
0.2649
 70
192
 0
VERTEX
 8
LOFT_2
 10
0.2001
 20
0.1382
 30
0.2649
 70
192
 0
VERTEX
 8
LOFT_2
 10
0.2016
 20
0.1435
 30
0.2649
 70
192
 0
VERTEX
 8
LOFT_2
 10
0.2019
 20
0.1491
 30
0.2649
 70
192
 0
VERTEX
 8
LOFT_2
 10
0.201
 20
0.1545
 30
0.2649
 70
192
 0
VERTEX
 8
LOFT_2
 10
0.199
 20
0.1595
 30
0.2649
 70
192
 0
VERTEX
 8
LOFT_2
 10
0.196
 20
0.1639
 30
0.2649
 70
192
 0
VERTEX
 8
LOFT_2
 10
0.1921
 20
0.1675
 30
0.2649
 70
192
 0
VERTEX
 8
LOFT_2
 10
0.1876
 20
0.1703
 30
0.2649
 70
192
 0
VERTEX
 8
LOFT_2
 10
0.1825
 20
0.172
 30
0.2649
 70
192
 0
VERTEX
 8
LOFT_2
 10
0
 20
0
 30
0
 70
128
 71
2
 72
31
 73
30
 74
1
 0
VERTEX
 8
LOFT_2
 10
0
 20
0
 30
0
 70
128
 71
3
 72
32
 73
31
 74
2
 0
VERTEX
 8
LOFT_2
 10
0
 20
0
 30
0
 70
128
 71
4
 72
33
 73
32
 74
3
 0
VERTEX
 8
LOFT_2
 10
0
 20
0
 30
0
 70
128
 71
5
 72
34
 73
33
 74
4
 0
VERTEX
 8
LOFT_2
 10
0
 20
0
 30
0
 70
128
 71
6
 72
35
 73
34
 74
5
 0
VERTEX
 8
LOFT_2
 10
0
 20
0
 30
0
 70
128
 71
7
 72
36
 73
35
 74
6
 0
VERTEX
 8
LOFT_2
 10
0
 20
0
 30
0
 70
128
 71
8
 72
37
 73
36
 74
7
 0
VERTEX
 8
LOFT_2
 10
0
 20
0
 30
0
 70
128
 71
9
 72
38
 73
37
 74
8
 0
VERTEX
 8
LOFT_2
 10
0
 20
0
 30
0
 70
128
 71
10
 72
39
 73
38
 74
9
 0
VERTEX
 8
LOFT_2
 10
0
 20
0
 30
0
 70
128
 71
11
 72
40
 73
39
 74
10
 0
VERTEX
 8
LOFT_2
 10
0
 20
0
 30
0
 70
128
 71
12
 72
41
 73
40
 74
11
 0
VERTEX
 8
LOFT_2
 10
0
 20
0
 30
0
 70
128
 71
13
 72
42
 73
41
 74
12
 0
VERTEX
 8
LOFT_2
 10
0
 20
0
 30
0
 70
128
 71
14
 72
43
 73
42
 74
13
 0
VERTEX
 8
LOFT_2
 10
0
 20
0
 30
0
 70
128
 71
15
 72
44
 73
43
 74
14
 0
VERTEX
 8
LOFT_2
 10
0
 20
0
 30
0
 70
128
 71
16
 72
45
 73
44
 74
15
 0
VERTEX
 8
LOFT_2
 10
0
 20
0
 30
0
 70
128
 71
17
 72
46
 73
45
 74
16
 0
VERTEX
 8
LOFT_2
 10
0
 20
0
 30
0
 70
128
 71
18
 72
47
 73
46
 74
17
 0
VERTEX
 8
LOFT_2
 10
0
 20
0
 30
0
 70
128
 71
19
 72
48
 73
47
 74
18
 0
VERTEX
 8
LOFT_2
 10
0
 20
0
 30
0
 70
128
 71
20
 72
49
 73
48
 74
19
 0
VERTEX
 8
LOFT_2
 10
0
 20
0
 30
0
 70
128
 71
21
 72
50
 73
49
 74
20
 0
VERTEX
 8
LOFT_2
 10
0
 20
0
 30
0
 70
128
 71
22
 72
51
 73
50
 74
21
 0
VERTEX
 8
LOFT_2
 10
0
 20
0
 30
0
 70
128
 71
23
 72
52
 73
51
 74
22
 0
VERTEX
 8
LOFT_2
 10
0
 20
0
 30
0
 70
128
 71
24
 72
53
 73
52
 74
23
 0
VERTEX
 8
LOFT_2
 10
0
 20
0
 30
0
 70
128
 71
25
 72
54
 73
53
 74
24
 0
VERTEX
 8
LOFT_2
 10
0
 20
0
 30
0
 70
128
 71
26
 72
55
 73
54
 74
25
 0
VERTEX
 8
LOFT_2
 10
0
 20
0
 30
0
 70
128
 71
27
 72
56
 73
55
 74
26
 0
VERTEX
 8
LOFT_2
 10
0
 20
0
 30
0
 70
128
 71
28
 72
57
 73
56
 74
27
 0
VERTEX
 8
LOFT_2
 10
0
 20
0
 30
0
 70
128
 71
29
 72
58
 73
57
 74
28
 0
VERTEX
 8
LOFT_2
 10
0
 20
0
 30
0
 70
128
 71
1
 72
30
 73
58
 74
29
 0
VERTEX
 8
LOFT_2
 10
0
 20
0
 30
0
 70
128
 71
31
 72
60
 73
59
 74
30
 0
VERTEX
 8
LOFT_2
 10
0
 20
0
 30
0
 70
128
 71
32
 72
61
 73
60
 74
31
 0
VERTEX
 8
LOFT_2
 10
0
 20
0
 30
0
 70
128
 71
33
 72
62
 73
61
 74
32
 0
VERTEX
 8
LOFT_2
 10
0
 20
0
 30
0
 70
128
 71
34
 72
63
 73
62
 74
33
 0
VERTEX
 8
LOFT_2
 10
0
 20
0
 30
0
 70
128
 71
35
 72
64
 73
63
 74
34
 0
VERTEX
 8
LOFT_2
 10
0
 20
0
 30
0
 70
128
 71
36
 72
65
 73
64
 74
35
 0
VERTEX
 8
LOFT_2
 10
0
 20
0
 30
0
 70
128
 71
37
 72
66
 73
65
 74
36
 0
VERTEX
 8
LOFT_2
 10
0
 20
0
 30
0
 70
128
 71
38
 72
67
 73
66
 74
37
 0
VERTEX
 8
LOFT_2
 10
0
 20
0
 30
0
 70
128
 71
39
 72
68
 73
67
 74
38
 0
VERTEX
 8
LOFT_2
 10
0
 20
0
 30
0
 70
128
 71
40
 72
69
 73
68
 74
39
 0
VERTEX
 8
LOFT_2
 10
0
 20
0
 30
0
 70
128
 71
41
 72
70
 73
69
 74
40
 0
VERTEX
 8
LOFT_2
 10
0
 20
0
 30
0
 70
128
 71
42
 72
71
 73
70
 74
41
 0
VERTEX
 8
LOFT_2
 10
0
 20
0
 30
0
 70
128
 71
43
 72
72
 73
71
 74
42
 0
VERTEX
 8
LOFT_2
 10
0
 20
0
 30
0
 70
128
 71
44
 72
73
 73
72
 74
43
 0
VERTEX
 8
LOFT_2
 10
0
 20
0
 30
0
 70
128
 71
45
 72
74
 73
73
 74
44
 0
VERTEX
 8
LOFT_2
 10
0
 20
0
 30
0
 70
128
 71
46
 72
75
 73
74
 74
45
 0
VERTEX
 8
LOFT_2
 10
0
 20
0
 30
0
 70
128
 71
47
 72
76
 73
75
 74
46
 0
VERTEX
 8
LOFT_2
 10
0
 20
0
 30
0
 70
128
 71
48
 72
77
 73
76
 74
47
 0
VERTEX
 8
LOFT_2
 10
0
 20
0
 30
0
 70
128
 71
49
 72
78
 73
77
 74
48
 0
VERTEX
 8
LOFT_2
 10
0
 20
0
 30
0
 70
128
 71
50
 72
79
 73
78
 74
49
 0
VERTEX
 8
LOFT_2
 10
0
 20
0
 30
0
 70
128
 71
51
 72
80
 73
79
 74
50
 0
VERTEX
 8
LOFT_2
 10
0
 20
0
 30
0
 70
128
 71
52
 72
81
 73
80
 74
51
 0
VERTEX
 8
LOFT_2
 10
0
 20
0
 30
0
 70
128
 71
53
 72
82
 73
81
 74
52
 0
VERTEX
 8
LOFT_2
 10
0
 20
0
 30
0
 70
128
 71
54
 72
83
 73
82
 74
53
 0
VERTEX
 8
LOFT_2
 10
0
 20
0
 30
0
 70
128
 71
55
 72
84
 73
83
 74
54
 0
VERTEX
 8
LOFT_2
 10
0
 20
0
 30
0
 70
128
 71
56
 72
85
 73
84
 74
55
 0
VERTEX
 8
LOFT_2
 10
0
 20
0
 30
0
 70
128
 71
57
 72
86
 73
85
 74
56
 0
VERTEX
 8
LOFT_2
 10
0
 20
0
 30
0
 70
128
 71
58
 72
87
 73
86
 74
57
 0
VERTEX
 8
LOFT_2
 10
0
 20
0
 30
0
 70
128
 71
30
 72
59
 73
87
 74
58
 0
VERTEX
 8
LOFT_2
 10
0
 20
0
 30
0
 70
128
 71
60
 72
89
 73
88
 74
59
 0
VERTEX
 8
LOFT_2
 10
0
 20
0
 30
0
 70
128
 71
61
 72
90
 73
89
 74
60
 0
VERTEX
 8
LOFT_2
 10
0
 20
0
 30
0
 70
128
 71
62
 72
91
 73
90
 74
61
 0
VERTEX
 8
LOFT_2
 10
0
 20
0
 30
0
 70
128
 71
63
 72
92
 73
91
 74
62
 0
VERTEX
 8
LOFT_2
 10
0
 20
0
 30
0
 70
128
 71
64
 72
93
 73
92
 74
63
 0
VERTEX
 8
LOFT_2
 10
0
 20
0
 30
0
 70
128
 71
65
 72
94
 73
93
 74
64
 0
VERTEX
 8
LOFT_2
 10
0
 20
0
 30
0
 70
128
 71
66
 72
95
 73
94
 74
65
 0
VERTEX
 8
LOFT_2
 10
0
 20
0
 30
0
 70
128
 71
67
 72
96
 73
95
 74
66
 0
VERTEX
 8
LOFT_2
 10
0
 20
0
 30
0
 70
128
 71
68
 72
97
 73
96
 74
67
 0
VERTEX
 8
LOFT_2
 10
0
 20
0
 30
0
 70
128
 71
69
 72
98
 73
97
 74
68
 0
VERTEX
 8
LOFT_2
 10
0
 20
0
 30
0
 70
128
 71
70
 72
99
 73
98
 74
69
 0
VERTEX
 8
LOFT_2
 10
0
 20
0
 30
0
 70
128
 71
71
 72
100
 73
99
 74
70
 0
VERTEX
 8
LOFT_2
 10
0
 20
0
 30
0
 70
128
 71
72
 72
101
 73
100
 74
71
 0
VERTEX
 8
LOFT_2
 10
0
 20
0
 30
0
 70
128
 71
73
 72
102
 73
101
 74
72
 0
VERTEX
 8
LOFT_2
 10
0
 20
0
 30
0
 70
128
 71
74
 72
103
 73
102
 74
73
 0
VERTEX
 8
LOFT_2
 10
0
 20
0
 30
0
 70
128
 71
75
 72
104
 73
103
 74
74
 0
VERTEX
 8
LOFT_2
 10
0
 20
0
 30
0
 70
128
 71
76
 72
105
 73
104
 74
75
 0
VERTEX
 8
LOFT_2
 10
0
 20
0
 30
0
 70
128
 71
77
 72
106
 73
105
 74
76
 0
VERTEX
 8
LOFT_2
 10
0
 20
0
 30
0
 70
128
 71
78
 72
107
 73
106
 74
77
 0
VERTEX
 8
LOFT_2
 10
0
 20
0
 30
0
 70
128
 71
79
 72
108
 73
107
 74
78
 0
VERTEX
 8
LOFT_2
 10
0
 20
0
 30
0
 70
128
 71
80
 72
109
 73
108
 74
79
 0
VERTEX
 8
LOFT_2
 10
0
 20
0
 30
0
 70
128
 71
81
 72
110
 73
109
 74
80
 0
VERTEX
 8
LOFT_2
 10
0
 20
0
 30
0
 70
128
 71
82
 72
111
 73
110
 74
81
 0
VERTEX
 8
LOFT_2
 10
0
 20
0
 30
0
 70
128
 71
83
 72
112
 73
111
 74
82
 0
VERTEX
 8
LOFT_2
 10
0
 20
0
 30
0
 70
128
 71
84
 72
113
 73
112
 74
83
 0
VERTEX
 8
LOFT_2
 10
0
 20
0
 30
0
 70
128
 71
85
 72
114
 73
113
 74
84
 0
VERTEX
 8
LOFT_2
 10
0
 20
0
 30
0
 70
128
 71
86
 72
115
 73
114
 74
85
 0
VERTEX
 8
LOFT_2
 10
0
 20
0
 30
0
 70
128
 71
87
 72
116
 73
115
 74
86
 0
VERTEX
 8
LOFT_2
 10
0
 20
0
 30
0
 70
128
 71
59
 72
88
 73
116
 74
87
 0
VERTEX
 8
LOFT_2
 10
0
 20
0
 30
0
 70
128
 71
89
 72
118
 73
117
 74
88
 0
VERTEX
 8
LOFT_2
 10
0
 20
0
 30
0
 70
128
 71
90
 72
119
 73
118
 74
89
 0
VERTEX
 8
LOFT_2
 10
0
 20
0
 30
0
 70
128
 71
91
 72
120
 73
119
 74
90
 0
VERTEX
 8
LOFT_2
 10
0
 20
0
 30
0
 70
128
 71
92
 72
121
 73
120
 74
91
 0
VERTEX
 8
LOFT_2
 10
0
 20
0
 30
0
 70
128
 71
93
 72
122
 73
121
 74
92
 0
VERTEX
 8
LOFT_2
 10
0
 20
0
 30
0
 70
128
 71
94
 72
123
 73
122
 74
93
 0
VERTEX
 8
LOFT_2
 10
0
 20
0
 30
0
 70
128
 71
95
 72
124
 73
123
 74
94
 0
VERTEX
 8
LOFT_2
 10
0
 20
0
 30
0
 70
128
 71
96
 72
125
 73
124
 74
95
 0
VERTEX
 8
LOFT_2
 10
0
 20
0
 30
0
 70
128
 71
97
 72
126
 73
125
 74
96
 0
VERTEX
 8
LOFT_2
 10
0
 20
0
 30
0
 70
128
 71
98
 72
127
 73
126
 74
97
 0
VERTEX
 8
LOFT_2
 10
0
 20
0
 30
0
 70
128
 71
99
 72
128
 73
127
 74
98
 0
VERTEX
 8
LOFT_2
 10
0
 20
0
 30
0
 70
128
 71
100
 72
129
 73
128
 74
99
 0
VERTEX
 8
LOFT_2
 10
0
 20
0
 30
0
 70
128
 71
101
 72
130
 73
129
 74
100
 0
VERTEX
 8
LOFT_2
 10
0
 20
0
 30
0
 70
128
 71
102
 72
131
 73
130
 74
101
 0
VERTEX
 8
LOFT_2
 10
0
 20
0
 30
0
 70
128
 71
103
 72
132
 73
131
 74
102
 0
VERTEX
 8
LOFT_2
 10
0
 20
0
 30
0
 70
128
 71
104
 72
133
 73
132
 74
103
 0
VERTEX
 8
LOFT_2
 10
0
 20
0
 30
0
 70
128
 71
105
 72
134
 73
133
 74
104
 0
VERTEX
 8
LOFT_2
 10
0
 20
0
 30
0
 70
128
 71
106
 72
135
 73
134
 74
105
 0
VERTEX
 8
LOFT_2
 10
0
 20
0
 30
0
 70
128
 71
107
 72
136
 73
135
 74
106
 0
VERTEX
 8
LOFT_2
 10
0
 20
0
 30
0
 70
128
 71
108
 72
137
 73
136
 74
107
 0
VERTEX
 8
LOFT_2
 10
0
 20
0
 30
0
 70
128
 71
109
 72
138
 73
137
 74
108
 0
VERTEX
 8
LOFT_2
 10
0
 20
0
 30
0
 70
128
 71
110
 72
139
 73
138
 74
109
 0
VERTEX
 8
LOFT_2
 10
0
 20
0
 30
0
 70
128
 71
111
 72
140
 73
139
 74
110
 0
VERTEX
 8
LOFT_2
 10
0
 20
0
 30
0
 70
128
 71
112
 72
141
 73
140
 74
111
 0
VERTEX
 8
LOFT_2
 10
0
 20
0
 30
0
 70
128
 71
113
 72
142
 73
141
 74
112
 0
VERTEX
 8
LOFT_2
 10
0
 20
0
 30
0
 70
128
 71
114
 72
143
 73
142
 74
113
 0
VERTEX
 8
LOFT_2
 10
0
 20
0
 30
0
 70
128
 71
115
 72
144
 73
143
 74
114
 0
VERTEX
 8
LOFT_2
 10
0
 20
0
 30
0
 70
128
 71
116
 72
145
 73
144
 74
115
 0
VERTEX
 8
LOFT_2
 10
0
 20
0
 30
0
 70
128
 71
88
 72
117
 73
145
 74
116
 0
VERTEX
 8
LOFT_2
 10
0
 20
0
 30
0
 70
128
 71
118
 72
147
 73
146
 74
117
 0
VERTEX
 8
LOFT_2
 10
0
 20
0
 30
0
 70
128
 71
119
 72
148
 73
147
 74
118
 0
VERTEX
 8
LOFT_2
 10
0
 20
0
 30
0
 70
128
 71
120
 72
149
 73
148
 74
119
 0
VERTEX
 8
LOFT_2
 10
0
 20
0
 30
0
 70
128
 71
121
 72
150
 73
149
 74
120
 0
VERTEX
 8
LOFT_2
 10
0
 20
0
 30
0
 70
128
 71
122
 72
151
 73
150
 74
121
 0
VERTEX
 8
LOFT_2
 10
0
 20
0
 30
0
 70
128
 71
123
 72
152
 73
151
 74
122
 0
VERTEX
 8
LOFT_2
 10
0
 20
0
 30
0
 70
128
 71
124
 72
153
 73
152
 74
123
 0
VERTEX
 8
LOFT_2
 10
0
 20
0
 30
0
 70
128
 71
125
 72
154
 73
153
 74
124
 0
VERTEX
 8
LOFT_2
 10
0
 20
0
 30
0
 70
128
 71
126
 72
155
 73
154
 74
125
 0
VERTEX
 8
LOFT_2
 10
0
 20
0
 30
0
 70
128
 71
127
 72
156
 73
155
 74
126
 0
VERTEX
 8
LOFT_2
 10
0
 20
0
 30
0
 70
128
 71
128
 72
157
 73
156
 74
127
 0
VERTEX
 8
LOFT_2
 10
0
 20
0
 30
0
 70
128
 71
129
 72
158
 73
157
 74
128
 0
VERTEX
 8
LOFT_2
 10
0
 20
0
 30
0
 70
128
 71
130
 72
159
 73
158
 74
129
 0
VERTEX
 8
LOFT_2
 10
0
 20
0
 30
0
 70
128
 71
131
 72
160
 73
159
 74
130
 0
VERTEX
 8
LOFT_2
 10
0
 20
0
 30
0
 70
128
 71
132
 72
161
 73
160
 74
131
 0
VERTEX
 8
LOFT_2
 10
0
 20
0
 30
0
 70
128
 71
133
 72
162
 73
161
 74
132
 0
VERTEX
 8
LOFT_2
 10
0
 20
0
 30
0
 70
128
 71
134
 72
163
 73
162
 74
133
 0
VERTEX
 8
LOFT_2
 10
0
 20
0
 30
0
 70
128
 71
135
 72
164
 73
163
 74
134
 0
VERTEX
 8
LOFT_2
 10
0
 20
0
 30
0
 70
128
 71
136
 72
165
 73
164
 74
135
 0
VERTEX
 8
LOFT_2
 10
0
 20
0
 30
0
 70
128
 71
137
 72
166
 73
165
 74
136
 0
VERTEX
 8
LOFT_2
 10
0
 20
0
 30
0
 70
128
 71
138
 72
167
 73
166
 74
137
 0
VERTEX
 8
LOFT_2
 10
0
 20
0
 30
0
 70
128
 71
139
 72
168
 73
167
 74
138
 0
VERTEX
 8
LOFT_2
 10
0
 20
0
 30
0
 70
128
 71
140
 72
169
 73
168
 74
139
 0
VERTEX
 8
LOFT_2
 10
0
 20
0
 30
0
 70
128
 71
141
 72
170
 73
169
 74
140
 0
VERTEX
 8
LOFT_2
 10
0
 20
0
 30
0
 70
128
 71
142
 72
171
 73
170
 74
141
 0
VERTEX
 8
LOFT_2
 10
0
 20
0
 30
0
 70
128
 71
143
 72
172
 73
171
 74
142
 0
VERTEX
 8
LOFT_2
 10
0
 20
0
 30
0
 70
128
 71
144
 72
173
 73
172
 74
143
 0
VERTEX
 8
LOFT_2
 10
0
 20
0
 30
0
 70
128
 71
145
 72
174
 73
173
 74
144
 0
VERTEX
 8
LOFT_2
 10
0
 20
0
 30
0
 70
128
 71
117
 72
146
 73
174
 74
145
 0
VERTEX
 8
LOFT_2
 10
0
 20
0
 30
0
 70
128
 71
147
 72
176
 73
175
 74
146
 0
VERTEX
 8
LOFT_2
 10
0
 20
0
 30
0
 70
128
 71
148
 72
177
 73
176
 74
147
 0
VERTEX
 8
LOFT_2
 10
0
 20
0
 30
0
 70
128
 71
149
 72
178
 73
177
 74
148
 0
VERTEX
 8
LOFT_2
 10
0
 20
0
 30
0
 70
128
 71
150
 72
179
 73
178
 74
149
 0
VERTEX
 8
LOFT_2
 10
0
 20
0
 30
0
 70
128
 71
151
 72
180
 73
179
 74
150
 0
VERTEX
 8
LOFT_2
 10
0
 20
0
 30
0
 70
128
 71
152
 72
181
 73
180
 74
151
 0
VERTEX
 8
LOFT_2
 10
0
 20
0
 30
0
 70
128
 71
153
 72
182
 73
181
 74
152
 0
VERTEX
 8
LOFT_2
 10
0
 20
0
 30
0
 70
128
 71
154
 72
183
 73
182
 74
153
 0
VERTEX
 8
LOFT_2
 10
0
 20
0
 30
0
 70
128
 71
155
 72
184
 73
183
 74
154
 0
VERTEX
 8
LOFT_2
 10
0
 20
0
 30
0
 70
128
 71
156
 72
185
 73
184
 74
155
 0
VERTEX
 8
LOFT_2
 10
0
 20
0
 30
0
 70
128
 71
157
 72
186
 73
185
 74
156
 0
VERTEX
 8
LOFT_2
 10
0
 20
0
 30
0
 70
128
 71
158
 72
187
 73
186
 74
157
 0
VERTEX
 8
LOFT_2
 10
0
 20
0
 30
0
 70
128
 71
159
 72
188
 73
187
 74
158
 0
VERTEX
 8
LOFT_2
 10
0
 20
0
 30
0
 70
128
 71
160
 72
189
 73
188
 74
159
 0
VERTEX
 8
LOFT_2
 10
0
 20
0
 30
0
 70
128
 71
161
 72
190
 73
189
 74
160
 0
VERTEX
 8
LOFT_2
 10
0
 20
0
 30
0
 70
128
 71
162
 72
191
 73
190
 74
161
 0
VERTEX
 8
LOFT_2
 10
0
 20
0
 30
0
 70
128
 71
163
 72
192
 73
191
 74
162
 0
VERTEX
 8
LOFT_2
 10
0
 20
0
 30
0
 70
128
 71
164
 72
193
 73
192
 74
163
 0
VERTEX
 8
LOFT_2
 10
0
 20
0
 30
0
 70
128
 71
165
 72
194
 73
193
 74
164
 0
VERTEX
 8
LOFT_2
 10
0
 20
0
 30
0
 70
128
 71
166
 72
195
 73
194
 74
165
 0
VERTEX
 8
LOFT_2
 10
0
 20
0
 30
0
 70
128
 71
167
 72
196
 73
195
 74
166
 0
VERTEX
 8
LOFT_2
 10
0
 20
0
 30
0
 70
128
 71
168
 72
197
 73
196
 74
167
 0
VERTEX
 8
LOFT_2
 10
0
 20
0
 30
0
 70
128
 71
169
 72
198
 73
197
 74
168
 0
VERTEX
 8
LOFT_2
 10
0
 20
0
 30
0
 70
128
 71
170
 72
199
 73
198
 74
169
 0
VERTEX
 8
LOFT_2
 10
0
 20
0
 30
0
 70
128
 71
171
 72
200
 73
199
 74
170
 0
VERTEX
 8
LOFT_2
 10
0
 20
0
 30
0
 70
128
 71
172
 72
201
 73
200
 74
171
 0
VERTEX
 8
LOFT_2
 10
0
 20
0
 30
0
 70
128
 71
173
 72
202
 73
201
 74
172
 0
VERTEX
 8
LOFT_2
 10
0
 20
0
 30
0
 70
128
 71
174
 72
203
 73
202
 74
173
 0
VERTEX
 8
LOFT_2
 10
0
 20
0
 30
0
 70
128
 71
146
 72
175
 73
203
 74
174
 0
VERTEX
 8
LOFT_2
 10
0
 20
0
 30
0
 70
128
 71
176
 72
205
 73
204
 74
175
 0
VERTEX
 8
LOFT_2
 10
0
 20
0
 30
0
 70
128
 71
177
 72
206
 73
205
 74
176
 0
VERTEX
 8
LOFT_2
 10
0
 20
0
 30
0
 70
128
 71
178
 72
207
 73
206
 74
177
 0
VERTEX
 8
LOFT_2
 10
0
 20
0
 30
0
 70
128
 71
179
 72
208
 73
207
 74
178
 0
VERTEX
 8
LOFT_2
 10
0
 20
0
 30
0
 70
128
 71
180
 72
209
 73
208
 74
179
 0
VERTEX
 8
LOFT_2
 10
0
 20
0
 30
0
 70
128
 71
181
 72
210
 73
209
 74
180
 0
VERTEX
 8
LOFT_2
 10
0
 20
0
 30
0
 70
128
 71
182
 72
211
 73
210
 74
181
 0
VERTEX
 8
LOFT_2
 10
0
 20
0
 30
0
 70
128
 71
183
 72
212
 73
211
 74
182
 0
VERTEX
 8
LOFT_2
 10
0
 20
0
 30
0
 70
128
 71
184
 72
213
 73
212
 74
183
 0
VERTEX
 8
LOFT_2
 10
0
 20
0
 30
0
 70
128
 71
185
 72
214
 73
213
 74
184
 0
VERTEX
 8
LOFT_2
 10
0
 20
0
 30
0
 70
128
 71
186
 72
215
 73
214
 74
185
 0
VERTEX
 8
LOFT_2
 10
0
 20
0
 30
0
 70
128
 71
187
 72
216
 73
215
 74
186
 0
VERTEX
 8
LOFT_2
 10
0
 20
0
 30
0
 70
128
 71
188
 72
217
 73
216
 74
187
 0
VERTEX
 8
LOFT_2
 10
0
 20
0
 30
0
 70
128
 71
189
 72
218
 73
217
 74
188
 0
VERTEX
 8
LOFT_2
 10
0
 20
0
 30
0
 70
128
 71
190
 72
219
 73
218
 74
189
 0
VERTEX
 8
LOFT_2
 10
0
 20
0
 30
0
 70
128
 71
191
 72
220
 73
219
 74
190
 0
VERTEX
 8
LOFT_2
 10
0
 20
0
 30
0
 70
128
 71
192
 72
221
 73
220
 74
191
 0
VERTEX
 8
LOFT_2
 10
0
 20
0
 30
0
 70
128
 71
193
 72
222
 73
221
 74
192
 0
VERTEX
 8
LOFT_2
 10
0
 20
0
 30
0
 70
128
 71
194
 72
223
 73
222
 74
193
 0
VERTEX
 8
LOFT_2
 10
0
 20
0
 30
0
 70
128
 71
195
 72
224
 73
223
 74
194
 0
VERTEX
 8
LOFT_2
 10
0
 20
0
 30
0
 70
128
 71
196
 72
225
 73
224
 74
195
 0
VERTEX
 8
LOFT_2
 10
0
 20
0
 30
0
 70
128
 71
197
 72
226
 73
225
 74
196
 0
VERTEX
 8
LOFT_2
 10
0
 20
0
 30
0
 70
128
 71
198
 72
227
 73
226
 74
197
 0
VERTEX
 8
LOFT_2
 10
0
 20
0
 30
0
 70
128
 71
199
 72
228
 73
227
 74
198
 0
VERTEX
 8
LOFT_2
 10
0
 20
0
 30
0
 70
128
 71
200
 72
229
 73
228
 74
199
 0
VERTEX
 8
LOFT_2
 10
0
 20
0
 30
0
 70
128
 71
201
 72
230
 73
229
 74
200
 0
VERTEX
 8
LOFT_2
 10
0
 20
0
 30
0
 70
128
 71
202
 72
231
 73
230
 74
201
 0
VERTEX
 8
LOFT_2
 10
0
 20
0
 30
0
 70
128
 71
203
 72
232
 73
231
 74
202
 0
VERTEX
 8
LOFT_2
 10
0
 20
0
 30
0
 70
128
 71
175
 72
204
 73
232
 74
203
 0
VERTEX
 8
LOFT_2
 10
0
 20
0
 30
0
 70
128
 71
205
 72
234
 73
233
 74
204
 0
VERTEX
 8
LOFT_2
 10
0
 20
0
 30
0
 70
128
 71
206
 72
235
 73
234
 74
205
 0
VERTEX
 8
LOFT_2
 10
0
 20
0
 30
0
 70
128
 71
207
 72
236
 73
235
 74
206
 0
VERTEX
 8
LOFT_2
 10
0
 20
0
 30
0
 70
128
 71
208
 72
237
 73
236
 74
207
 0
VERTEX
 8
LOFT_2
 10
0
 20
0
 30
0
 70
128
 71
209
 72
238
 73
237
 74
208
 0
VERTEX
 8
LOFT_2
 10
0
 20
0
 30
0
 70
128
 71
210
 72
239
 73
238
 74
209
 0
VERTEX
 8
LOFT_2
 10
0
 20
0
 30
0
 70
128
 71
211
 72
240
 73
239
 74
210
 0
VERTEX
 8
LOFT_2
 10
0
 20
0
 30
0
 70
128
 71
212
 72
241
 73
240
 74
211
 0
VERTEX
 8
LOFT_2
 10
0
 20
0
 30
0
 70
128
 71
213
 72
242
 73
241
 74
212
 0
VERTEX
 8
LOFT_2
 10
0
 20
0
 30
0
 70
128
 71
214
 72
243
 73
242
 74
213
 0
VERTEX
 8
LOFT_2
 10
0
 20
0
 30
0
 70
128
 71
215
 72
244
 73
243
 74
214
 0
VERTEX
 8
LOFT_2
 10
0
 20
0
 30
0
 70
128
 71
216
 72
245
 73
244
 74
215
 0
VERTEX
 8
LOFT_2
 10
0
 20
0
 30
0
 70
128
 71
217
 72
246
 73
245
 74
216
 0
VERTEX
 8
LOFT_2
 10
0
 20
0
 30
0
 70
128
 71
218
 72
247
 73
246
 74
217
 0
VERTEX
 8
LOFT_2
 10
0
 20
0
 30
0
 70
128
 71
219
 72
248
 73
247
 74
218
 0
VERTEX
 8
LOFT_2
 10
0
 20
0
 30
0
 70
128
 71
220
 72
249
 73
248
 74
219
 0
VERTEX
 8
LOFT_2
 10
0
 20
0
 30
0
 70
128
 71
221
 72
250
 73
249
 74
220
 0
VERTEX
 8
LOFT_2
 10
0
 20
0
 30
0
 70
128
 71
222
 72
251
 73
250
 74
221
 0
VERTEX
 8
LOFT_2
 10
0
 20
0
 30
0
 70
128
 71
223
 72
252
 73
251
 74
222
 0
VERTEX
 8
LOFT_2
 10
0
 20
0
 30
0
 70
128
 71
224
 72
253
 73
252
 74
223
 0
VERTEX
 8
LOFT_2
 10
0
 20
0
 30
0
 70
128
 71
225
 72
254
 73
253
 74
224
 0
VERTEX
 8
LOFT_2
 10
0
 20
0
 30
0
 70
128
 71
226
 72
255
 73
254
 74
225
 0
VERTEX
 8
LOFT_2
 10
0
 20
0
 30
0
 70
128
 71
227
 72
256
 73
255
 74
226
 0
VERTEX
 8
LOFT_2
 10
0
 20
0
 30
0
 70
128
 71
228
 72
257
 73
256
 74
227
 0
VERTEX
 8
LOFT_2
 10
0
 20
0
 30
0
 70
128
 71
229
 72
258
 73
257
 74
228
 0
VERTEX
 8
LOFT_2
 10
0
 20
0
 30
0
 70
128
 71
230
 72
259
 73
258
 74
229
 0
VERTEX
 8
LOFT_2
 10
0
 20
0
 30
0
 70
128
 71
231
 72
260
 73
259
 74
230
 0
VERTEX
 8
LOFT_2
 10
0
 20
0
 30
0
 70
128
 71
232
 72
261
 73
260
 74
231
 0
VERTEX
 8
LOFT_2
 10
0
 20
0
 30
0
 70
128
 71
204
 72
233
 73
261
 74
232
 0
VERTEX
 8
LOFT_2
 10
0
 20
0
 30
0
 70
128
 71
234
 72
263
 73
262
 74
233
 0
VERTEX
 8
LOFT_2
 10
0
 20
0
 30
0
 70
128
 71
235
 72
264
 73
263
 74
234
 0
VERTEX
 8
LOFT_2
 10
0
 20
0
 30
0
 70
128
 71
236
 72
265
 73
264
 74
235
 0
VERTEX
 8
LOFT_2
 10
0
 20
0
 30
0
 70
128
 71
237
 72
266
 73
265
 74
236
 0
VERTEX
 8
LOFT_2
 10
0
 20
0
 30
0
 70
128
 71
238
 72
267
 73
266
 74
237
 0
VERTEX
 8
LOFT_2
 10
0
 20
0
 30
0
 70
128
 71
239
 72
268
 73
267
 74
238
 0
VERTEX
 8
LOFT_2
 10
0
 20
0
 30
0
 70
128
 71
240
 72
269
 73
268
 74
239
 0
VERTEX
 8
LOFT_2
 10
0
 20
0
 30
0
 70
128
 71
241
 72
270
 73
269
 74
240
 0
VERTEX
 8
LOFT_2
 10
0
 20
0
 30
0
 70
128
 71
242
 72
271
 73
270
 74
241
 0
VERTEX
 8
LOFT_2
 10
0
 20
0
 30
0
 70
128
 71
243
 72
272
 73
271
 74
242
 0
VERTEX
 8
LOFT_2
 10
0
 20
0
 30
0
 70
128
 71
244
 72
273
 73
272
 74
243
 0
VERTEX
 8
LOFT_2
 10
0
 20
0
 30
0
 70
128
 71
245
 72
274
 73
273
 74
244
 0
VERTEX
 8
LOFT_2
 10
0
 20
0
 30
0
 70
128
 71
246
 72
275
 73
274
 74
245
 0
VERTEX
 8
LOFT_2
 10
0
 20
0
 30
0
 70
128
 71
247
 72
276
 73
275
 74
246
 0
VERTEX
 8
LOFT_2
 10
0
 20
0
 30
0
 70
128
 71
248
 72
277
 73
276
 74
247
 0
VERTEX
 8
LOFT_2
 10
0
 20
0
 30
0
 70
128
 71
249
 72
278
 73
277
 74
248
 0
VERTEX
 8
LOFT_2
 10
0
 20
0
 30
0
 70
128
 71
250
 72
279
 73
278
 74
249
 0
VERTEX
 8
LOFT_2
 10
0
 20
0
 30
0
 70
128
 71
251
 72
280
 73
279
 74
250
 0
VERTEX
 8
LOFT_2
 10
0
 20
0
 30
0
 70
128
 71
252
 72
281
 73
280
 74
251
 0
VERTEX
 8
LOFT_2
 10
0
 20
0
 30
0
 70
128
 71
253
 72
282
 73
281
 74
252
 0
VERTEX
 8
LOFT_2
 10
0
 20
0
 30
0
 70
128
 71
254
 72
283
 73
282
 74
253
 0
VERTEX
 8
LOFT_2
 10
0
 20
0
 30
0
 70
128
 71
255
 72
284
 73
283
 74
254
 0
VERTEX
 8
LOFT_2
 10
0
 20
0
 30
0
 70
128
 71
256
 72
285
 73
284
 74
255
 0
VERTEX
 8
LOFT_2
 10
0
 20
0
 30
0
 70
128
 71
257
 72
286
 73
285
 74
256
 0
VERTEX
 8
LOFT_2
 10
0
 20
0
 30
0
 70
128
 71
258
 72
287
 73
286
 74
257
 0
VERTEX
 8
LOFT_2
 10
0
 20
0
 30
0
 70
128
 71
259
 72
288
 73
287
 74
258
 0
VERTEX
 8
LOFT_2
 10
0
 20
0
 30
0
 70
128
 71
260
 72
289
 73
288
 74
259
 0
VERTEX
 8
LOFT_2
 10
0
 20
0
 30
0
 70
128
 71
261
 72
290
 73
289
 74
260
 0
VERTEX
 8
LOFT_2
 10
0
 20
0
 30
0
 70
128
 71
233
 72
262
 73
290
 74
261
 0
VERTEX
 8
LOFT_2
 10
0
 20
0
 30
0
 70
128
 71
263
 72
292
 73
291
 74
262
 0
VERTEX
 8
LOFT_2
 10
0
 20
0
 30
0
 70
128
 71
264
 72
293
 73
292
 74
263
 0
VERTEX
 8
LOFT_2
 10
0
 20
0
 30
0
 70
128
 71
265
 72
294
 73
293
 74
264
 0
VERTEX
 8
LOFT_2
 10
0
 20
0
 30
0
 70
128
 71
266
 72
295
 73
294
 74
265
 0
VERTEX
 8
LOFT_2
 10
0
 20
0
 30
0
 70
128
 71
267
 72
296
 73
295
 74
266
 0
VERTEX
 8
LOFT_2
 10
0
 20
0
 30
0
 70
128
 71
268
 72
297
 73
296
 74
267
 0
VERTEX
 8
LOFT_2
 10
0
 20
0
 30
0
 70
128
 71
269
 72
298
 73
297
 74
268
 0
VERTEX
 8
LOFT_2
 10
0
 20
0
 30
0
 70
128
 71
270
 72
299
 73
298
 74
269
 0
VERTEX
 8
LOFT_2
 10
0
 20
0
 30
0
 70
128
 71
271
 72
300
 73
299
 74
270
 0
VERTEX
 8
LOFT_2
 10
0
 20
0
 30
0
 70
128
 71
272
 72
301
 73
300
 74
271
 0
VERTEX
 8
LOFT_2
 10
0
 20
0
 30
0
 70
128
 71
273
 72
302
 73
301
 74
272
 0
VERTEX
 8
LOFT_2
 10
0
 20
0
 30
0
 70
128
 71
274
 72
303
 73
302
 74
273
 0
VERTEX
 8
LOFT_2
 10
0
 20
0
 30
0
 70
128
 71
275
 72
304
 73
303
 74
274
 0
VERTEX
 8
LOFT_2
 10
0
 20
0
 30
0
 70
128
 71
276
 72
305
 73
304
 74
275
 0
VERTEX
 8
LOFT_2
 10
0
 20
0
 30
0
 70
128
 71
277
 72
306
 73
305
 74
276
 0
VERTEX
 8
LOFT_2
 10
0
 20
0
 30
0
 70
128
 71
278
 72
307
 73
306
 74
277
 0
VERTEX
 8
LOFT_2
 10
0
 20
0
 30
0
 70
128
 71
279
 72
308
 73
307
 74
278
 0
VERTEX
 8
LOFT_2
 10
0
 20
0
 30
0
 70
128
 71
280
 72
309
 73
308
 74
279
 0
VERTEX
 8
LOFT_2
 10
0
 20
0
 30
0
 70
128
 71
281
 72
310
 73
309
 74
280
 0
VERTEX
 8
LOFT_2
 10
0
 20
0
 30
0
 70
128
 71
282
 72
311
 73
310
 74
281
 0
VERTEX
 8
LOFT_2
 10
0
 20
0
 30
0
 70
128
 71
283
 72
312
 73
311
 74
282
 0
VERTEX
 8
LOFT_2
 10
0
 20
0
 30
0
 70
128
 71
284
 72
313
 73
312
 74
283
 0
VERTEX
 8
LOFT_2
 10
0
 20
0
 30
0
 70
128
 71
285
 72
314
 73
313
 74
284
 0
VERTEX
 8
LOFT_2
 10
0
 20
0
 30
0
 70
128
 71
286
 72
315
 73
314
 74
285
 0
VERTEX
 8
LOFT_2
 10
0
 20
0
 30
0
 70
128
 71
287
 72
316
 73
315
 74
286
 0
VERTEX
 8
LOFT_2
 10
0
 20
0
 30
0
 70
128
 71
288
 72
317
 73
316
 74
287
 0
VERTEX
 8
LOFT_2
 10
0
 20
0
 30
0
 70
128
 71
289
 72
318
 73
317
 74
288
 0
VERTEX
 8
LOFT_2
 10
0
 20
0
 30
0
 70
128
 71
290
 72
319
 73
318
 74
289
 0
VERTEX
 8
LOFT_2
 10
0
 20
0
 30
0
 70
128
 71
262
 72
291
 73
319
 74
290
 0
SEQEND
 0
POLYLINE
 8
TAPA_1_1
 66
1
 10
0.0
 20
0.0
 30
0.0
 70
64
 71
29
 72
27
 0
VERTEX
 8
TAPA_1_1
 10
0.1769
 20
0.1498
 30
0.0124
 70
192
 0
VERTEX
 8
TAPA_1_1
 10
0.174
 20
0.1494
 30
0.0124
 70
192
 0
VERTEX
 8
TAPA_1_1
 10
0.1714
 20
0.1485
 30
0.0124
 70
192
 0
VERTEX
 8
TAPA_1_1
 10
0.169
 20
0.1471
 30
0.0124
 70
192
 0
VERTEX
 8
TAPA_1_1
 10
0.167
 20
0.1452
 30
0.0124
 70
192
 0
VERTEX
 8
TAPA_1_1
 10
0.1655
 20
0.1429
 30
0.0124
 70
192
 0
VERTEX
 8
TAPA_1_1
 10
0.1644
 20
0.1403
 30
0.0124
 70
192
 0
VERTEX
 8
TAPA_1_1
 10
0.1639
 20
0.1375
 30
0.0124
 70
192
 0
VERTEX
 8
TAPA_1_1
 10
0.1641
 20
0.1346
 30
0.0124
 70
192
 0
VERTEX
 8
TAPA_1_1
 10
0.1649
 20
0.1319
 30
0.0124
 70
192
 0
VERTEX
 8
TAPA_1_1
 10
0.1662
 20
0.1294
 30
0.0124
 70
192
 0
VERTEX
 8
TAPA_1_1
 10
0.168
 20
0.1273
 30
0.0124
 70
192
 0
VERTEX
 8
TAPA_1_1
 10
0.1702
 20
0.1256
 30
0.0124
 70
192
 0
VERTEX
 8
TAPA_1_1
 10
0.1727
 20
0.1245
 30
0.0124
 70
192
 0
VERTEX
 8
TAPA_1_1
 10
0.1755
 20
0.1238
 30
0.0124
 70
192
 0
VERTEX
 8
TAPA_1_1
 10
0.1784
 20
0.1238
 30
0.0124
 70
192
 0
VERTEX
 8
TAPA_1_1
 10
0.1812
 20
0.1245
 30
0.0124
 70
192
 0
VERTEX
 8
TAPA_1_1
 10
0.1837
 20
0.1256
 30
0.0124
 70
192
 0
VERTEX
 8
TAPA_1_1
 10
0.1859
 20
0.1273
 30
0.0124
 70
192
 0
VERTEX
 8
TAPA_1_1
 10
0.1877
 20
0.1294
 30
0.0124
 70
192
 0
VERTEX
 8
TAPA_1_1
 10
0.189
 20
0.1319
 30
0.0124
 70
192
 0
VERTEX
 8
TAPA_1_1
 10
0.1897
 20
0.1346
 30
0.0124
 70
192
 0
VERTEX
 8
TAPA_1_1
 10
0.1899
 20
0.1375
 30
0.0124
 70
192
 0
VERTEX
 8
TAPA_1_1
 10
0.1894
 20
0.1403
 30
0.0124
 70
192
 0
VERTEX
 8
TAPA_1_1
 10
0.1884
 20
0.1429
 30
0.0124
 70
192
 0
VERTEX
 8
TAPA_1_1
 10
0.1868
 20
0.1452
 30
0.0124
 70
192
 0
VERTEX
 8
TAPA_1_1
 10
0.1848
 20
0.1471
 30
0.0124
 70
192
 0
VERTEX
 8
TAPA_1_1
 10
0.1825
 20
0.1485
 30
0.0124
 70
192
 0
VERTEX
 8
TAPA_1_1
 10
0.1798
 20
0.1494
 30
0.0124
 70
192
 0
VERTEX
 8
TAPA_1_1
 10
0
 20
0
 30
0
 70
128
 71
1
 72
2
 73
4
 74
4
 0
VERTEX
 8
TAPA_1_1
 10
0
 20
0
 30
0
 70
128
 71
1
 72
4
 73
5
 74
5
 0
VERTEX
 8
TAPA_1_1
 10
0
 20
0
 30
0
 70
128
 71
1
 72
5
 73
8
 74
8
 0
VERTEX
 8
TAPA_1_1
 10
0
 20
0
 30
0
 70
128
 71
1
 72
8
 73
23
 74
23
 0
VERTEX
 8
TAPA_1_1
 10
0
 20
0
 30
0
 70
128
 71
1
 72
23
 73
26
 74
26
 0
VERTEX
 8
TAPA_1_1
 10
0
 20
0
 30
0
 70
128
 71
1
 72
26
 73
27
 74
27
 0
VERTEX
 8
TAPA_1_1
 10
0
 20
0
 30
0
 70
128
 71
1
 72
27
 73
29
 74
29
 0
VERTEX
 8
TAPA_1_1
 10
0
 20
0
 30
0
 70
128
 71
2
 72
3
 73
4
 74
4
 0
VERTEX
 8
TAPA_1_1
 10
0
 20
0
 30
0
 70
128
 71
5
 72
6
 73
8
 74
8
 0
VERTEX
 8
TAPA_1_1
 10
0
 20
0
 30
0
 70
128
 71
6
 72
7
 73
8
 74
8
 0
VERTEX
 8
TAPA_1_1
 10
0
 20
0
 30
0
 70
128
 71
8
 72
9
 73
15
 74
15
 0
VERTEX
 8
TAPA_1_1
 10
0
 20
0
 30
0
 70
128
 71
8
 72
15
 73
23
 74
23
 0
VERTEX
 8
TAPA_1_1
 10
0
 20
0
 30
0
 70
128
 71
9
 72
10
 73
11
 74
11
 0
VERTEX
 8
TAPA_1_1
 10
0
 20
0
 30
0
 70
128
 71
9
 72
11
 73
12
 74
12
 0
VERTEX
 8
TAPA_1_1
 10
0
 20
0
 30
0
 70
128
 71
9
 72
12
 73
15
 74
15
 0
VERTEX
 8
TAPA_1_1
 10
0
 20
0
 30
0
 70
128
 71
12
 72
13
 73
15
 74
15
 0
VERTEX
 8
TAPA_1_1
 10
0
 20
0
 30
0
 70
128
 71
13
 72
14
 73
15
 74
15
 0
VERTEX
 8
TAPA_1_1
 10
0
 20
0
 30
0
 70
128
 71
15
 72
16
 73
23
 74
23
 0
VERTEX
 8
TAPA_1_1
 10
0
 20
0
 30
0
 70
128
 71
16
 72
17
 73
18
 74
18
 0
VERTEX
 8
TAPA_1_1
 10
0
 20
0
 30
0
 70
128
 71
16
 72
18
 73
19
 74
19
 0
VERTEX
 8
TAPA_1_1
 10
0
 20
0
 30
0
 70
128
 71
16
 72
19
 73
22
 74
22
 0
VERTEX
 8
TAPA_1_1
 10
0
 20
0
 30
0
 70
128
 71
16
 72
22
 73
23
 74
23
 0
VERTEX
 8
TAPA_1_1
 10
0
 20
0
 30
0
 70
128
 71
19
 72
20
 73
22
 74
22
 0
VERTEX
 8
TAPA_1_1
 10
0
 20
0
 30
0
 70
128
 71
20
 72
21
 73
22
 74
22
 0
VERTEX
 8
TAPA_1_1
 10
0
 20
0
 30
0
 70
128
 71
23
 72
24
 73
25
 74
25
 0
VERTEX
 8
TAPA_1_1
 10
0
 20
0
 30
0
 70
128
 71
23
 72
25
 73
26
 74
26
 0
VERTEX
 8
TAPA_1_1
 10
0
 20
0
 30
0
 70
128
 71
27
 72
28
 73
29
 74
29
 0
SEQEND
 0
POLYLINE
 8
TAPA_2_1
 66
1
 10
0.0
 20
0.0
 30
0.0
 70
64
 71
29
 72
27
 0
VERTEX
 8
TAPA_2_1
 10
0.1769
 20
0.1727
 30
0.2649
 70
192
 0
VERTEX
 8
TAPA_2_1
 10
0.1714
 20
0.172
 30
0.2649
 70
192
 0
VERTEX
 8
TAPA_2_1
 10
0.1663
 20
0.1703
 30
0.2649
 70
192
 0
VERTEX
 8
TAPA_2_1
 10
0.1617
 20
0.1675
 30
0.2649
 70
192
 0
VERTEX
 8
TAPA_2_1
 10
0.1579
 20
0.1639
 30
0.2649
 70
192
 0
VERTEX
 8
TAPA_2_1
 10
0.1549
 20
0.1595
 30
0.2649
 70
192
 0
VERTEX
 8
TAPA_2_1
 10
0.1529
 20
0.1545
 30
0.2649
 70
192
 0
VERTEX
 8
TAPA_2_1
 10
0.152
 20
0.1491
 30
0.2649
 70
192
 0
VERTEX
 8
TAPA_2_1
 10
0.1523
 20
0.1435
 30
0.2649
 70
192
 0
VERTEX
 8
TAPA_2_1
 10
0.1538
 20
0.1382
 30
0.2649
 70
192
 0
VERTEX
 8
TAPA_2_1
 10
0.1563
 20
0.1335
 30
0.2649
 70
192
 0
VERTEX
 8
TAPA_2_1
 10
0.1597
 20
0.1295
 30
0.2649
 70
192
 0
VERTEX
 8
TAPA_2_1
 10
0.1639
 20
0.1263
 30
0.2649
 70
192
 0
VERTEX
 8
TAPA_2_1
 10
0.1688
 20
0.124
 30
0.2649
 70
192
 0
VERTEX
 8
TAPA_2_1
 10
0.1741
 20
0.1228
 30
0.2649
 70
192
 0
VERTEX
 8
TAPA_2_1
 10
0.1797
 20
0.1228
 30
0.2649
 70
192
 0
VERTEX
 8
TAPA_2_1
 10
0.1851
 20
0.124
 30
0.2649
 70
192
 0
VERTEX
 8
TAPA_2_1
 10
0.1899
 20
0.1263
 30
0.2649
 70
192
 0
VERTEX
 8
TAPA_2_1
 10
0.1941
 20
0.1295
 30
0.2649
 70
192
 0
VERTEX
 8
TAPA_2_1
 10
0.1976
 20
0.1335
 30
0.2649
 70
192
 0
VERTEX
 8
TAPA_2_1
 10
0.2001
 20
0.1382
 30
0.2649
 70
192
 0
VERTEX
 8
TAPA_2_1
 10
0.2016
 20
0.1435
 30
0.2649
 70
192
 0
VERTEX
 8
TAPA_2_1
 10
0.2019
 20
0.1491
 30
0.2649
 70
192
 0
VERTEX
 8
TAPA_2_1
 10
0.201
 20
0.1545
 30
0.2649
 70
192
 0
VERTEX
 8
TAPA_2_1
 10
0.199
 20
0.1595
 30
0.2649
 70
192
 0
VERTEX
 8
TAPA_2_1
 10
0.196
 20
0.1639
 30
0.2649
 70
192
 0
VERTEX
 8
TAPA_2_1
 10
0.1921
 20
0.1675
 30
0.2649
 70
192
 0
VERTEX
 8
TAPA_2_1
 10
0.1876
 20
0.1703
 30
0.2649
 70
192
 0
VERTEX
 8
TAPA_2_1
 10
0.1825
 20
0.172
 30
0.2649
 70
192
 0
VERTEX
 8
TAPA_2_1
 10
0
 20
0
 30
0
 70
128
 71
29
 72
28
 73
27
 74
27
 0
VERTEX
 8
TAPA_2_1
 10
0
 20
0
 30
0
 70
128
 71
29
 72
27
 73
1
 74
1
 0
VERTEX
 8
TAPA_2_1
 10
0
 20
0
 30
0
 70
128
 71
27
 72
26
 73
1
 74
1
 0
VERTEX
 8
TAPA_2_1
 10
0
 20
0
 30
0
 70
128
 71
26
 72
25
 73
23
 74
23
 0
VERTEX
 8
TAPA_2_1
 10
0
 20
0
 30
0
 70
128
 71
26
 72
23
 73
1
 74
1
 0
VERTEX
 8
TAPA_2_1
 10
0
 20
0
 30
0
 70
128
 71
25
 72
24
 73
23
 74
23
 0
VERTEX
 8
TAPA_2_1
 10
0
 20
0
 30
0
 70
128
 71
23
 72
22
 73
16
 74
16
 0
VERTEX
 8
TAPA_2_1
 10
0
 20
0
 30
0
 70
128
 71
23
 72
16
 73
15
 74
15
 0
VERTEX
 8
TAPA_2_1
 10
0
 20
0
 30
0
 70
128
 71
23
 72
15
 73
8
 74
8
 0
VERTEX
 8
TAPA_2_1
 10
0
 20
0
 30
0
 70
128
 71
23
 72
8
 73
1
 74
1
 0
VERTEX
 8
TAPA_2_1
 10
0
 20
0
 30
0
 70
128
 71
22
 72
21
 73
20
 74
20
 0
VERTEX
 8
TAPA_2_1
 10
0
 20
0
 30
0
 70
128
 71
22
 72
20
 73
19
 74
19
 0
VERTEX
 8
TAPA_2_1
 10
0
 20
0
 30
0
 70
128
 71
22
 72
19
 73
16
 74
16
 0
VERTEX
 8
TAPA_2_1
 10
0
 20
0
 30
0
 70
128
 71
19
 72
18
 73
16
 74
16
 0
VERTEX
 8
TAPA_2_1
 10
0
 20
0
 30
0
 70
128
 71
18
 72
17
 73
16
 74
16
 0
VERTEX
 8
TAPA_2_1
 10
0
 20
0
 30
0
 70
128
 71
15
 72
14
 73
13
 74
13
 0
VERTEX
 8
TAPA_2_1
 10
0
 20
0
 30
0
 70
128
 71
15
 72
13
 73
12
 74
12
 0
VERTEX
 8
TAPA_2_1
 10
0
 20
0
 30
0
 70
128
 71
15
 72
12
 73
9
 74
9
 0
VERTEX
 8
TAPA_2_1
 10
0
 20
0
 30
0
 70
128
 71
15
 72
9
 73
8
 74
8
 0
VERTEX
 8
TAPA_2_1
 10
0
 20
0
 30
0
 70
128
 71
12
 72
11
 73
9
 74
9
 0
VERTEX
 8
TAPA_2_1
 10
0
 20
0
 30
0
 70
128
 71
11
 72
10
 73
9
 74
9
 0
VERTEX
 8
TAPA_2_1
 10
0
 20
0
 30
0
 70
128
 71
8
 72
7
 73
6
 74
6
 0
VERTEX
 8
TAPA_2_1
 10
0
 20
0
 30
0
 70
128
 71
8
 72
6
 73
5
 74
5
 0
VERTEX
 8
TAPA_2_1
 10
0
 20
0
 30
0
 70
128
 71
8
 72
5
 73
1
 74
1
 0
VERTEX
 8
TAPA_2_1
 10
0
 20
0
 30
0
 70
128
 71
5
 72
4
 73
1
 74
1
 0
VERTEX
 8
TAPA_2_1
 10
0
 20
0
 30
0
 70
128
 71
4
 72
3
 73
2
 74
2
 0
VERTEX
 8
TAPA_2_1
 10
0
 20
0
 30
0
 70
128
 71
4
 72
2
 73
1
 74
1
 0
SEQEND
 0
POLYLINE
 8
CYLINDER_2
 66
1
 10
0.0
 20
0.0
 30
0.0
 70
64
 71
146
 72
108
 0
VERTEX
 8
CYLINDER_2
 10
0.1764
 20
0.1474
 30
0.263
 70
192
 0
VERTEX
 8
CYLINDER_2
 10
0.1764
 20
0.1474
 30
0.2716
 70
192
 0
VERTEX
 8
CYLINDER_2
 10
0.1764
 20
0.1823
 30
0.263
 70
192
 0
VERTEX
 8
CYLINDER_2
 10
0.1764
 20
0.1823
 30
0.263
 70
192
 0
VERTEX
 8
CYLINDER_2
 10
0.1764
 20
0.1823
 30
0.2716
 70
192
 0
VERTEX
 8
CYLINDER_2
 10
0.1764
 20
0.1823
 30
0.2716
 70
192
 0
VERTEX
 8
CYLINDER_2
 10
0.1703
 20
0.1818
 30
0.263
 70
192
 0
VERTEX
 8
CYLINDER_2
 10
0.1703
 20
0.1818
 30
0.263
 70
192
 0
VERTEX
 8
CYLINDER_2
 10
0.1703
 20
0.1818
 30
0.2716
 70
192
 0
VERTEX
 8
CYLINDER_2
 10
0.1703
 20
0.1818
 30
0.2716
 70
192
 0
VERTEX
 8
CYLINDER_2
 10
0.1644
 20
0.1802
 30
0.263
 70
192
 0
VERTEX
 8
CYLINDER_2
 10
0.1644
 20
0.1802
 30
0.263
 70
192
 0
VERTEX
 8
CYLINDER_2
 10
0.1644
 20
0.1802
 30
0.2716
 70
192
 0
VERTEX
 8
CYLINDER_2
 10
0.1644
 20
0.1802
 30
0.2716
 70
192
 0
VERTEX
 8
CYLINDER_2
 10
0.1589
 20
0.1777
 30
0.263
 70
192
 0
VERTEX
 8
CYLINDER_2
 10
0.1589
 20
0.1777
 30
0.263
 70
192
 0
VERTEX
 8
CYLINDER_2
 10
0.1589
 20
0.1777
 30
0.2716
 70
192
 0
VERTEX
 8
CYLINDER_2
 10
0.1589
 20
0.1777
 30
0.2716
 70
192
 0
VERTEX
 8
CYLINDER_2
 10
0.1539
 20
0.1742
 30
0.263
 70
192
 0
VERTEX
 8
CYLINDER_2
 10
0.1539
 20
0.1742
 30
0.263
 70
192
 0
VERTEX
 8
CYLINDER_2
 10
0.1539
 20
0.1742
 30
0.2716
 70
192
 0
VERTEX
 8
CYLINDER_2
 10
0.1539
 20
0.1742
 30
0.2716
 70
192
 0
VERTEX
 8
CYLINDER_2
 10
0.1496
 20
0.1699
 30
0.263
 70
192
 0
VERTEX
 8
CYLINDER_2
 10
0.1496
 20
0.1699
 30
0.263
 70
192
 0
VERTEX
 8
CYLINDER_2
 10
0.1496
 20
0.1699
 30
0.2716
 70
192
 0
VERTEX
 8
CYLINDER_2
 10
0.1496
 20
0.1699
 30
0.2716
 70
192
 0
VERTEX
 8
CYLINDER_2
 10
0.1461
 20
0.1649
 30
0.263
 70
192
 0
VERTEX
 8
CYLINDER_2
 10
0.1461
 20
0.1649
 30
0.263
 70
192
 0
VERTEX
 8
CYLINDER_2
 10
0.1461
 20
0.1649
 30
0.2716
 70
192
 0
VERTEX
 8
CYLINDER_2
 10
0.1461
 20
0.1649
 30
0.2716
 70
192
 0
VERTEX
 8
CYLINDER_2
 10
0.1435
 20
0.1593
 30
0.263
 70
192
 0
VERTEX
 8
CYLINDER_2
 10
0.1435
 20
0.1593
 30
0.263
 70
192
 0
VERTEX
 8
CYLINDER_2
 10
0.1435
 20
0.1593
 30
0.2716
 70
192
 0
VERTEX
 8
CYLINDER_2
 10
0.1435
 20
0.1593
 30
0.2716
 70
192
 0
VERTEX
 8
CYLINDER_2
 10
0.142
 20
0.1535
 30
0.263
 70
192
 0
VERTEX
 8
CYLINDER_2
 10
0.142
 20
0.1535
 30
0.263
 70
192
 0
VERTEX
 8
CYLINDER_2
 10
0.142
 20
0.1535
 30
0.2716
 70
192
 0
VERTEX
 8
CYLINDER_2
 10
0.142
 20
0.1535
 30
0.2716
 70
192
 0
VERTEX
 8
CYLINDER_2
 10
0.1414
 20
0.1474
 30
0.263
 70
192
 0
VERTEX
 8
CYLINDER_2
 10
0.1414
 20
0.1474
 30
0.263
 70
192
 0
VERTEX
 8
CYLINDER_2
 10
0.1414
 20
0.1474
 30
0.2716
 70
192
 0
VERTEX
 8
CYLINDER_2
 10
0.1414
 20
0.1474
 30
0.2716
 70
192
 0
VERTEX
 8
CYLINDER_2
 10
0.142
 20
0.1413
 30
0.263
 70
192
 0
VERTEX
 8
CYLINDER_2
 10
0.142
 20
0.1413
 30
0.263
 70
192
 0
VERTEX
 8
CYLINDER_2
 10
0.142
 20
0.1413
 30
0.2716
 70
192
 0
VERTEX
 8
CYLINDER_2
 10
0.142
 20
0.1413
 30
0.2716
 70
192
 0
VERTEX
 8
CYLINDER_2
 10
0.1435
 20
0.1354
 30
0.263
 70
192
 0
VERTEX
 8
CYLINDER_2
 10
0.1435
 20
0.1354
 30
0.263
 70
192
 0
VERTEX
 8
CYLINDER_2
 10
0.1435
 20
0.1354
 30
0.2716
 70
192
 0
VERTEX
 8
CYLINDER_2
 10
0.1435
 20
0.1354
 30
0.2716
 70
192
 0
VERTEX
 8
CYLINDER_2
 10
0.1461
 20
0.1299
 30
0.263
 70
192
 0
VERTEX
 8
CYLINDER_2
 10
0.1461
 20
0.1299
 30
0.263
 70
192
 0
VERTEX
 8
CYLINDER_2
 10
0.1461
 20
0.1299
 30
0.2716
 70
192
 0
VERTEX
 8
CYLINDER_2
 10
0.1461
 20
0.1299
 30
0.2716
 70
192
 0
VERTEX
 8
CYLINDER_2
 10
0.1496
 20
0.1249
 30
0.263
 70
192
 0
VERTEX
 8
CYLINDER_2
 10
0.1496
 20
0.1249
 30
0.263
 70
192
 0
VERTEX
 8
CYLINDER_2
 10
0.1496
 20
0.1249
 30
0.2716
 70
192
 0
VERTEX
 8
CYLINDER_2
 10
0.1496
 20
0.1249
 30
0.2716
 70
192
 0
VERTEX
 8
CYLINDER_2
 10
0.1539
 20
0.1206
 30
0.263
 70
192
 0
VERTEX
 8
CYLINDER_2
 10
0.1539
 20
0.1206
 30
0.263
 70
192
 0
VERTEX
 8
CYLINDER_2
 10
0.1539
 20
0.1206
 30
0.2716
 70
192
 0
VERTEX
 8
CYLINDER_2
 10
0.1539
 20
0.1206
 30
0.2716
 70
192
 0
VERTEX
 8
CYLINDER_2
 10
0.1589
 20
0.1171
 30
0.263
 70
192
 0
VERTEX
 8
CYLINDER_2
 10
0.1589
 20
0.1171
 30
0.263
 70
192
 0
VERTEX
 8
CYLINDER_2
 10
0.1589
 20
0.1171
 30
0.2716
 70
192
 0
VERTEX
 8
CYLINDER_2
 10
0.1589
 20
0.1171
 30
0.2716
 70
192
 0
VERTEX
 8
CYLINDER_2
 10
0.1644
 20
0.1146
 30
0.263
 70
192
 0
VERTEX
 8
CYLINDER_2
 10
0.1644
 20
0.1146
 30
0.263
 70
192
 0
VERTEX
 8
CYLINDER_2
 10
0.1644
 20
0.1146
 30
0.2716
 70
192
 0
VERTEX
 8
CYLINDER_2
 10
0.1644
 20
0.1146
 30
0.2716
 70
192
 0
VERTEX
 8
CYLINDER_2
 10
0.1703
 20
0.113
 30
0.263
 70
192
 0
VERTEX
 8
CYLINDER_2
 10
0.1703
 20
0.113
 30
0.263
 70
192
 0
VERTEX
 8
CYLINDER_2
 10
0.1703
 20
0.113
 30
0.2716
 70
192
 0
VERTEX
 8
CYLINDER_2
 10
0.1703
 20
0.113
 30
0.2716
 70
192
 0
VERTEX
 8
CYLINDER_2
 10
0.1764
 20
0.1125
 30
0.263
 70
192
 0
VERTEX
 8
CYLINDER_2
 10
0.1764
 20
0.1125
 30
0.263
 70
192
 0
VERTEX
 8
CYLINDER_2
 10
0.1764
 20
0.1125
 30
0.2716
 70
192
 0
VERTEX
 8
CYLINDER_2
 10
0.1764
 20
0.1125
 30
0.2716
 70
192
 0
VERTEX
 8
CYLINDER_2
 10
0.1825
 20
0.113
 30
0.263
 70
192
 0
VERTEX
 8
CYLINDER_2
 10
0.1825
 20
0.113
 30
0.263
 70
192
 0
VERTEX
 8
CYLINDER_2
 10
0.1825
 20
0.113
 30
0.2716
 70
192
 0
VERTEX
 8
CYLINDER_2
 10
0.1825
 20
0.113
 30
0.2716
 70
192
 0
VERTEX
 8
CYLINDER_2
 10
0.1883
 20
0.1146
 30
0.263
 70
192
 0
VERTEX
 8
CYLINDER_2
 10
0.1883
 20
0.1146
 30
0.263
 70
192
 0
VERTEX
 8
CYLINDER_2
 10
0.1883
 20
0.1146
 30
0.2716
 70
192
 0
VERTEX
 8
CYLINDER_2
 10
0.1883
 20
0.1146
 30
0.2716
 70
192
 0
VERTEX
 8
CYLINDER_2
 10
0.1939
 20
0.1171
 30
0.263
 70
192
 0
VERTEX
 8
CYLINDER_2
 10
0.1939
 20
0.1171
 30
0.263
 70
192
 0
VERTEX
 8
CYLINDER_2
 10
0.1939
 20
0.1171
 30
0.2716
 70
192
 0
VERTEX
 8
CYLINDER_2
 10
0.1939
 20
0.1171
 30
0.2716
 70
192
 0
VERTEX
 8
CYLINDER_2
 10
0.1988
 20
0.1206
 30
0.263
 70
192
 0
VERTEX
 8
CYLINDER_2
 10
0.1988
 20
0.1206
 30
0.263
 70
192
 0
VERTEX
 8
CYLINDER_2
 10
0.1988
 20
0.1206
 30
0.2716
 70
192
 0
VERTEX
 8
CYLINDER_2
 10
0.1988
 20
0.1206
 30
0.2716
 70
192
 0
VERTEX
 8
CYLINDER_2
 10
0.2032
 20
0.1249
 30
0.263
 70
192
 0
VERTEX
 8
CYLINDER_2
 10
0.2032
 20
0.1249
 30
0.263
 70
192
 0
VERTEX
 8
CYLINDER_2
 10
0.2032
 20
0.1249
 30
0.2716
 70
192
 0
VERTEX
 8
CYLINDER_2
 10
0.2032
 20
0.1249
 30
0.2716
 70
192
 0
VERTEX
 8
CYLINDER_2
 10
0.2066
 20
0.1299
 30
0.263
 70
192
 0
VERTEX
 8
CYLINDER_2
 10
0.2066
 20
0.1299
 30
0.263
 70
192
 0
VERTEX
 8
CYLINDER_2
 10
0.2066
 20
0.1299
 30
0.2716
 70
192
 0
VERTEX
 8
CYLINDER_2
 10
0.2066
 20
0.1299
 30
0.2716
 70
192
 0
VERTEX
 8
CYLINDER_2
 10
0.2092
 20
0.1354
 30
0.263
 70
192
 0
VERTEX
 8
CYLINDER_2
 10
0.2092
 20
0.1354
 30
0.263
 70
192
 0
VERTEX
 8
CYLINDER_2
 10
0.2092
 20
0.1354
 30
0.2716
 70
192
 0
VERTEX
 8
CYLINDER_2
 10
0.2092
 20
0.1354
 30
0.2716
 70
192
 0
VERTEX
 8
CYLINDER_2
 10
0.2108
 20
0.1413
 30
0.263
 70
192
 0
VERTEX
 8
CYLINDER_2
 10
0.2108
 20
0.1413
 30
0.263
 70
192
 0
VERTEX
 8
CYLINDER_2
 10
0.2108
 20
0.1413
 30
0.2716
 70
192
 0
VERTEX
 8
CYLINDER_2
 10
0.2108
 20
0.1413
 30
0.2716
 70
192
 0
VERTEX
 8
CYLINDER_2
 10
0.2113
 20
0.1474
 30
0.263
 70
192
 0
VERTEX
 8
CYLINDER_2
 10
0.2113
 20
0.1474
 30
0.263
 70
192
 0
VERTEX
 8
CYLINDER_2
 10
0.2113
 20
0.1474
 30
0.2716
 70
192
 0
VERTEX
 8
CYLINDER_2
 10
0.2113
 20
0.1474
 30
0.2716
 70
192
 0
VERTEX
 8
CYLINDER_2
 10
0.2108
 20
0.1535
 30
0.263
 70
192
 0
VERTEX
 8
CYLINDER_2
 10
0.2108
 20
0.1535
 30
0.263
 70
192
 0
VERTEX
 8
CYLINDER_2
 10
0.2108
 20
0.1535
 30
0.2716
 70
192
 0
VERTEX
 8
CYLINDER_2
 10
0.2108
 20
0.1535
 30
0.2716
 70
192
 0
VERTEX
 8
CYLINDER_2
 10
0.2092
 20
0.1593
 30
0.263
 70
192
 0
VERTEX
 8
CYLINDER_2
 10
0.2092
 20
0.1593
 30
0.263
 70
192
 0
VERTEX
 8
CYLINDER_2
 10
0.2092
 20
0.1593
 30
0.2716
 70
192
 0
VERTEX
 8
CYLINDER_2
 10
0.2092
 20
0.1593
 30
0.2716
 70
192
 0
VERTEX
 8
CYLINDER_2
 10
0.2066
 20
0.1649
 30
0.263
 70
192
 0
VERTEX
 8
CYLINDER_2
 10
0.2066
 20
0.1649
 30
0.263
 70
192
 0
VERTEX
 8
CYLINDER_2
 10
0.2066
 20
0.1649
 30
0.2716
 70
192
 0
VERTEX
 8
CYLINDER_2
 10
0.2066
 20
0.1649
 30
0.2716
 70
192
 0
VERTEX
 8
CYLINDER_2
 10
0.2032
 20
0.1699
 30
0.263
 70
192
 0
VERTEX
 8
CYLINDER_2
 10
0.2032
 20
0.1699
 30
0.263
 70
192
 0
VERTEX
 8
CYLINDER_2
 10
0.2032
 20
0.1699
 30
0.2716
 70
192
 0
VERTEX
 8
CYLINDER_2
 10
0.2032
 20
0.1699
 30
0.2716
 70
192
 0
VERTEX
 8
CYLINDER_2
 10
0.1988
 20
0.1742
 30
0.263
 70
192
 0
VERTEX
 8
CYLINDER_2
 10
0.1988
 20
0.1742
 30
0.263
 70
192
 0
VERTEX
 8
CYLINDER_2
 10
0.1988
 20
0.1742
 30
0.2716
 70
192
 0
VERTEX
 8
CYLINDER_2
 10
0.1988
 20
0.1742
 30
0.2716
 70
192
 0
VERTEX
 8
CYLINDER_2
 10
0.1939
 20
0.1777
 30
0.263
 70
192
 0
VERTEX
 8
CYLINDER_2
 10
0.1939
 20
0.1777
 30
0.263
 70
192
 0
VERTEX
 8
CYLINDER_2
 10
0.1939
 20
0.1777
 30
0.2716
 70
192
 0
VERTEX
 8
CYLINDER_2
 10
0.1939
 20
0.1777
 30
0.2716
 70
192
 0
VERTEX
 8
CYLINDER_2
 10
0.1883
 20
0.1802
 30
0.263
 70
192
 0
VERTEX
 8
CYLINDER_2
 10
0.1883
 20
0.1802
 30
0.263
 70
192
 0
VERTEX
 8
CYLINDER_2
 10
0.1883
 20
0.1802
 30
0.2716
 70
192
 0
VERTEX
 8
CYLINDER_2
 10
0.1883
 20
0.1802
 30
0.2716
 70
192
 0
VERTEX
 8
CYLINDER_2
 10
0.1825
 20
0.1818
 30
0.263
 70
192
 0
VERTEX
 8
CYLINDER_2
 10
0.1825
 20
0.1818
 30
0.263
 70
192
 0
VERTEX
 8
CYLINDER_2
 10
0.1825
 20
0.1818
 30
0.2716
 70
192
 0
VERTEX
 8
CYLINDER_2
 10
0.1825
 20
0.1818
 30
0.2716
 70
192
 0
VERTEX
 8
CYLINDER_2
 10
0
 20
0
 30
0
 70
128
 71
1
 72
3
 73
7
 74
7
 0
VERTEX
 8
CYLINDER_2
 10
0
 20
0
 30
0
 70
128
 71
4
 72
5
 73
9
 74
8
 0
VERTEX
 8
CYLINDER_2
 10
0
 20
0
 30
0
 70
128
 71
6
 72
2
 73
10
 74
10
 0
VERTEX
 8
CYLINDER_2
 10
0
 20
0
 30
0
 70
128
 71
1
 72
7
 73
11
 74
11
 0
VERTEX
 8
CYLINDER_2
 10
0
 20
0
 30
0
 70
128
 71
8
 72
9
 73
13
 74
12
 0
VERTEX
 8
CYLINDER_2
 10
0
 20
0
 30
0
 70
128
 71
10
 72
2
 73
14
 74
14
 0
VERTEX
 8
CYLINDER_2
 10
0
 20
0
 30
0
 70
128
 71
1
 72
11
 73
15
 74
15
 0
VERTEX
 8
CYLINDER_2
 10
0
 20
0
 30
0
 70
128
 71
12
 72
13
 73
17
 74
16
 0
VERTEX
 8
CYLINDER_2
 10
0
 20
0
 30
0
 70
128
 71
14
 72
2
 73
18
 74
18
 0
VERTEX
 8
CYLINDER_2
 10
0
 20
0
 30
0
 70
128
 71
1
 72
15
 73
19
 74
19
 0
VERTEX
 8
CYLINDER_2
 10
0
 20
0
 30
0
 70
128
 71
16
 72
17
 73
21
 74
20
 0
VERTEX
 8
CYLINDER_2
 10
0
 20
0
 30
0
 70
128
 71
18
 72
2
 73
22
 74
22
 0
VERTEX
 8
CYLINDER_2
 10
0
 20
0
 30
0
 70
128
 71
1
 72
19
 73
23
 74
23
 0
VERTEX
 8
CYLINDER_2
 10
0
 20
0
 30
0
 70
128
 71
20
 72
21
 73
25
 74
24
 0
VERTEX
 8
CYLINDER_2
 10
0
 20
0
 30
0
 70
128
 71
22
 72
2
 73
26
 74
26
 0
VERTEX
 8
CYLINDER_2
 10
0
 20
0
 30
0
 70
128
 71
1
 72
23
 73
27
 74
27
 0
VERTEX
 8
CYLINDER_2
 10
0
 20
0
 30
0
 70
128
 71
24
 72
25
 73
29
 74
28
 0
VERTEX
 8
CYLINDER_2
 10
0
 20
0
 30
0
 70
128
 71
26
 72
2
 73
30
 74
30
 0
VERTEX
 8
CYLINDER_2
 10
0
 20
0
 30
0
 70
128
 71
1
 72
27
 73
31
 74
31
 0
VERTEX
 8
CYLINDER_2
 10
0
 20
0
 30
0
 70
128
 71
28
 72
29
 73
33
 74
32
 0
VERTEX
 8
CYLINDER_2
 10
0
 20
0
 30
0
 70
128
 71
30
 72
2
 73
34
 74
34
 0
VERTEX
 8
CYLINDER_2
 10
0
 20
0
 30
0
 70
128
 71
1
 72
31
 73
35
 74
35
 0
VERTEX
 8
CYLINDER_2
 10
0
 20
0
 30
0
 70
128
 71
32
 72
33
 73
37
 74
36
 0
VERTEX
 8
CYLINDER_2
 10
0
 20
0
 30
0
 70
128
 71
34
 72
2
 73
38
 74
38
 0
VERTEX
 8
CYLINDER_2
 10
0
 20
0
 30
0
 70
128
 71
1
 72
35
 73
39
 74
39
 0
VERTEX
 8
CYLINDER_2
 10
0
 20
0
 30
0
 70
128
 71
36
 72
37
 73
41
 74
40
 0
VERTEX
 8
CYLINDER_2
 10
0
 20
0
 30
0
 70
128
 71
38
 72
2
 73
42
 74
42
 0
VERTEX
 8
CYLINDER_2
 10
0
 20
0
 30
0
 70
128
 71
1
 72
39
 73
43
 74
43
 0
VERTEX
 8
CYLINDER_2
 10
0
 20
0
 30
0
 70
128
 71
40
 72
41
 73
45
 74
44
 0
VERTEX
 8
CYLINDER_2
 10
0
 20
0
 30
0
 70
128
 71
42
 72
2
 73
46
 74
46
 0
VERTEX
 8
CYLINDER_2
 10
0
 20
0
 30
0
 70
128
 71
1
 72
43
 73
47
 74
47
 0
VERTEX
 8
CYLINDER_2
 10
0
 20
0
 30
0
 70
128
 71
44
 72
45
 73
49
 74
48
 0
VERTEX
 8
CYLINDER_2
 10
0
 20
0
 30
0
 70
128
 71
46
 72
2
 73
50
 74
50
 0
VERTEX
 8
CYLINDER_2
 10
0
 20
0
 30
0
 70
128
 71
1
 72
47
 73
51
 74
51
 0
VERTEX
 8
CYLINDER_2
 10
0
 20
0
 30
0
 70
128
 71
48
 72
49
 73
53
 74
52
 0
VERTEX
 8
CYLINDER_2
 10
0
 20
0
 30
0
 70
128
 71
50
 72
2
 73
54
 74
54
 0
VERTEX
 8
CYLINDER_2
 10
0
 20
0
 30
0
 70
128
 71
1
 72
51
 73
55
 74
55
 0
VERTEX
 8
CYLINDER_2
 10
0
 20
0
 30
0
 70
128
 71
52
 72
53
 73
57
 74
56
 0
VERTEX
 8
CYLINDER_2
 10
0
 20
0
 30
0
 70
128
 71
54
 72
2
 73
58
 74
58
 0
VERTEX
 8
CYLINDER_2
 10
0
 20
0
 30
0
 70
128
 71
1
 72
55
 73
59
 74
59
 0
VERTEX
 8
CYLINDER_2
 10
0
 20
0
 30
0
 70
128
 71
56
 72
57
 73
61
 74
60
 0
VERTEX
 8
CYLINDER_2
 10
0
 20
0
 30
0
 70
128
 71
58
 72
2
 73
62
 74
62
 0
VERTEX
 8
CYLINDER_2
 10
0
 20
0
 30
0
 70
128
 71
1
 72
59
 73
63
 74
63
 0
VERTEX
 8
CYLINDER_2
 10
0
 20
0
 30
0
 70
128
 71
60
 72
61
 73
65
 74
64
 0
VERTEX
 8
CYLINDER_2
 10
0
 20
0
 30
0
 70
128
 71
62
 72
2
 73
66
 74
66
 0
VERTEX
 8
CYLINDER_2
 10
0
 20
0
 30
0
 70
128
 71
1
 72
63
 73
67
 74
67
 0
VERTEX
 8
CYLINDER_2
 10
0
 20
0
 30
0
 70
128
 71
64
 72
65
 73
69
 74
68
 0
VERTEX
 8
CYLINDER_2
 10
0
 20
0
 30
0
 70
128
 71
66
 72
2
 73
70
 74
70
 0
VERTEX
 8
CYLINDER_2
 10
0
 20
0
 30
0
 70
128
 71
1
 72
67
 73
71
 74
71
 0
VERTEX
 8
CYLINDER_2
 10
0
 20
0
 30
0
 70
128
 71
68
 72
69
 73
73
 74
72
 0
VERTEX
 8
CYLINDER_2
 10
0
 20
0
 30
0
 70
128
 71
70
 72
2
 73
74
 74
74
 0
VERTEX
 8
CYLINDER_2
 10
0
 20
0
 30
0
 70
128
 71
1
 72
71
 73
75
 74
75
 0
VERTEX
 8
CYLINDER_2
 10
0
 20
0
 30
0
 70
128
 71
72
 72
73
 73
77
 74
76
 0
VERTEX
 8
CYLINDER_2
 10
0
 20
0
 30
0
 70
128
 71
74
 72
2
 73
78
 74
78
 0
VERTEX
 8
CYLINDER_2
 10
0
 20
0
 30
0
 70
128
 71
1
 72
75
 73
79
 74
79
 0
VERTEX
 8
CYLINDER_2
 10
0
 20
0
 30
0
 70
128
 71
76
 72
77
 73
81
 74
80
 0
VERTEX
 8
CYLINDER_2
 10
0
 20
0
 30
0
 70
128
 71
78
 72
2
 73
82
 74
82
 0
VERTEX
 8
CYLINDER_2
 10
0
 20
0
 30
0
 70
128
 71
1
 72
79
 73
83
 74
83
 0
VERTEX
 8
CYLINDER_2
 10
0
 20
0
 30
0
 70
128
 71
80
 72
81
 73
85
 74
84
 0
VERTEX
 8
CYLINDER_2
 10
0
 20
0
 30
0
 70
128
 71
82
 72
2
 73
86
 74
86
 0
VERTEX
 8
CYLINDER_2
 10
0
 20
0
 30
0
 70
128
 71
1
 72
83
 73
87
 74
87
 0
VERTEX
 8
CYLINDER_2
 10
0
 20
0
 30
0
 70
128
 71
84
 72
85
 73
89
 74
88
 0
VERTEX
 8
CYLINDER_2
 10
0
 20
0
 30
0
 70
128
 71
86
 72
2
 73
90
 74
90
 0
VERTEX
 8
CYLINDER_2
 10
0
 20
0
 30
0
 70
128
 71
1
 72
87
 73
91
 74
91
 0
VERTEX
 8
CYLINDER_2
 10
0
 20
0
 30
0
 70
128
 71
88
 72
89
 73
93
 74
92
 0
VERTEX
 8
CYLINDER_2
 10
0
 20
0
 30
0
 70
128
 71
90
 72
2
 73
94
 74
94
 0
VERTEX
 8
CYLINDER_2
 10
0
 20
0
 30
0
 70
128
 71
1
 72
91
 73
95
 74
95
 0
VERTEX
 8
CYLINDER_2
 10
0
 20
0
 30
0
 70
128
 71
92
 72
93
 73
97
 74
96
 0
VERTEX
 8
CYLINDER_2
 10
0
 20
0
 30
0
 70
128
 71
94
 72
2
 73
98
 74
98
 0
VERTEX
 8
CYLINDER_2
 10
0
 20
0
 30
0
 70
128
 71
1
 72
95
 73
99
 74
99
 0
VERTEX
 8
CYLINDER_2
 10
0
 20
0
 30
0
 70
128
 71
96
 72
97
 73
101
 74
100
 0
VERTEX
 8
CYLINDER_2
 10
0
 20
0
 30
0
 70
128
 71
98
 72
2
 73
102
 74
102
 0
VERTEX
 8
CYLINDER_2
 10
0
 20
0
 30
0
 70
128
 71
1
 72
99
 73
103
 74
103
 0
VERTEX
 8
CYLINDER_2
 10
0
 20
0
 30
0
 70
128
 71
100
 72
101
 73
105
 74
104
 0
VERTEX
 8
CYLINDER_2
 10
0
 20
0
 30
0
 70
128
 71
102
 72
2
 73
106
 74
106
 0
VERTEX
 8
CYLINDER_2
 10
0
 20
0
 30
0
 70
128
 71
1
 72
103
 73
107
 74
107
 0
VERTEX
 8
CYLINDER_2
 10
0
 20
0
 30
0
 70
128
 71
104
 72
105
 73
109
 74
108
 0
VERTEX
 8
CYLINDER_2
 10
0
 20
0
 30
0
 70
128
 71
106
 72
2
 73
110
 74
110
 0
VERTEX
 8
CYLINDER_2
 10
0
 20
0
 30
0
 70
128
 71
1
 72
107
 73
111
 74
111
 0
VERTEX
 8
CYLINDER_2
 10
0
 20
0
 30
0
 70
128
 71
108
 72
109
 73
113
 74
112
 0
VERTEX
 8
CYLINDER_2
 10
0
 20
0
 30
0
 70
128
 71
110
 72
2
 73
114
 74
114
 0
VERTEX
 8
CYLINDER_2
 10
0
 20
0
 30
0
 70
128
 71
1
 72
111
 73
115
 74
115
 0
VERTEX
 8
CYLINDER_2
 10
0
 20
0
 30
0
 70
128
 71
112
 72
113
 73
117
 74
116
 0
VERTEX
 8
CYLINDER_2
 10
0
 20
0
 30
0
 70
128
 71
114
 72
2
 73
118
 74
118
 0
VERTEX
 8
CYLINDER_2
 10
0
 20
0
 30
0
 70
128
 71
1
 72
115
 73
119
 74
119
 0
VERTEX
 8
CYLINDER_2
 10
0
 20
0
 30
0
 70
128
 71
116
 72
117
 73
121
 74
120
 0
VERTEX
 8
CYLINDER_2
 10
0
 20
0
 30
0
 70
128
 71
118
 72
2
 73
122
 74
122
 0
VERTEX
 8
CYLINDER_2
 10
0
 20
0
 30
0
 70
128
 71
1
 72
119
 73
123
 74
123
 0
VERTEX
 8
CYLINDER_2
 10
0
 20
0
 30
0
 70
128
 71
120
 72
121
 73
125
 74
124
 0
VERTEX
 8
CYLINDER_2
 10
0
 20
0
 30
0
 70
128
 71
122
 72
2
 73
126
 74
126
 0
VERTEX
 8
CYLINDER_2
 10
0
 20
0
 30
0
 70
128
 71
1
 72
123
 73
127
 74
127
 0
VERTEX
 8
CYLINDER_2
 10
0
 20
0
 30
0
 70
128
 71
124
 72
125
 73
129
 74
128
 0
VERTEX
 8
CYLINDER_2
 10
0
 20
0
 30
0
 70
128
 71
126
 72
2
 73
130
 74
130
 0
VERTEX
 8
CYLINDER_2
 10
0
 20
0
 30
0
 70
128
 71
1
 72
127
 73
131
 74
131
 0
VERTEX
 8
CYLINDER_2
 10
0
 20
0
 30
0
 70
128
 71
128
 72
129
 73
133
 74
132
 0
VERTEX
 8
CYLINDER_2
 10
0
 20
0
 30
0
 70
128
 71
130
 72
2
 73
134
 74
134
 0
VERTEX
 8
CYLINDER_2
 10
0
 20
0
 30
0
 70
128
 71
1
 72
131
 73
135
 74
135
 0
VERTEX
 8
CYLINDER_2
 10
0
 20
0
 30
0
 70
128
 71
132
 72
133
 73
137
 74
136
 0
VERTEX
 8
CYLINDER_2
 10
0
 20
0
 30
0
 70
128
 71
134
 72
2
 73
138
 74
138
 0
VERTEX
 8
CYLINDER_2
 10
0
 20
0
 30
0
 70
128
 71
1
 72
135
 73
139
 74
139
 0
VERTEX
 8
CYLINDER_2
 10
0
 20
0
 30
0
 70
128
 71
136
 72
137
 73
141
 74
140
 0
VERTEX
 8
CYLINDER_2
 10
0
 20
0
 30
0
 70
128
 71
138
 72
2
 73
142
 74
142
 0
VERTEX
 8
CYLINDER_2
 10
0
 20
0
 30
0
 70
128
 71
1
 72
139
 73
143
 74
143
 0
VERTEX
 8
CYLINDER_2
 10
0
 20
0
 30
0
 70
128
 71
140
 72
141
 73
145
 74
144
 0
VERTEX
 8
CYLINDER_2
 10
0
 20
0
 30
0
 70
128
 71
142
 72
2
 73
146
 74
146
 0
VERTEX
 8
CYLINDER_2
 10
0
 20
0
 30
0
 70
128
 71
1
 72
143
 73
3
 74
3
 0
VERTEX
 8
CYLINDER_2
 10
0
 20
0
 30
0
 70
128
 71
144
 72
145
 73
5
 74
4
 0
VERTEX
 8
CYLINDER_2
 10
0
 20
0
 30
0
 70
128
 71
146
 72
2
 73
6
 74
6
 0
SEQEND
 0
POLYLINE
 8
CYLINDER_1
 66
1
 10
0.0
 20
0.0
 30
0.0
 70
64
 71
146
 72
108
 0
VERTEX
 8
CYLINDER_1
 10
0.1764
 20
-0.1407
 30
0.263
 70
192
 0
VERTEX
 8
CYLINDER_1
 10
0.1764
 20
-0.1407
 30
0.2716
 70
192
 0
VERTEX
 8
CYLINDER_1
 10
0.1764
 20
-0.1057
 30
0.263
 70
192
 0
VERTEX
 8
CYLINDER_1
 10
0.1764
 20
-0.1057
 30
0.263
 70
192
 0
VERTEX
 8
CYLINDER_1
 10
0.1764
 20
-0.1057
 30
0.2716
 70
192
 0
VERTEX
 8
CYLINDER_1
 10
0.1764
 20
-0.1057
 30
0.2716
 70
192
 0
VERTEX
 8
CYLINDER_1
 10
0.1703
 20
-0.1063
 30
0.263
 70
192
 0
VERTEX
 8
CYLINDER_1
 10
0.1703
 20
-0.1063
 30
0.263
 70
192
 0
VERTEX
 8
CYLINDER_1
 10
0.1703
 20
-0.1063
 30
0.2716
 70
192
 0
VERTEX
 8
CYLINDER_1
 10
0.1703
 20
-0.1063
 30
0.2716
 70
192
 0
VERTEX
 8
CYLINDER_1
 10
0.1644
 20
-0.1078
 30
0.263
 70
192
 0
VERTEX
 8
CYLINDER_1
 10
0.1644
 20
-0.1078
 30
0.263
 70
192
 0
VERTEX
 8
CYLINDER_1
 10
0.1644
 20
-0.1078
 30
0.2716
 70
192
 0
VERTEX
 8
CYLINDER_1
 10
0.1644
 20
-0.1078
 30
0.2716
 70
192
 0
VERTEX
 8
CYLINDER_1
 10
0.1589
 20
-0.1104
 30
0.263
 70
192
 0
VERTEX
 8
CYLINDER_1
 10
0.1589
 20
-0.1104
 30
0.263
 70
192
 0
VERTEX
 8
CYLINDER_1
 10
0.1589
 20
-0.1104
 30
0.2716
 70
192
 0
VERTEX
 8
CYLINDER_1
 10
0.1589
 20
-0.1104
 30
0.2716
 70
192
 0
VERTEX
 8
CYLINDER_1
 10
0.1539
 20
-0.1139
 30
0.263
 70
192
 0
VERTEX
 8
CYLINDER_1
 10
0.1539
 20
-0.1139
 30
0.263
 70
192
 0
VERTEX
 8
CYLINDER_1
 10
0.1539
 20
-0.1139
 30
0.2716
 70
192
 0
VERTEX
 8
CYLINDER_1
 10
0.1539
 20
-0.1139
 30
0.2716
 70
192
 0
VERTEX
 8
CYLINDER_1
 10
0.1496
 20
-0.1182
 30
0.263
 70
192
 0
VERTEX
 8
CYLINDER_1
 10
0.1496
 20
-0.1182
 30
0.263
 70
192
 0
VERTEX
 8
CYLINDER_1
 10
0.1496
 20
-0.1182
 30
0.2716
 70
192
 0
VERTEX
 8
CYLINDER_1
 10
0.1496
 20
-0.1182
 30
0.2716
 70
192
 0
VERTEX
 8
CYLINDER_1
 10
0.1461
 20
-0.1232
 30
0.263
 70
192
 0
VERTEX
 8
CYLINDER_1
 10
0.1461
 20
-0.1232
 30
0.263
 70
192
 0
VERTEX
 8
CYLINDER_1
 10
0.1461
 20
-0.1232
 30
0.2716
 70
192
 0
VERTEX
 8
CYLINDER_1
 10
0.1461
 20
-0.1232
 30
0.2716
 70
192
 0
VERTEX
 8
CYLINDER_1
 10
0.1435
 20
-0.1287
 30
0.263
 70
192
 0
VERTEX
 8
CYLINDER_1
 10
0.1435
 20
-0.1287
 30
0.263
 70
192
 0
VERTEX
 8
CYLINDER_1
 10
0.1435
 20
-0.1287
 30
0.2716
 70
192
 0
VERTEX
 8
CYLINDER_1
 10
0.1435
 20
-0.1287
 30
0.2716
 70
192
 0
VERTEX
 8
CYLINDER_1
 10
0.142
 20
-0.1346
 30
0.263
 70
192
 0
VERTEX
 8
CYLINDER_1
 10
0.142
 20
-0.1346
 30
0.263
 70
192
 0
VERTEX
 8
CYLINDER_1
 10
0.142
 20
-0.1346
 30
0.2716
 70
192
 0
VERTEX
 8
CYLINDER_1
 10
0.142
 20
-0.1346
 30
0.2716
 70
192
 0
VERTEX
 8
CYLINDER_1
 10
0.1414
 20
-0.1407
 30
0.263
 70
192
 0
VERTEX
 8
CYLINDER_1
 10
0.1414
 20
-0.1407
 30
0.263
 70
192
 0
VERTEX
 8
CYLINDER_1
 10
0.1414
 20
-0.1407
 30
0.2716
 70
192
 0
VERTEX
 8
CYLINDER_1
 10
0.1414
 20
-0.1407
 30
0.2716
 70
192
 0
VERTEX
 8
CYLINDER_1
 10
0.142
 20
-0.1467
 30
0.263
 70
192
 0
VERTEX
 8
CYLINDER_1
 10
0.142
 20
-0.1467
 30
0.263
 70
192
 0
VERTEX
 8
CYLINDER_1
 10
0.142
 20
-0.1467
 30
0.2716
 70
192
 0
VERTEX
 8
CYLINDER_1
 10
0.142
 20
-0.1467
 30
0.2716
 70
192
 0
VERTEX
 8
CYLINDER_1
 10
0.1435
 20
-0.1526
 30
0.263
 70
192
 0
VERTEX
 8
CYLINDER_1
 10
0.1435
 20
-0.1526
 30
0.263
 70
192
 0
VERTEX
 8
CYLINDER_1
 10
0.1435
 20
-0.1526
 30
0.2716
 70
192
 0
VERTEX
 8
CYLINDER_1
 10
0.1435
 20
-0.1526
 30
0.2716
 70
192
 0
VERTEX
 8
CYLINDER_1
 10
0.1461
 20
-0.1582
 30
0.263
 70
192
 0
VERTEX
 8
CYLINDER_1
 10
0.1461
 20
-0.1582
 30
0.263
 70
192
 0
VERTEX
 8
CYLINDER_1
 10
0.1461
 20
-0.1582
 30
0.2716
 70
192
 0
VERTEX
 8
CYLINDER_1
 10
0.1461
 20
-0.1582
 30
0.2716
 70
192
 0
VERTEX
 8
CYLINDER_1
 10
0.1496
 20
-0.1631
 30
0.263
 70
192
 0
VERTEX
 8
CYLINDER_1
 10
0.1496
 20
-0.1631
 30
0.263
 70
192
 0
VERTEX
 8
CYLINDER_1
 10
0.1496
 20
-0.1631
 30
0.2716
 70
192
 0
VERTEX
 8
CYLINDER_1
 10
0.1496
 20
-0.1631
 30
0.2716
 70
192
 0
VERTEX
 8
CYLINDER_1
 10
0.1539
 20
-0.1674
 30
0.263
 70
192
 0
VERTEX
 8
CYLINDER_1
 10
0.1539
 20
-0.1674
 30
0.263
 70
192
 0
VERTEX
 8
CYLINDER_1
 10
0.1539
 20
-0.1674
 30
0.2716
 70
192
 0
VERTEX
 8
CYLINDER_1
 10
0.1539
 20
-0.1674
 30
0.2716
 70
192
 0
VERTEX
 8
CYLINDER_1
 10
0.1589
 20
-0.1709
 30
0.263
 70
192
 0
VERTEX
 8
CYLINDER_1
 10
0.1589
 20
-0.1709
 30
0.263
 70
192
 0
VERTEX
 8
CYLINDER_1
 10
0.1589
 20
-0.1709
 30
0.2716
 70
192
 0
VERTEX
 8
CYLINDER_1
 10
0.1589
 20
-0.1709
 30
0.2716
 70
192
 0
VERTEX
 8
CYLINDER_1
 10
0.1644
 20
-0.1735
 30
0.263
 70
192
 0
VERTEX
 8
CYLINDER_1
 10
0.1644
 20
-0.1735
 30
0.263
 70
192
 0
VERTEX
 8
CYLINDER_1
 10
0.1644
 20
-0.1735
 30
0.2716
 70
192
 0
VERTEX
 8
CYLINDER_1
 10
0.1644
 20
-0.1735
 30
0.2716
 70
192
 0
VERTEX
 8
CYLINDER_1
 10
0.1703
 20
-0.1751
 30
0.263
 70
192
 0
VERTEX
 8
CYLINDER_1
 10
0.1703
 20
-0.1751
 30
0.263
 70
192
 0
VERTEX
 8
CYLINDER_1
 10
0.1703
 20
-0.1751
 30
0.2716
 70
192
 0
VERTEX
 8
CYLINDER_1
 10
0.1703
 20
-0.1751
 30
0.2716
 70
192
 0
VERTEX
 8
CYLINDER_1
 10
0.1764
 20
-0.1756
 30
0.263
 70
192
 0
VERTEX
 8
CYLINDER_1
 10
0.1764
 20
-0.1756
 30
0.263
 70
192
 0
VERTEX
 8
CYLINDER_1
 10
0.1764
 20
-0.1756
 30
0.2716
 70
192
 0
VERTEX
 8
CYLINDER_1
 10
0.1764
 20
-0.1756
 30
0.2716
 70
192
 0
VERTEX
 8
CYLINDER_1
 10
0.1825
 20
-0.1751
 30
0.263
 70
192
 0
VERTEX
 8
CYLINDER_1
 10
0.1825
 20
-0.1751
 30
0.263
 70
192
 0
VERTEX
 8
CYLINDER_1
 10
0.1825
 20
-0.1751
 30
0.2716
 70
192
 0
VERTEX
 8
CYLINDER_1
 10
0.1825
 20
-0.1751
 30
0.2716
 70
192
 0
VERTEX
 8
CYLINDER_1
 10
0.1883
 20
-0.1735
 30
0.263
 70
192
 0
VERTEX
 8
CYLINDER_1
 10
0.1883
 20
-0.1735
 30
0.263
 70
192
 0
VERTEX
 8
CYLINDER_1
 10
0.1883
 20
-0.1735
 30
0.2716
 70
192
 0
VERTEX
 8
CYLINDER_1
 10
0.1883
 20
-0.1735
 30
0.2716
 70
192
 0
VERTEX
 8
CYLINDER_1
 10
0.1939
 20
-0.1709
 30
0.263
 70
192
 0
VERTEX
 8
CYLINDER_1
 10
0.1939
 20
-0.1709
 30
0.263
 70
192
 0
VERTEX
 8
CYLINDER_1
 10
0.1939
 20
-0.1709
 30
0.2716
 70
192
 0
VERTEX
 8
CYLINDER_1
 10
0.1939
 20
-0.1709
 30
0.2716
 70
192
 0
VERTEX
 8
CYLINDER_1
 10
0.1988
 20
-0.1674
 30
0.263
 70
192
 0
VERTEX
 8
CYLINDER_1
 10
0.1988
 20
-0.1674
 30
0.263
 70
192
 0
VERTEX
 8
CYLINDER_1
 10
0.1988
 20
-0.1674
 30
0.2716
 70
192
 0
VERTEX
 8
CYLINDER_1
 10
0.1988
 20
-0.1674
 30
0.2716
 70
192
 0
VERTEX
 8
CYLINDER_1
 10
0.2032
 20
-0.1631
 30
0.263
 70
192
 0
VERTEX
 8
CYLINDER_1
 10
0.2032
 20
-0.1631
 30
0.263
 70
192
 0
VERTEX
 8
CYLINDER_1
 10
0.2032
 20
-0.1631
 30
0.2716
 70
192
 0
VERTEX
 8
CYLINDER_1
 10
0.2032
 20
-0.1631
 30
0.2716
 70
192
 0
VERTEX
 8
CYLINDER_1
 10
0.2066
 20
-0.1582
 30
0.263
 70
192
 0
VERTEX
 8
CYLINDER_1
 10
0.2066
 20
-0.1582
 30
0.263
 70
192
 0
VERTEX
 8
CYLINDER_1
 10
0.2066
 20
-0.1582
 30
0.2716
 70
192
 0
VERTEX
 8
CYLINDER_1
 10
0.2066
 20
-0.1582
 30
0.2716
 70
192
 0
VERTEX
 8
CYLINDER_1
 10
0.2092
 20
-0.1526
 30
0.263
 70
192
 0
VERTEX
 8
CYLINDER_1
 10
0.2092
 20
-0.1526
 30
0.263
 70
192
 0
VERTEX
 8
CYLINDER_1
 10
0.2092
 20
-0.1526
 30
0.2716
 70
192
 0
VERTEX
 8
CYLINDER_1
 10
0.2092
 20
-0.1526
 30
0.2716
 70
192
 0
VERTEX
 8
CYLINDER_1
 10
0.2108
 20
-0.1467
 30
0.263
 70
192
 0
VERTEX
 8
CYLINDER_1
 10
0.2108
 20
-0.1467
 30
0.263
 70
192
 0
VERTEX
 8
CYLINDER_1
 10
0.2108
 20
-0.1467
 30
0.2716
 70
192
 0
VERTEX
 8
CYLINDER_1
 10
0.2108
 20
-0.1467
 30
0.2716
 70
192
 0
VERTEX
 8
CYLINDER_1
 10
0.2113
 20
-0.1407
 30
0.263
 70
192
 0
VERTEX
 8
CYLINDER_1
 10
0.2113
 20
-0.1407
 30
0.263
 70
192
 0
VERTEX
 8
CYLINDER_1
 10
0.2113
 20
-0.1407
 30
0.2716
 70
192
 0
VERTEX
 8
CYLINDER_1
 10
0.2113
 20
-0.1407
 30
0.2716
 70
192
 0
VERTEX
 8
CYLINDER_1
 10
0.2108
 20
-0.1346
 30
0.263
 70
192
 0
VERTEX
 8
CYLINDER_1
 10
0.2108
 20
-0.1346
 30
0.263
 70
192
 0
VERTEX
 8
CYLINDER_1
 10
0.2108
 20
-0.1346
 30
0.2716
 70
192
 0
VERTEX
 8
CYLINDER_1
 10
0.2108
 20
-0.1346
 30
0.2716
 70
192
 0
VERTEX
 8
CYLINDER_1
 10
0.2092
 20
-0.1287
 30
0.263
 70
192
 0
VERTEX
 8
CYLINDER_1
 10
0.2092
 20
-0.1287
 30
0.263
 70
192
 0
VERTEX
 8
CYLINDER_1
 10
0.2092
 20
-0.1287
 30
0.2716
 70
192
 0
VERTEX
 8
CYLINDER_1
 10
0.2092
 20
-0.1287
 30
0.2716
 70
192
 0
VERTEX
 8
CYLINDER_1
 10
0.2066
 20
-0.1232
 30
0.263
 70
192
 0
VERTEX
 8
CYLINDER_1
 10
0.2066
 20
-0.1232
 30
0.263
 70
192
 0
VERTEX
 8
CYLINDER_1
 10
0.2066
 20
-0.1232
 30
0.2716
 70
192
 0
VERTEX
 8
CYLINDER_1
 10
0.2066
 20
-0.1232
 30
0.2716
 70
192
 0
VERTEX
 8
CYLINDER_1
 10
0.2032
 20
-0.1182
 30
0.263
 70
192
 0
VERTEX
 8
CYLINDER_1
 10
0.2032
 20
-0.1182
 30
0.263
 70
192
 0
VERTEX
 8
CYLINDER_1
 10
0.2032
 20
-0.1182
 30
0.2716
 70
192
 0
VERTEX
 8
CYLINDER_1
 10
0.2032
 20
-0.1182
 30
0.2716
 70
192
 0
VERTEX
 8
CYLINDER_1
 10
0.1988
 20
-0.1139
 30
0.263
 70
192
 0
VERTEX
 8
CYLINDER_1
 10
0.1988
 20
-0.1139
 30
0.263
 70
192
 0
VERTEX
 8
CYLINDER_1
 10
0.1988
 20
-0.1139
 30
0.2716
 70
192
 0
VERTEX
 8
CYLINDER_1
 10
0.1988
 20
-0.1139
 30
0.2716
 70
192
 0
VERTEX
 8
CYLINDER_1
 10
0.1939
 20
-0.1104
 30
0.263
 70
192
 0
VERTEX
 8
CYLINDER_1
 10
0.1939
 20
-0.1104
 30
0.263
 70
192
 0
VERTEX
 8
CYLINDER_1
 10
0.1939
 20
-0.1104
 30
0.2716
 70
192
 0
VERTEX
 8
CYLINDER_1
 10
0.1939
 20
-0.1104
 30
0.2716
 70
192
 0
VERTEX
 8
CYLINDER_1
 10
0.1883
 20
-0.1078
 30
0.263
 70
192
 0
VERTEX
 8
CYLINDER_1
 10
0.1883
 20
-0.1078
 30
0.263
 70
192
 0
VERTEX
 8
CYLINDER_1
 10
0.1883
 20
-0.1078
 30
0.2716
 70
192
 0
VERTEX
 8
CYLINDER_1
 10
0.1883
 20
-0.1078
 30
0.2716
 70
192
 0
VERTEX
 8
CYLINDER_1
 10
0.1825
 20
-0.1063
 30
0.263
 70
192
 0
VERTEX
 8
CYLINDER_1
 10
0.1825
 20
-0.1063
 30
0.263
 70
192
 0
VERTEX
 8
CYLINDER_1
 10
0.1825
 20
-0.1063
 30
0.2716
 70
192
 0
VERTEX
 8
CYLINDER_1
 10
0.1825
 20
-0.1063
 30
0.2716
 70
192
 0
VERTEX
 8
CYLINDER_1
 10
0
 20
0
 30
0
 70
128
 71
1
 72
3
 73
7
 74
7
 0
VERTEX
 8
CYLINDER_1
 10
0
 20
0
 30
0
 70
128
 71
4
 72
5
 73
9
 74
8
 0
VERTEX
 8
CYLINDER_1
 10
0
 20
0
 30
0
 70
128
 71
6
 72
2
 73
10
 74
10
 0
VERTEX
 8
CYLINDER_1
 10
0
 20
0
 30
0
 70
128
 71
1
 72
7
 73
11
 74
11
 0
VERTEX
 8
CYLINDER_1
 10
0
 20
0
 30
0
 70
128
 71
8
 72
9
 73
13
 74
12
 0
VERTEX
 8
CYLINDER_1
 10
0
 20
0
 30
0
 70
128
 71
10
 72
2
 73
14
 74
14
 0
VERTEX
 8
CYLINDER_1
 10
0
 20
0
 30
0
 70
128
 71
1
 72
11
 73
15
 74
15
 0
VERTEX
 8
CYLINDER_1
 10
0
 20
0
 30
0
 70
128
 71
12
 72
13
 73
17
 74
16
 0
VERTEX
 8
CYLINDER_1
 10
0
 20
0
 30
0
 70
128
 71
14
 72
2
 73
18
 74
18
 0
VERTEX
 8
CYLINDER_1
 10
0
 20
0
 30
0
 70
128
 71
1
 72
15
 73
19
 74
19
 0
VERTEX
 8
CYLINDER_1
 10
0
 20
0
 30
0
 70
128
 71
16
 72
17
 73
21
 74
20
 0
VERTEX
 8
CYLINDER_1
 10
0
 20
0
 30
0
 70
128
 71
18
 72
2
 73
22
 74
22
 0
VERTEX
 8
CYLINDER_1
 10
0
 20
0
 30
0
 70
128
 71
1
 72
19
 73
23
 74
23
 0
VERTEX
 8
CYLINDER_1
 10
0
 20
0
 30
0
 70
128
 71
20
 72
21
 73
25
 74
24
 0
VERTEX
 8
CYLINDER_1
 10
0
 20
0
 30
0
 70
128
 71
22
 72
2
 73
26
 74
26
 0
VERTEX
 8
CYLINDER_1
 10
0
 20
0
 30
0
 70
128
 71
1
 72
23
 73
27
 74
27
 0
VERTEX
 8
CYLINDER_1
 10
0
 20
0
 30
0
 70
128
 71
24
 72
25
 73
29
 74
28
 0
VERTEX
 8
CYLINDER_1
 10
0
 20
0
 30
0
 70
128
 71
26
 72
2
 73
30
 74
30
 0
VERTEX
 8
CYLINDER_1
 10
0
 20
0
 30
0
 70
128
 71
1
 72
27
 73
31
 74
31
 0
VERTEX
 8
CYLINDER_1
 10
0
 20
0
 30
0
 70
128
 71
28
 72
29
 73
33
 74
32
 0
VERTEX
 8
CYLINDER_1
 10
0
 20
0
 30
0
 70
128
 71
30
 72
2
 73
34
 74
34
 0
VERTEX
 8
CYLINDER_1
 10
0
 20
0
 30
0
 70
128
 71
1
 72
31
 73
35
 74
35
 0
VERTEX
 8
CYLINDER_1
 10
0
 20
0
 30
0
 70
128
 71
32
 72
33
 73
37
 74
36
 0
VERTEX
 8
CYLINDER_1
 10
0
 20
0
 30
0
 70
128
 71
34
 72
2
 73
38
 74
38
 0
VERTEX
 8
CYLINDER_1
 10
0
 20
0
 30
0
 70
128
 71
1
 72
35
 73
39
 74
39
 0
VERTEX
 8
CYLINDER_1
 10
0
 20
0
 30
0
 70
128
 71
36
 72
37
 73
41
 74
40
 0
VERTEX
 8
CYLINDER_1
 10
0
 20
0
 30
0
 70
128
 71
38
 72
2
 73
42
 74
42
 0
VERTEX
 8
CYLINDER_1
 10
0
 20
0
 30
0
 70
128
 71
1
 72
39
 73
43
 74
43
 0
VERTEX
 8
CYLINDER_1
 10
0
 20
0
 30
0
 70
128
 71
40
 72
41
 73
45
 74
44
 0
VERTEX
 8
CYLINDER_1
 10
0
 20
0
 30
0
 70
128
 71
42
 72
2
 73
46
 74
46
 0
VERTEX
 8
CYLINDER_1
 10
0
 20
0
 30
0
 70
128
 71
1
 72
43
 73
47
 74
47
 0
VERTEX
 8
CYLINDER_1
 10
0
 20
0
 30
0
 70
128
 71
44
 72
45
 73
49
 74
48
 0
VERTEX
 8
CYLINDER_1
 10
0
 20
0
 30
0
 70
128
 71
46
 72
2
 73
50
 74
50
 0
VERTEX
 8
CYLINDER_1
 10
0
 20
0
 30
0
 70
128
 71
1
 72
47
 73
51
 74
51
 0
VERTEX
 8
CYLINDER_1
 10
0
 20
0
 30
0
 70
128
 71
48
 72
49
 73
53
 74
52
 0
VERTEX
 8
CYLINDER_1
 10
0
 20
0
 30
0
 70
128
 71
50
 72
2
 73
54
 74
54
 0
VERTEX
 8
CYLINDER_1
 10
0
 20
0
 30
0
 70
128
 71
1
 72
51
 73
55
 74
55
 0
VERTEX
 8
CYLINDER_1
 10
0
 20
0
 30
0
 70
128
 71
52
 72
53
 73
57
 74
56
 0
VERTEX
 8
CYLINDER_1
 10
0
 20
0
 30
0
 70
128
 71
54
 72
2
 73
58
 74
58
 0
VERTEX
 8
CYLINDER_1
 10
0
 20
0
 30
0
 70
128
 71
1
 72
55
 73
59
 74
59
 0
VERTEX
 8
CYLINDER_1
 10
0
 20
0
 30
0
 70
128
 71
56
 72
57
 73
61
 74
60
 0
VERTEX
 8
CYLINDER_1
 10
0
 20
0
 30
0
 70
128
 71
58
 72
2
 73
62
 74
62
 0
VERTEX
 8
CYLINDER_1
 10
0
 20
0
 30
0
 70
128
 71
1
 72
59
 73
63
 74
63
 0
VERTEX
 8
CYLINDER_1
 10
0
 20
0
 30
0
 70
128
 71
60
 72
61
 73
65
 74
64
 0
VERTEX
 8
CYLINDER_1
 10
0
 20
0
 30
0
 70
128
 71
62
 72
2
 73
66
 74
66
 0
VERTEX
 8
CYLINDER_1
 10
0
 20
0
 30
0
 70
128
 71
1
 72
63
 73
67
 74
67
 0
VERTEX
 8
CYLINDER_1
 10
0
 20
0
 30
0
 70
128
 71
64
 72
65
 73
69
 74
68
 0
VERTEX
 8
CYLINDER_1
 10
0
 20
0
 30
0
 70
128
 71
66
 72
2
 73
70
 74
70
 0
VERTEX
 8
CYLINDER_1
 10
0
 20
0
 30
0
 70
128
 71
1
 72
67
 73
71
 74
71
 0
VERTEX
 8
CYLINDER_1
 10
0
 20
0
 30
0
 70
128
 71
68
 72
69
 73
73
 74
72
 0
VERTEX
 8
CYLINDER_1
 10
0
 20
0
 30
0
 70
128
 71
70
 72
2
 73
74
 74
74
 0
VERTEX
 8
CYLINDER_1
 10
0
 20
0
 30
0
 70
128
 71
1
 72
71
 73
75
 74
75
 0
VERTEX
 8
CYLINDER_1
 10
0
 20
0
 30
0
 70
128
 71
72
 72
73
 73
77
 74
76
 0
VERTEX
 8
CYLINDER_1
 10
0
 20
0
 30
0
 70
128
 71
74
 72
2
 73
78
 74
78
 0
VERTEX
 8
CYLINDER_1
 10
0
 20
0
 30
0
 70
128
 71
1
 72
75
 73
79
 74
79
 0
VERTEX
 8
CYLINDER_1
 10
0
 20
0
 30
0
 70
128
 71
76
 72
77
 73
81
 74
80
 0
VERTEX
 8
CYLINDER_1
 10
0
 20
0
 30
0
 70
128
 71
78
 72
2
 73
82
 74
82
 0
VERTEX
 8
CYLINDER_1
 10
0
 20
0
 30
0
 70
128
 71
1
 72
79
 73
83
 74
83
 0
VERTEX
 8
CYLINDER_1
 10
0
 20
0
 30
0
 70
128
 71
80
 72
81
 73
85
 74
84
 0
VERTEX
 8
CYLINDER_1
 10
0
 20
0
 30
0
 70
128
 71
82
 72
2
 73
86
 74
86
 0
VERTEX
 8
CYLINDER_1
 10
0
 20
0
 30
0
 70
128
 71
1
 72
83
 73
87
 74
87
 0
VERTEX
 8
CYLINDER_1
 10
0
 20
0
 30
0
 70
128
 71
84
 72
85
 73
89
 74
88
 0
VERTEX
 8
CYLINDER_1
 10
0
 20
0
 30
0
 70
128
 71
86
 72
2
 73
90
 74
90
 0
VERTEX
 8
CYLINDER_1
 10
0
 20
0
 30
0
 70
128
 71
1
 72
87
 73
91
 74
91
 0
VERTEX
 8
CYLINDER_1
 10
0
 20
0
 30
0
 70
128
 71
88
 72
89
 73
93
 74
92
 0
VERTEX
 8
CYLINDER_1
 10
0
 20
0
 30
0
 70
128
 71
90
 72
2
 73
94
 74
94
 0
VERTEX
 8
CYLINDER_1
 10
0
 20
0
 30
0
 70
128
 71
1
 72
91
 73
95
 74
95
 0
VERTEX
 8
CYLINDER_1
 10
0
 20
0
 30
0
 70
128
 71
92
 72
93
 73
97
 74
96
 0
VERTEX
 8
CYLINDER_1
 10
0
 20
0
 30
0
 70
128
 71
94
 72
2
 73
98
 74
98
 0
VERTEX
 8
CYLINDER_1
 10
0
 20
0
 30
0
 70
128
 71
1
 72
95
 73
99
 74
99
 0
VERTEX
 8
CYLINDER_1
 10
0
 20
0
 30
0
 70
128
 71
96
 72
97
 73
101
 74
100
 0
VERTEX
 8
CYLINDER_1
 10
0
 20
0
 30
0
 70
128
 71
98
 72
2
 73
102
 74
102
 0
VERTEX
 8
CYLINDER_1
 10
0
 20
0
 30
0
 70
128
 71
1
 72
99
 73
103
 74
103
 0
VERTEX
 8
CYLINDER_1
 10
0
 20
0
 30
0
 70
128
 71
100
 72
101
 73
105
 74
104
 0
VERTEX
 8
CYLINDER_1
 10
0
 20
0
 30
0
 70
128
 71
102
 72
2
 73
106
 74
106
 0
VERTEX
 8
CYLINDER_1
 10
0
 20
0
 30
0
 70
128
 71
1
 72
103
 73
107
 74
107
 0
VERTEX
 8
CYLINDER_1
 10
0
 20
0
 30
0
 70
128
 71
104
 72
105
 73
109
 74
108
 0
VERTEX
 8
CYLINDER_1
 10
0
 20
0
 30
0
 70
128
 71
106
 72
2
 73
110
 74
110
 0
VERTEX
 8
CYLINDER_1
 10
0
 20
0
 30
0
 70
128
 71
1
 72
107
 73
111
 74
111
 0
VERTEX
 8
CYLINDER_1
 10
0
 20
0
 30
0
 70
128
 71
108
 72
109
 73
113
 74
112
 0
VERTEX
 8
CYLINDER_1
 10
0
 20
0
 30
0
 70
128
 71
110
 72
2
 73
114
 74
114
 0
VERTEX
 8
CYLINDER_1
 10
0
 20
0
 30
0
 70
128
 71
1
 72
111
 73
115
 74
115
 0
VERTEX
 8
CYLINDER_1
 10
0
 20
0
 30
0
 70
128
 71
112
 72
113
 73
117
 74
116
 0
VERTEX
 8
CYLINDER_1
 10
0
 20
0
 30
0
 70
128
 71
114
 72
2
 73
118
 74
118
 0
VERTEX
 8
CYLINDER_1
 10
0
 20
0
 30
0
 70
128
 71
1
 72
115
 73
119
 74
119
 0
VERTEX
 8
CYLINDER_1
 10
0
 20
0
 30
0
 70
128
 71
116
 72
117
 73
121
 74
120
 0
VERTEX
 8
CYLINDER_1
 10
0
 20
0
 30
0
 70
128
 71
118
 72
2
 73
122
 74
122
 0
VERTEX
 8
CYLINDER_1
 10
0
 20
0
 30
0
 70
128
 71
1
 72
119
 73
123
 74
123
 0
VERTEX
 8
CYLINDER_1
 10
0
 20
0
 30
0
 70
128
 71
120
 72
121
 73
125
 74
124
 0
VERTEX
 8
CYLINDER_1
 10
0
 20
0
 30
0
 70
128
 71
122
 72
2
 73
126
 74
126
 0
VERTEX
 8
CYLINDER_1
 10
0
 20
0
 30
0
 70
128
 71
1
 72
123
 73
127
 74
127
 0
VERTEX
 8
CYLINDER_1
 10
0
 20
0
 30
0
 70
128
 71
124
 72
125
 73
129
 74
128
 0
VERTEX
 8
CYLINDER_1
 10
0
 20
0
 30
0
 70
128
 71
126
 72
2
 73
130
 74
130
 0
VERTEX
 8
CYLINDER_1
 10
0
 20
0
 30
0
 70
128
 71
1
 72
127
 73
131
 74
131
 0
VERTEX
 8
CYLINDER_1
 10
0
 20
0
 30
0
 70
128
 71
128
 72
129
 73
133
 74
132
 0
VERTEX
 8
CYLINDER_1
 10
0
 20
0
 30
0
 70
128
 71
130
 72
2
 73
134
 74
134
 0
VERTEX
 8
CYLINDER_1
 10
0
 20
0
 30
0
 70
128
 71
1
 72
131
 73
135
 74
135
 0
VERTEX
 8
CYLINDER_1
 10
0
 20
0
 30
0
 70
128
 71
132
 72
133
 73
137
 74
136
 0
VERTEX
 8
CYLINDER_1
 10
0
 20
0
 30
0
 70
128
 71
134
 72
2
 73
138
 74
138
 0
VERTEX
 8
CYLINDER_1
 10
0
 20
0
 30
0
 70
128
 71
1
 72
135
 73
139
 74
139
 0
VERTEX
 8
CYLINDER_1
 10
0
 20
0
 30
0
 70
128
 71
136
 72
137
 73
141
 74
140
 0
VERTEX
 8
CYLINDER_1
 10
0
 20
0
 30
0
 70
128
 71
138
 72
2
 73
142
 74
142
 0
VERTEX
 8
CYLINDER_1
 10
0
 20
0
 30
0
 70
128
 71
1
 72
139
 73
143
 74
143
 0
VERTEX
 8
CYLINDER_1
 10
0
 20
0
 30
0
 70
128
 71
140
 72
141
 73
145
 74
144
 0
VERTEX
 8
CYLINDER_1
 10
0
 20
0
 30
0
 70
128
 71
142
 72
2
 73
146
 74
146
 0
VERTEX
 8
CYLINDER_1
 10
0
 20
0
 30
0
 70
128
 71
1
 72
143
 73
3
 74
3
 0
VERTEX
 8
CYLINDER_1
 10
0
 20
0
 30
0
 70
128
 71
144
 72
145
 73
5
 74
4
 0
VERTEX
 8
CYLINDER_1
 10
0
 20
0
 30
0
 70
128
 71
146
 72
2
 73
6
 74
6
 0
SEQEND
 0
POLYLINE
 8
LOFT_1
 66
1
 10
0.0
 20
0.0
 30
0.0
 70
64
 71
319
 72
290
 0
VERTEX
 8
LOFT_1
 10
0.1769
 20
-0.1383
 30
0.0124
 70
192
 0
VERTEX
 8
LOFT_1
 10
0.174
 20
-0.1386
 30
0.0124
 70
192
 0
VERTEX
 8
LOFT_1
 10
0.1714
 20
-0.1396
 30
0.0124
 70
192
 0
VERTEX
 8
LOFT_1
 10
0.169
 20
-0.141
 30
0.0124
 70
192
 0
VERTEX
 8
LOFT_1
 10
0.167
 20
-0.1429
 30
0.0124
 70
192
 0
VERTEX
 8
LOFT_1
 10
0.1655
 20
-0.1452
 30
0.0124
 70
192
 0
VERTEX
 8
LOFT_1
 10
0.1644
 20
-0.1477
 30
0.0124
 70
192
 0
VERTEX
 8
LOFT_1
 10
0.1639
 20
-0.1506
 30
0.0124
 70
192
 0
VERTEX
 8
LOFT_1
 10
0.1641
 20
-0.1535
 30
0.0124
 70
192
 0
VERTEX
 8
LOFT_1
 10
0.1649
 20
-0.1562
 30
0.0124
 70
192
 0
VERTEX
 8
LOFT_1
 10
0.1662
 20
-0.1587
 30
0.0124
 70
192
 0
VERTEX
 8
LOFT_1
 10
0.168
 20
-0.1608
 30
0.0124
 70
192
 0
VERTEX
 8
LOFT_1
 10
0.1702
 20
-0.1624
 30
0.0124
 70
192
 0
VERTEX
 8
LOFT_1
 10
0.1727
 20
-0.1636
 30
0.0124
 70
192
 0
VERTEX
 8
LOFT_1
 10
0.1755
 20
-0.1642
 30
0.0124
 70
192
 0
VERTEX
 8
LOFT_1
 10
0.1784
 20
-0.1642
 30
0.0124
 70
192
 0
VERTEX
 8
LOFT_1
 10
0.1812
 20
-0.1636
 30
0.0124
 70
192
 0
VERTEX
 8
LOFT_1
 10
0.1837
 20
-0.1624
 30
0.0124
 70
192
 0
VERTEX
 8
LOFT_1
 10
0.1859
 20
-0.1608
 30
0.0124
 70
192
 0
VERTEX
 8
LOFT_1
 10
0.1877
 20
-0.1587
 30
0.0124
 70
192
 0
VERTEX
 8
LOFT_1
 10
0.189
 20
-0.1562
 30
0.0124
 70
192
 0
VERTEX
 8
LOFT_1
 10
0.1897
 20
-0.1535
 30
0.0124
 70
192
 0
VERTEX
 8
LOFT_1
 10
0.1899
 20
-0.1506
 30
0.0124
 70
192
 0
VERTEX
 8
LOFT_1
 10
0.1894
 20
-0.1477
 30
0.0124
 70
192
 0
VERTEX
 8
LOFT_1
 10
0.1884
 20
-0.1452
 30
0.0124
 70
192
 0
VERTEX
 8
LOFT_1
 10
0.1868
 20
-0.1429
 30
0.0124
 70
192
 0
VERTEX
 8
LOFT_1
 10
0.1848
 20
-0.141
 30
0.0124
 70
192
 0
VERTEX
 8
LOFT_1
 10
0.1825
 20
-0.1396
 30
0.0124
 70
192
 0
VERTEX
 8
LOFT_1
 10
0.1798
 20
-0.1386
 30
0.0124
 70
192
 0
VERTEX
 8
LOFT_1
 10
0.1769
 20
-0.136
 30
0.0377
 70
192
 0
VERTEX
 8
LOFT_1
 10
0.1738
 20
-0.1364
 30
0.0377
 70
192
 0
VERTEX
 8
LOFT_1
 10
0.1709
 20
-0.1374
 30
0.0377
 70
192
 0
VERTEX
 8
LOFT_1
 10
0.1683
 20
-0.1389
 30
0.0377
 70
192
 0
VERTEX
 8
LOFT_1
 10
0.1661
 20
-0.141
 30
0.0377
 70
192
 0
VERTEX
 8
LOFT_1
 10
0.1644
 20
-0.1435
 30
0.0377
 70
192
 0
VERTEX
 8
LOFT_1
 10
0.1633
 20
-0.1463
 30
0.0377
 70
192
 0
VERTEX
 8
LOFT_1
 10
0.1627
 20
-0.1494
 30
0.0377
 70
192
 0
VERTEX
 8
LOFT_1
 10
0.1629
 20
-0.1526
 30
0.0377
 70
192
 0
VERTEX
 8
LOFT_1
 10
0.1638
 20
-0.1556
 30
0.0377
 70
192
 0
VERTEX
 8
LOFT_1
 10
0.1652
 20
-0.1583
 30
0.0377
 70
192
 0
VERTEX
 8
LOFT_1
 10
0.1671
 20
-0.1605
 30
0.0377
 70
192
 0
VERTEX
 8
LOFT_1
 10
0.1695
 20
-0.1624
 30
0.0377
 70
192
 0
VERTEX
 8
LOFT_1
 10
0.1723
 20
-0.1637
 30
0.0377
 70
192
 0
VERTEX
 8
LOFT_1
 10
0.1753
 20
-0.1643
 30
0.0377
 70
192
 0
VERTEX
 8
LOFT_1
 10
0.1785
 20
-0.1643
 30
0.0377
 70
192
 0
VERTEX
 8
LOFT_1
 10
0.1816
 20
-0.1637
 30
0.0377
 70
192
 0
VERTEX
 8
LOFT_1
 10
0.1843
 20
-0.1624
 30
0.0377
 70
192
 0
VERTEX
 8
LOFT_1
 10
0.1867
 20
-0.1605
 30
0.0377
 70
192
 0
VERTEX
 8
LOFT_1
 10
0.1886
 20
-0.1583
 30
0.0377
 70
192
 0
VERTEX
 8
LOFT_1
 10
0.1901
 20
-0.1556
 30
0.0377
 70
192
 0
VERTEX
 8
LOFT_1
 10
0.1909
 20
-0.1526
 30
0.0377
 70
192
 0
VERTEX
 8
LOFT_1
 10
0.1911
 20
-0.1494
 30
0.0377
 70
192
 0
VERTEX
 8
LOFT_1
 10
0.1906
 20
-0.1463
 30
0.0377
 70
192
 0
VERTEX
 8
LOFT_1
 10
0.1894
 20
-0.1435
 30
0.0377
 70
192
 0
VERTEX
 8
LOFT_1
 10
0.1877
 20
-0.141
 30
0.0377
 70
192
 0
VERTEX
 8
LOFT_1
 10
0.1856
 20
-0.1389
 30
0.0377
 70
192
 0
VERTEX
 8
LOFT_1
 10
0.183
 20
-0.1374
 30
0.0377
 70
192
 0
VERTEX
 8
LOFT_1
 10
0.1801
 20
-0.1364
 30
0.0377
 70
192
 0
VERTEX
 8
LOFT_1
 10
0.1769
 20
-0.1337
 30
0.0629
 70
192
 0
VERTEX
 8
LOFT_1
 10
0.1735
 20
-0.1341
 30
0.0629
 70
192
 0
VERTEX
 8
LOFT_1
 10
0.1704
 20
-0.1352
 30
0.0629
 70
192
 0
VERTEX
 8
LOFT_1
 10
0.1676
 20
-0.1369
 30
0.0629
 70
192
 0
VERTEX
 8
LOFT_1
 10
0.1652
 20
-0.1391
 30
0.0629
 70
192
 0
VERTEX
 8
LOFT_1
 10
0.1634
 20
-0.1418
 30
0.0629
 70
192
 0
VERTEX
 8
LOFT_1
 10
0.1621
 20
-0.1449
 30
0.0629
 70
192
 0
VERTEX
 8
LOFT_1
 10
0.1615
 20
-0.1483
 30
0.0629
 70
192
 0
VERTEX
 8
LOFT_1
 10
0.1617
 20
-0.1517
 30
0.0629
 70
192
 0
VERTEX
 8
LOFT_1
 10
0.1627
 20
-0.1549
 30
0.0629
 70
192
 0
VERTEX
 8
LOFT_1
 10
0.1642
 20
-0.1578
 30
0.0629
 70
192
 0
VERTEX
 8
LOFT_1
 10
0.1663
 20
-0.1603
 30
0.0629
 70
192
 0
VERTEX
 8
LOFT_1
 10
0.1689
 20
-0.1623
 30
0.0629
 70
192
 0
VERTEX
 8
LOFT_1
 10
0.1719
 20
-0.1637
 30
0.0629
 70
192
 0
VERTEX
 8
LOFT_1
 10
0.1752
 20
-0.1644
 30
0.0629
 70
192
 0
VERTEX
 8
LOFT_1
 10
0.1787
 20
-0.1644
 30
0.0629
 70
192
 0
VERTEX
 8
LOFT_1
 10
0.182
 20
-0.1637
 30
0.0629
 70
192
 0
VERTEX
 8
LOFT_1
 10
0.1849
 20
-0.1623
 30
0.0629
 70
192
 0
VERTEX
 8
LOFT_1
 10
0.1875
 20
-0.1603
 30
0.0629
 70
192
 0
VERTEX
 8
LOFT_1
 10
0.1896
 20
-0.1578
 30
0.0629
 70
192
 0
VERTEX
 8
LOFT_1
 10
0.1912
 20
-0.1549
 30
0.0629
 70
192
 0
VERTEX
 8
LOFT_1
 10
0.1921
 20
-0.1517
 30
0.0629
 70
192
 0
VERTEX
 8
LOFT_1
 10
0.1923
 20
-0.1483
 30
0.0629
 70
192
 0
VERTEX
 8
LOFT_1
 10
0.1917
 20
-0.1449
 30
0.0629
 70
192
 0
VERTEX
 8
LOFT_1
 10
0.1905
 20
-0.1418
 30
0.0629
 70
192
 0
VERTEX
 8
LOFT_1
 10
0.1886
 20
-0.1391
 30
0.0629
 70
192
 0
VERTEX
 8
LOFT_1
 10
0.1863
 20
-0.1369
 30
0.0629
 70
192
 0
VERTEX
 8
LOFT_1
 10
0.1835
 20
-0.1352
 30
0.0629
 70
192
 0
VERTEX
 8
LOFT_1
 10
0.1803
 20
-0.1341
 30
0.0629
 70
192
 0
VERTEX
 8
LOFT_1
 10
0.1769
 20
-0.1314
 30
0.0882
 70
192
 0
VERTEX
 8
LOFT_1
 10
0.1732
 20
-0.1319
 30
0.0882
 70
192
 0
VERTEX
 8
LOFT_1
 10
0.1698
 20
-0.133
 30
0.0882
 70
192
 0
VERTEX
 8
LOFT_1
 10
0.1668
 20
-0.1349
 30
0.0882
 70
192
 0
VERTEX
 8
LOFT_1
 10
0.1643
 20
-0.1373
 30
0.0882
 70
192
 0
VERTEX
 8
LOFT_1
 10
0.1623
 20
-0.1402
 30
0.0882
 70
192
 0
VERTEX
 8
LOFT_1
 10
0.161
 20
-0.1435
 30
0.0882
 70
192
 0
VERTEX
 8
LOFT_1
 10
0.1604
 20
-0.1471
 30
0.0882
 70
192
 0
VERTEX
 8
LOFT_1
 10
0.1606
 20
-0.1508
 30
0.0882
 70
192
 0
VERTEX
 8
LOFT_1
 10
0.1615
 20
-0.1543
 30
0.0882
 70
192
 0
VERTEX
 8
LOFT_1
 10
0.1632
 20
-0.1574
 30
0.0882
 70
192
 0
VERTEX
 8
LOFT_1
 10
0.1655
 20
-0.1601
 30
0.0882
 70
192
 0
VERTEX
 8
LOFT_1
 10
0.1683
 20
-0.1622
 30
0.0882
 70
192
 0
VERTEX
 8
LOFT_1
 10
0.1715
 20
-0.1637
 30
0.0882
 70
192
 0
VERTEX
 8
LOFT_1
 10
0.1751
 20
-0.1645
 30
0.0882
 70
192
 0
VERTEX
 8
LOFT_1
 10
0.1788
 20
-0.1645
 30
0.0882
 70
192
 0
VERTEX
 8
LOFT_1
 10
0.1823
 20
-0.1637
 30
0.0882
 70
192
 0
VERTEX
 8
LOFT_1
 10
0.1856
 20
-0.1622
 30
0.0882
 70
192
 0
VERTEX
 8
LOFT_1
 10
0.1884
 20
-0.1601
 30
0.0882
 70
192
 0
VERTEX
 8
LOFT_1
 10
0.1906
 20
-0.1574
 30
0.0882
 70
192
 0
VERTEX
 8
LOFT_1
 10
0.1923
 20
-0.1543
 30
0.0882
 70
192
 0
VERTEX
 8
LOFT_1
 10
0.1933
 20
-0.1508
 30
0.0882
 70
192
 0
VERTEX
 8
LOFT_1
 10
0.1935
 20
-0.1471
 30
0.0882
 70
192
 0
VERTEX
 8
LOFT_1
 10
0.1929
 20
-0.1435
 30
0.0882
 70
192
 0
VERTEX
 8
LOFT_1
 10
0.1916
 20
-0.1402
 30
0.0882
 70
192
 0
VERTEX
 8
LOFT_1
 10
0.1896
 20
-0.1373
 30
0.0882
 70
192
 0
VERTEX
 8
LOFT_1
 10
0.187
 20
-0.1349
 30
0.0882
 70
192
 0
VERTEX
 8
LOFT_1
 10
0.184
 20
-0.133
 30
0.0882
 70
192
 0
VERTEX
 8
LOFT_1
 10
0.1806
 20
-0.1319
 30
0.0882
 70
192
 0
VERTEX
 8
LOFT_1
 10
0.1769
 20
-0.1292
 30
0.1134
 70
192
 0
VERTEX
 8
LOFT_1
 10
0.173
 20
-0.1296
 30
0.1134
 70
192
 0
VERTEX
 8
LOFT_1
 10
0.1693
 20
-0.1308
 30
0.1134
 70
192
 0
VERTEX
 8
LOFT_1
 10
0.1661
 20
-0.1328
 30
0.1134
 70
192
 0
VERTEX
 8
LOFT_1
 10
0.1634
 20
-0.1354
 30
0.1134
 70
192
 0
VERTEX
 8
LOFT_1
 10
0.1612
 20
-0.1385
 30
0.1134
 70
192
 0
VERTEX
 8
LOFT_1
 10
0.1598
 20
-0.1421
 30
0.1134
 70
192
 0
VERTEX
 8
LOFT_1
 10
0.1592
 20
-0.1459
 30
0.1134
 70
192
 0
VERTEX
 8
LOFT_1
 10
0.1594
 20
-0.1499
 30
0.1134
 70
192
 0
VERTEX
 8
LOFT_1
 10
0.1604
 20
-0.1537
 30
0.1134
 70
192
 0
VERTEX
 8
LOFT_1
 10
0.1622
 20
-0.157
 30
0.1134
 70
192
 0
VERTEX
 8
LOFT_1
 10
0.1647
 20
-0.1599
 30
0.1134
 70
192
 0
VERTEX
 8
LOFT_1
 10
0.1677
 20
-0.1622
 30
0.1134
 70
192
 0
VERTEX
 8
LOFT_1
 10
0.1711
 20
-0.1638
 30
0.1134
 70
192
 0
VERTEX
 8
LOFT_1
 10
0.1749
 20
-0.1646
 30
0.1134
 70
192
 0
VERTEX
 8
LOFT_1
 10
0.1789
 20
-0.1646
 30
0.1134
 70
192
 0
VERTEX
 8
LOFT_1
 10
0.1827
 20
-0.1638
 30
0.1134
 70
192
 0
VERTEX
 8
LOFT_1
 10
0.1862
 20
-0.1622
 30
0.1134
 70
192
 0
VERTEX
 8
LOFT_1
 10
0.1892
 20
-0.1599
 30
0.1134
 70
192
 0
VERTEX
 8
LOFT_1
 10
0.1916
 20
-0.157
 30
0.1134
 70
192
 0
VERTEX
 8
LOFT_1
 10
0.1934
 20
-0.1537
 30
0.1134
 70
192
 0
VERTEX
 8
LOFT_1
 10
0.1945
 20
-0.1499
 30
0.1134
 70
192
 0
VERTEX
 8
LOFT_1
 10
0.1947
 20
-0.1459
 30
0.1134
 70
192
 0
VERTEX
 8
LOFT_1
 10
0.194
 20
-0.1421
 30
0.1134
 70
192
 0
VERTEX
 8
LOFT_1
 10
0.1926
 20
-0.1385
 30
0.1134
 70
192
 0
VERTEX
 8
LOFT_1
 10
0.1905
 20
-0.1354
 30
0.1134
 70
192
 0
VERTEX
 8
LOFT_1
 10
0.1877
 20
-0.1328
 30
0.1134
 70
192
 0
VERTEX
 8
LOFT_1
 10
0.1845
 20
-0.1308
 30
0.1134
 70
192
 0
VERTEX
 8
LOFT_1
 10
0.1809
 20
-0.1296
 30
0.1134
 70
192
 0
VERTEX
 8
LOFT_1
 10
0.1769
 20
-0.1269
 30
0.1386
 70
192
 0
VERTEX
 8
LOFT_1
 10
0.1727
 20
-0.1273
 30
0.1386
 70
192
 0
VERTEX
 8
LOFT_1
 10
0.1688
 20
-0.1287
 30
0.1386
 70
192
 0
VERTEX
 8
LOFT_1
 10
0.1654
 20
-0.1308
 30
0.1386
 70
192
 0
VERTEX
 8
LOFT_1
 10
0.1625
 20
-0.1335
 30
0.1386
 70
192
 0
VERTEX
 8
LOFT_1
 10
0.1602
 20
-0.1369
 30
0.1386
 70
192
 0
VERTEX
 8
LOFT_1
 10
0.1586
 20
-0.1406
 30
0.1386
 70
192
 0
VERTEX
 8
LOFT_1
 10
0.158
 20
-0.1448
 30
0.1386
 70
192
 0
VERTEX
 8
LOFT_1
 10
0.1582
 20
-0.1491
 30
0.1386
 70
192
 0
VERTEX
 8
LOFT_1
 10
0.1593
 20
-0.153
 30
0.1386
 70
192
 0
VERTEX
 8
LOFT_1
 10
0.1612
 20
-0.1566
 30
0.1386
 70
192
 0
VERTEX
 8
LOFT_1
 10
0.1638
 20
-0.1597
 30
0.1386
 70
192
 0
VERTEX
 8
LOFT_1
 10
0.167
 20
-0.1621
 30
0.1386
 70
192
 0
VERTEX
 8
LOFT_1
 10
0.1707
 20
-0.1638
 30
0.1386
 70
192
 0
VERTEX
 8
LOFT_1
 10
0.1748
 20
-0.1647
 30
0.1386
 70
192
 0
VERTEX
 8
LOFT_1
 10
0.1791
 20
-0.1647
 30
0.1386
 70
192
 0
VERTEX
 8
LOFT_1
 10
0.1831
 20
-0.1638
 30
0.1386
 70
192
 0
VERTEX
 8
LOFT_1
 10
0.1868
 20
-0.1621
 30
0.1386
 70
192
 0
VERTEX
 8
LOFT_1
 10
0.19
 20
-0.1597
 30
0.1386
 70
192
 0
VERTEX
 8
LOFT_1
 10
0.1926
 20
-0.1566
 30
0.1386
 70
192
 0
VERTEX
 8
LOFT_1
 10
0.1945
 20
-0.153
 30
0.1386
 70
192
 0
VERTEX
 8
LOFT_1
 10
0.1957
 20
-0.1491
 30
0.1386
 70
192
 0
VERTEX
 8
LOFT_1
 10
0.1959
 20
-0.1448
 30
0.1386
 70
192
 0
VERTEX
 8
LOFT_1
 10
0.1952
 20
-0.1406
 30
0.1386
 70
192
 0
VERTEX
 8
LOFT_1
 10
0.1937
 20
-0.1369
 30
0.1386
 70
192
 0
VERTEX
 8
LOFT_1
 10
0.1914
 20
-0.1335
 30
0.1386
 70
192
 0
VERTEX
 8
LOFT_1
 10
0.1885
 20
-0.1308
 30
0.1386
 70
192
 0
VERTEX
 8
LOFT_1
 10
0.185
 20
-0.1287
 30
0.1386
 70
192
 0
VERTEX
 8
LOFT_1
 10
0.1811
 20
-0.1273
 30
0.1386
 70
192
 0
VERTEX
 8
LOFT_1
 10
0.1769
 20
-0.1246
 30
0.1639
 70
192
 0
VERTEX
 8
LOFT_1
 10
0.1724
 20
-0.1251
 30
0.1639
 70
192
 0
VERTEX
 8
LOFT_1
 10
0.1683
 20
-0.1265
 30
0.1639
 70
192
 0
VERTEX
 8
LOFT_1
 10
0.1646
 20
-0.1287
 30
0.1639
 70
192
 0
VERTEX
 8
LOFT_1
 10
0.1615
 20
-0.1317
 30
0.1639
 70
192
 0
VERTEX
 8
LOFT_1
 10
0.1591
 20
-0.1352
 30
0.1639
 70
192
 0
VERTEX
 8
LOFT_1
 10
0.1575
 20
-0.1392
 30
0.1639
 70
192
 0
VERTEX
 8
LOFT_1
 10
0.1568
 20
-0.1436
 30
0.1639
 70
192
 0
VERTEX
 8
LOFT_1
 10
0.157
 20
-0.1482
 30
0.1639
 70
192
 0
VERTEX
 8
LOFT_1
 10
0.1582
 20
-0.1524
 30
0.1639
 70
192
 0
VERTEX
 8
LOFT_1
 10
0.1602
 20
-0.1562
 30
0.1639
 70
192
 0
VERTEX
 8
LOFT_1
 10
0.163
 20
-0.1594
 30
0.1639
 70
192
 0
VERTEX
 8
LOFT_1
 10
0.1664
 20
-0.162
 30
0.1639
 70
192
 0
VERTEX
 8
LOFT_1
 10
0.1703
 20
-0.1639
 30
0.1639
 70
192
 0
VERTEX
 8
LOFT_1
 10
0.1746
 20
-0.1648
 30
0.1639
 70
192
 0
VERTEX
 8
LOFT_1
 10
0.1792
 20
-0.1648
 30
0.1639
 70
192
 0
VERTEX
 8
LOFT_1
 10
0.1835
 20
-0.1639
 30
0.1639
 70
192
 0
VERTEX
 8
LOFT_1
 10
0.1874
 20
-0.162
 30
0.1639
 70
192
 0
VERTEX
 8
LOFT_1
 10
0.1908
 20
-0.1594
 30
0.1639
 70
192
 0
VERTEX
 8
LOFT_1
 10
0.1936
 20
-0.1562
 30
0.1639
 70
192
 0
VERTEX
 8
LOFT_1
 10
0.1956
 20
-0.1524
 30
0.1639
 70
192
 0
VERTEX
 8
LOFT_1
 10
0.1968
 20
-0.1482
 30
0.1639
 70
192
 0
VERTEX
 8
LOFT_1
 10
0.1971
 20
-0.1436
 30
0.1639
 70
192
 0
VERTEX
 8
LOFT_1
 10
0.1964
 20
-0.1392
 30
0.1639
 70
192
 0
VERTEX
 8
LOFT_1
 10
0.1947
 20
-0.1352
 30
0.1639
 70
192
 0
VERTEX
 8
LOFT_1
 10
0.1923
 20
-0.1317
 30
0.1639
 70
192
 0
VERTEX
 8
LOFT_1
 10
0.1892
 20
-0.1287
 30
0.1639
 70
192
 0
VERTEX
 8
LOFT_1
 10
0.1855
 20
-0.1265
 30
0.1639
 70
192
 0
VERTEX
 8
LOFT_1
 10
0.1814
 20
-0.1251
 30
0.1639
 70
192
 0
VERTEX
 8
LOFT_1
 10
0.1769
 20
-0.1223
 30
0.1891
 70
192
 0
VERTEX
 8
LOFT_1
 10
0.1722
 20
-0.1228
 30
0.1891
 70
192
 0
VERTEX
 8
LOFT_1
 10
0.1678
 20
-0.1243
 30
0.1891
 70
192
 0
VERTEX
 8
LOFT_1
 10
0.1639
 20
-0.1267
 30
0.1891
 70
192
 0
VERTEX
 8
LOFT_1
 10
0.1606
 20
-0.1298
 30
0.1891
 70
192
 0
VERTEX
 8
LOFT_1
 10
0.1581
 20
-0.1335
 30
0.1891
 70
192
 0
VERTEX
 8
LOFT_1
 10
0.1563
 20
-0.1378
 30
0.1891
 70
192
 0
VERTEX
 8
LOFT_1
 10
0.1556
 20
-0.1425
 30
0.1891
 70
192
 0
VERTEX
 8
LOFT_1
 10
0.1558
 20
-0.1473
 30
0.1891
 70
192
 0
VERTEX
 8
LOFT_1
 10
0.1571
 20
-0.1518
 30
0.1891
 70
192
 0
VERTEX
 8
LOFT_1
 10
0.1593
 20
-0.1558
 30
0.1891
 70
192
 0
VERTEX
 8
LOFT_1
 10
0.1622
 20
-0.1592
 30
0.1891
 70
192
 0
VERTEX
 8
LOFT_1
 10
0.1658
 20
-0.162
 30
0.1891
 70
192
 0
VERTEX
 8
LOFT_1
 10
0.1699
 20
-0.1639
 30
0.1891
 70
192
 0
VERTEX
 8
LOFT_1
 10
0.1745
 20
-0.165
 30
0.1891
 70
192
 0
VERTEX
 8
LOFT_1
 10
0.1793
 20
-0.165
 30
0.1891
 70
192
 0
VERTEX
 8
LOFT_1
 10
0.1839
 20
-0.1639
 30
0.1891
 70
192
 0
VERTEX
 8
LOFT_1
 10
0.1881
 20
-0.162
 30
0.1891
 70
192
 0
VERTEX
 8
LOFT_1
 10
0.1917
 20
-0.1592
 30
0.1891
 70
192
 0
VERTEX
 8
LOFT_1
 10
0.1946
 20
-0.1558
 30
0.1891
 70
192
 0
VERTEX
 8
LOFT_1
 10
0.1968
 20
-0.1518
 30
0.1891
 70
192
 0
VERTEX
 8
LOFT_1
 10
0.198
 20
-0.1473
 30
0.1891
 70
192
 0
VERTEX
 8
LOFT_1
 10
0.1983
 20
-0.1425
 30
0.1891
 70
192
 0
VERTEX
 8
LOFT_1
 10
0.1975
 20
-0.1378
 30
0.1891
 70
192
 0
VERTEX
 8
LOFT_1
 10
0.1958
 20
-0.1335
 30
0.1891
 70
192
 0
VERTEX
 8
LOFT_1
 10
0.1932
 20
-0.1298
 30
0.1891
 70
192
 0
VERTEX
 8
LOFT_1
 10
0.1899
 20
-0.1267
 30
0.1891
 70
192
 0
VERTEX
 8
LOFT_1
 10
0.186
 20
-0.1243
 30
0.1891
 70
192
 0
VERTEX
 8
LOFT_1
 10
0.1817
 20
-0.1228
 30
0.1891
 70
192
 0
VERTEX
 8
LOFT_1
 10
0.1769
 20
-0.12
 30
0.2144
 70
192
 0
VERTEX
 8
LOFT_1
 10
0.1719
 20
-0.1206
 30
0.2144
 70
192
 0
VERTEX
 8
LOFT_1
 10
0.1673
 20
-0.1221
 30
0.2144
 70
192
 0
VERTEX
 8
LOFT_1
 10
0.1632
 20
-0.1246
 30
0.2144
 70
192
 0
VERTEX
 8
LOFT_1
 10
0.1597
 20
-0.1279
 30
0.2144
 70
192
 0
VERTEX
 8
LOFT_1
 10
0.157
 20
-0.1319
 30
0.2144
 70
192
 0
VERTEX
 8
LOFT_1
 10
0.1552
 20
-0.1364
 30
0.2144
 70
192
 0
VERTEX
 8
LOFT_1
 10
0.1544
 20
-0.1413
 30
0.2144
 70
192
 0
VERTEX
 8
LOFT_1
 10
0.1546
 20
-0.1464
 30
0.2144
 70
192
 0
VERTEX
 8
LOFT_1
 10
0.156
 20
-0.1511
 30
0.2144
 70
192
 0
VERTEX
 8
LOFT_1
 10
0.1583
 20
-0.1554
 30
0.2144
 70
192
 0
VERTEX
 8
LOFT_1
 10
0.1614
 20
-0.159
 30
0.2144
 70
192
 0
VERTEX
 8
LOFT_1
 10
0.1652
 20
-0.1619
 30
0.2144
 70
192
 0
VERTEX
 8
LOFT_1
 10
0.1695
 20
-0.164
 30
0.2144
 70
192
 0
VERTEX
 8
LOFT_1
 10
0.1744
 20
-0.1651
 30
0.2144
 70
192
 0
VERTEX
 8
LOFT_1
 10
0.1795
 20
-0.1651
 30
0.2144
 70
192
 0
VERTEX
 8
LOFT_1
 10
0.1843
 20
-0.164
 30
0.2144
 70
192
 0
VERTEX
 8
LOFT_1
 10
0.1887
 20
-0.1619
 30
0.2144
 70
192
 0
VERTEX
 8
LOFT_1
 10
0.1925
 20
-0.159
 30
0.2144
 70
192
 0
VERTEX
 8
LOFT_1
 10
0.1956
 20
-0.1554
 30
0.2144
 70
192
 0
VERTEX
 8
LOFT_1
 10
0.1979
 20
-0.1511
 30
0.2144
 70
192
 0
VERTEX
 8
LOFT_1
 10
0.1992
 20
-0.1464
 30
0.2144
 70
192
 0
VERTEX
 8
LOFT_1
 10
0.1995
 20
-0.1413
 30
0.2144
 70
192
 0
VERTEX
 8
LOFT_1
 10
0.1987
 20
-0.1364
 30
0.2144
 70
192
 0
VERTEX
 8
LOFT_1
 10
0.1968
 20
-0.1319
 30
0.2144
 70
192
 0
VERTEX
 8
LOFT_1
 10
0.1941
 20
-0.1279
 30
0.2144
 70
192
 0
VERTEX
 8
LOFT_1
 10
0.1907
 20
-0.1246
 30
0.2144
 70
192
 0
VERTEX
 8
LOFT_1
 10
0.1866
 20
-0.1221
 30
0.2144
 70
192
 0
VERTEX
 8
LOFT_1
 10
0.1819
 20
-0.1206
 30
0.2144
 70
192
 0
VERTEX
 8
LOFT_1
 10
0.1769
 20
-0.1177
 30
0.2396
 70
192
 0
VERTEX
 8
LOFT_1
 10
0.1716
 20
-0.1183
 30
0.2396
 70
192
 0
VERTEX
 8
LOFT_1
 10
0.1668
 20
-0.12
 30
0.2396
 70
192
 0
VERTEX
 8
LOFT_1
 10
0.1625
 20
-0.1226
 30
0.2396
 70
192
 0
VERTEX
 8
LOFT_1
 10
0.1588
 20
-0.1261
 30
0.2396
 70
192
 0
VERTEX
 8
LOFT_1
 10
0.156
 20
-0.1302
 30
0.2396
 70
192
 0
VERTEX
 8
LOFT_1
 10
0.154
 20
-0.135
 30
0.2396
 70
192
 0
VERTEX
 8
LOFT_1
 10
0.1532
 20
-0.1402
 30
0.2396
 70
192
 0
VERTEX
 8
LOFT_1
 10
0.1535
 20
-0.1455
 30
0.2396
 70
192
 0
VERTEX
 8
LOFT_1
 10
0.1549
 20
-0.1505
 30
0.2396
 70
192
 0
VERTEX
 8
LOFT_1
 10
0.1573
 20
-0.155
 30
0.2396
 70
192
 0
VERTEX
 8
LOFT_1
 10
0.1605
 20
-0.1588
 30
0.2396
 70
192
 0
VERTEX
 8
LOFT_1
 10
0.1645
 20
-0.1618
 30
0.2396
 70
192
 0
VERTEX
 8
LOFT_1
 10
0.1691
 20
-0.164
 30
0.2396
 70
192
 0
VERTEX
 8
LOFT_1
 10
0.1742
 20
-0.1652
 30
0.2396
 70
192
 0
VERTEX
 8
LOFT_1
 10
0.1796
 20
-0.1652
 30
0.2396
 70
192
 0
VERTEX
 8
LOFT_1
 10
0.1847
 20
-0.164
 30
0.2396
 70
192
 0
VERTEX
 8
LOFT_1
 10
0.1893
 20
-0.1618
 30
0.2396
 70
192
 0
VERTEX
 8
LOFT_1
 10
0.1933
 20
-0.1588
 30
0.2396
 70
192
 0
VERTEX
 8
LOFT_1
 10
0.1966
 20
-0.155
 30
0.2396
 70
192
 0
VERTEX
 8
LOFT_1
 10
0.199
 20
-0.1505
 30
0.2396
 70
192
 0
VERTEX
 8
LOFT_1
 10
0.2004
 20
-0.1455
 30
0.2396
 70
192
 0
VERTEX
 8
LOFT_1
 10
0.2007
 20
-0.1402
 30
0.2396
 70
192
 0
VERTEX
 8
LOFT_1
 10
0.1998
 20
-0.135
 30
0.2396
 70
192
 0
VERTEX
 8
LOFT_1
 10
0.1979
 20
-0.1302
 30
0.2396
 70
192
 0
VERTEX
 8
LOFT_1
 10
0.195
 20
-0.1261
 30
0.2396
 70
192
 0
VERTEX
 8
LOFT_1
 10
0.1914
 20
-0.1226
 30
0.2396
 70
192
 0
VERTEX
 8
LOFT_1
 10
0.1871
 20
-0.12
 30
0.2396
 70
192
 0
VERTEX
 8
LOFT_1
 10
0.1822
 20
-0.1183
 30
0.2396
 70
192
 0
VERTEX
 8
LOFT_1
 10
0.1769
 20
-0.1154
 30
0.2649
 70
192
 0
VERTEX
 8
LOFT_1
 10
0.1714
 20
-0.116
 30
0.2649
 70
192
 0
VERTEX
 8
LOFT_1
 10
0.1663
 20
-0.1178
 30
0.2649
 70
192
 0
VERTEX
 8
LOFT_1
 10
0.1617
 20
-0.1205
 30
0.2649
 70
192
 0
VERTEX
 8
LOFT_1
 10
0.1579
 20
-0.1242
 30
0.2649
 70
192
 0
VERTEX
 8
LOFT_1
 10
0.1549
 20
-0.1286
 30
0.2649
 70
192
 0
VERTEX
 8
LOFT_1
 10
0.1529
 20
-0.1335
 30
0.2649
 70
192
 0
VERTEX
 8
LOFT_1
 10
0.152
 20
-0.139
 30
0.2649
 70
192
 0
VERTEX
 8
LOFT_1
 10
0.1523
 20
-0.1446
 30
0.2649
 70
192
 0
VERTEX
 8
LOFT_1
 10
0.1538
 20
-0.1498
 30
0.2649
 70
192
 0
VERTEX
 8
LOFT_1
 10
0.1563
 20
-0.1545
 30
0.2649
 70
192
 0
VERTEX
 8
LOFT_1
 10
0.1597
 20
-0.1586
 30
0.2649
 70
192
 0
VERTEX
 8
LOFT_1
 10
0.1639
 20
-0.1618
 30
0.2649
 70
192
 0
VERTEX
 8
LOFT_1
 10
0.1688
 20
-0.1641
 30
0.2649
 70
192
 0
VERTEX
 8
LOFT_1
 10
0.1741
 20
-0.1653
 30
0.2649
 70
192
 0
VERTEX
 8
LOFT_1
 10
0.1797
 20
-0.1653
 30
0.2649
 70
192
 0
VERTEX
 8
LOFT_1
 10
0.1851
 20
-0.1641
 30
0.2649
 70
192
 0
VERTEX
 8
LOFT_1
 10
0.1899
 20
-0.1618
 30
0.2649
 70
192
 0
VERTEX
 8
LOFT_1
 10
0.1941
 20
-0.1586
 30
0.2649
 70
192
 0
VERTEX
 8
LOFT_1
 10
0.1976
 20
-0.1545
 30
0.2649
 70
192
 0
VERTEX
 8
LOFT_1
 10
0.2001
 20
-0.1498
 30
0.2649
 70
192
 0
VERTEX
 8
LOFT_1
 10
0.2016
 20
-0.1446
 30
0.2649
 70
192
 0
VERTEX
 8
LOFT_1
 10
0.2019
 20
-0.139
 30
0.2649
 70
192
 0
VERTEX
 8
LOFT_1
 10
0.201
 20
-0.1335
 30
0.2649
 70
192
 0
VERTEX
 8
LOFT_1
 10
0.199
 20
-0.1286
 30
0.2649
 70
192
 0
VERTEX
 8
LOFT_1
 10
0.196
 20
-0.1242
 30
0.2649
 70
192
 0
VERTEX
 8
LOFT_1
 10
0.1921
 20
-0.1205
 30
0.2649
 70
192
 0
VERTEX
 8
LOFT_1
 10
0.1876
 20
-0.1178
 30
0.2649
 70
192
 0
VERTEX
 8
LOFT_1
 10
0.1825
 20
-0.116
 30
0.2649
 70
192
 0
VERTEX
 8
LOFT_1
 10
0
 20
0
 30
0
 70
128
 71
2
 72
31
 73
30
 74
1
 0
VERTEX
 8
LOFT_1
 10
0
 20
0
 30
0
 70
128
 71
3
 72
32
 73
31
 74
2
 0
VERTEX
 8
LOFT_1
 10
0
 20
0
 30
0
 70
128
 71
4
 72
33
 73
32
 74
3
 0
VERTEX
 8
LOFT_1
 10
0
 20
0
 30
0
 70
128
 71
5
 72
34
 73
33
 74
4
 0
VERTEX
 8
LOFT_1
 10
0
 20
0
 30
0
 70
128
 71
6
 72
35
 73
34
 74
5
 0
VERTEX
 8
LOFT_1
 10
0
 20
0
 30
0
 70
128
 71
7
 72
36
 73
35
 74
6
 0
VERTEX
 8
LOFT_1
 10
0
 20
0
 30
0
 70
128
 71
8
 72
37
 73
36
 74
7
 0
VERTEX
 8
LOFT_1
 10
0
 20
0
 30
0
 70
128
 71
9
 72
38
 73
37
 74
8
 0
VERTEX
 8
LOFT_1
 10
0
 20
0
 30
0
 70
128
 71
10
 72
39
 73
38
 74
9
 0
VERTEX
 8
LOFT_1
 10
0
 20
0
 30
0
 70
128
 71
11
 72
40
 73
39
 74
10
 0
VERTEX
 8
LOFT_1
 10
0
 20
0
 30
0
 70
128
 71
12
 72
41
 73
40
 74
11
 0
VERTEX
 8
LOFT_1
 10
0
 20
0
 30
0
 70
128
 71
13
 72
42
 73
41
 74
12
 0
VERTEX
 8
LOFT_1
 10
0
 20
0
 30
0
 70
128
 71
14
 72
43
 73
42
 74
13
 0
VERTEX
 8
LOFT_1
 10
0
 20
0
 30
0
 70
128
 71
15
 72
44
 73
43
 74
14
 0
VERTEX
 8
LOFT_1
 10
0
 20
0
 30
0
 70
128
 71
16
 72
45
 73
44
 74
15
 0
VERTEX
 8
LOFT_1
 10
0
 20
0
 30
0
 70
128
 71
17
 72
46
 73
45
 74
16
 0
VERTEX
 8
LOFT_1
 10
0
 20
0
 30
0
 70
128
 71
18
 72
47
 73
46
 74
17
 0
VERTEX
 8
LOFT_1
 10
0
 20
0
 30
0
 70
128
 71
19
 72
48
 73
47
 74
18
 0
VERTEX
 8
LOFT_1
 10
0
 20
0
 30
0
 70
128
 71
20
 72
49
 73
48
 74
19
 0
VERTEX
 8
LOFT_1
 10
0
 20
0
 30
0
 70
128
 71
21
 72
50
 73
49
 74
20
 0
VERTEX
 8
LOFT_1
 10
0
 20
0
 30
0
 70
128
 71
22
 72
51
 73
50
 74
21
 0
VERTEX
 8
LOFT_1
 10
0
 20
0
 30
0
 70
128
 71
23
 72
52
 73
51
 74
22
 0
VERTEX
 8
LOFT_1
 10
0
 20
0
 30
0
 70
128
 71
24
 72
53
 73
52
 74
23
 0
VERTEX
 8
LOFT_1
 10
0
 20
0
 30
0
 70
128
 71
25
 72
54
 73
53
 74
24
 0
VERTEX
 8
LOFT_1
 10
0
 20
0
 30
0
 70
128
 71
26
 72
55
 73
54
 74
25
 0
VERTEX
 8
LOFT_1
 10
0
 20
0
 30
0
 70
128
 71
27
 72
56
 73
55
 74
26
 0
VERTEX
 8
LOFT_1
 10
0
 20
0
 30
0
 70
128
 71
28
 72
57
 73
56
 74
27
 0
VERTEX
 8
LOFT_1
 10
0
 20
0
 30
0
 70
128
 71
29
 72
58
 73
57
 74
28
 0
VERTEX
 8
LOFT_1
 10
0
 20
0
 30
0
 70
128
 71
1
 72
30
 73
58
 74
29
 0
VERTEX
 8
LOFT_1
 10
0
 20
0
 30
0
 70
128
 71
31
 72
60
 73
59
 74
30
 0
VERTEX
 8
LOFT_1
 10
0
 20
0
 30
0
 70
128
 71
32
 72
61
 73
60
 74
31
 0
VERTEX
 8
LOFT_1
 10
0
 20
0
 30
0
 70
128
 71
33
 72
62
 73
61
 74
32
 0
VERTEX
 8
LOFT_1
 10
0
 20
0
 30
0
 70
128
 71
34
 72
63
 73
62
 74
33
 0
VERTEX
 8
LOFT_1
 10
0
 20
0
 30
0
 70
128
 71
35
 72
64
 73
63
 74
34
 0
VERTEX
 8
LOFT_1
 10
0
 20
0
 30
0
 70
128
 71
36
 72
65
 73
64
 74
35
 0
VERTEX
 8
LOFT_1
 10
0
 20
0
 30
0
 70
128
 71
37
 72
66
 73
65
 74
36
 0
VERTEX
 8
LOFT_1
 10
0
 20
0
 30
0
 70
128
 71
38
 72
67
 73
66
 74
37
 0
VERTEX
 8
LOFT_1
 10
0
 20
0
 30
0
 70
128
 71
39
 72
68
 73
67
 74
38
 0
VERTEX
 8
LOFT_1
 10
0
 20
0
 30
0
 70
128
 71
40
 72
69
 73
68
 74
39
 0
VERTEX
 8
LOFT_1
 10
0
 20
0
 30
0
 70
128
 71
41
 72
70
 73
69
 74
40
 0
VERTEX
 8
LOFT_1
 10
0
 20
0
 30
0
 70
128
 71
42
 72
71
 73
70
 74
41
 0
VERTEX
 8
LOFT_1
 10
0
 20
0
 30
0
 70
128
 71
43
 72
72
 73
71
 74
42
 0
VERTEX
 8
LOFT_1
 10
0
 20
0
 30
0
 70
128
 71
44
 72
73
 73
72
 74
43
 0
VERTEX
 8
LOFT_1
 10
0
 20
0
 30
0
 70
128
 71
45
 72
74
 73
73
 74
44
 0
VERTEX
 8
LOFT_1
 10
0
 20
0
 30
0
 70
128
 71
46
 72
75
 73
74
 74
45
 0
VERTEX
 8
LOFT_1
 10
0
 20
0
 30
0
 70
128
 71
47
 72
76
 73
75
 74
46
 0
VERTEX
 8
LOFT_1
 10
0
 20
0
 30
0
 70
128
 71
48
 72
77
 73
76
 74
47
 0
VERTEX
 8
LOFT_1
 10
0
 20
0
 30
0
 70
128
 71
49
 72
78
 73
77
 74
48
 0
VERTEX
 8
LOFT_1
 10
0
 20
0
 30
0
 70
128
 71
50
 72
79
 73
78
 74
49
 0
VERTEX
 8
LOFT_1
 10
0
 20
0
 30
0
 70
128
 71
51
 72
80
 73
79
 74
50
 0
VERTEX
 8
LOFT_1
 10
0
 20
0
 30
0
 70
128
 71
52
 72
81
 73
80
 74
51
 0
VERTEX
 8
LOFT_1
 10
0
 20
0
 30
0
 70
128
 71
53
 72
82
 73
81
 74
52
 0
VERTEX
 8
LOFT_1
 10
0
 20
0
 30
0
 70
128
 71
54
 72
83
 73
82
 74
53
 0
VERTEX
 8
LOFT_1
 10
0
 20
0
 30
0
 70
128
 71
55
 72
84
 73
83
 74
54
 0
VERTEX
 8
LOFT_1
 10
0
 20
0
 30
0
 70
128
 71
56
 72
85
 73
84
 74
55
 0
VERTEX
 8
LOFT_1
 10
0
 20
0
 30
0
 70
128
 71
57
 72
86
 73
85
 74
56
 0
VERTEX
 8
LOFT_1
 10
0
 20
0
 30
0
 70
128
 71
58
 72
87
 73
86
 74
57
 0
VERTEX
 8
LOFT_1
 10
0
 20
0
 30
0
 70
128
 71
30
 72
59
 73
87
 74
58
 0
VERTEX
 8
LOFT_1
 10
0
 20
0
 30
0
 70
128
 71
60
 72
89
 73
88
 74
59
 0
VERTEX
 8
LOFT_1
 10
0
 20
0
 30
0
 70
128
 71
61
 72
90
 73
89
 74
60
 0
VERTEX
 8
LOFT_1
 10
0
 20
0
 30
0
 70
128
 71
62
 72
91
 73
90
 74
61
 0
VERTEX
 8
LOFT_1
 10
0
 20
0
 30
0
 70
128
 71
63
 72
92
 73
91
 74
62
 0
VERTEX
 8
LOFT_1
 10
0
 20
0
 30
0
 70
128
 71
64
 72
93
 73
92
 74
63
 0
VERTEX
 8
LOFT_1
 10
0
 20
0
 30
0
 70
128
 71
65
 72
94
 73
93
 74
64
 0
VERTEX
 8
LOFT_1
 10
0
 20
0
 30
0
 70
128
 71
66
 72
95
 73
94
 74
65
 0
VERTEX
 8
LOFT_1
 10
0
 20
0
 30
0
 70
128
 71
67
 72
96
 73
95
 74
66
 0
VERTEX
 8
LOFT_1
 10
0
 20
0
 30
0
 70
128
 71
68
 72
97
 73
96
 74
67
 0
VERTEX
 8
LOFT_1
 10
0
 20
0
 30
0
 70
128
 71
69
 72
98
 73
97
 74
68
 0
VERTEX
 8
LOFT_1
 10
0
 20
0
 30
0
 70
128
 71
70
 72
99
 73
98
 74
69
 0
VERTEX
 8
LOFT_1
 10
0
 20
0
 30
0
 70
128
 71
71
 72
100
 73
99
 74
70
 0
VERTEX
 8
LOFT_1
 10
0
 20
0
 30
0
 70
128
 71
72
 72
101
 73
100
 74
71
 0
VERTEX
 8
LOFT_1
 10
0
 20
0
 30
0
 70
128
 71
73
 72
102
 73
101
 74
72
 0
VERTEX
 8
LOFT_1
 10
0
 20
0
 30
0
 70
128
 71
74
 72
103
 73
102
 74
73
 0
VERTEX
 8
LOFT_1
 10
0
 20
0
 30
0
 70
128
 71
75
 72
104
 73
103
 74
74
 0
VERTEX
 8
LOFT_1
 10
0
 20
0
 30
0
 70
128
 71
76
 72
105
 73
104
 74
75
 0
VERTEX
 8
LOFT_1
 10
0
 20
0
 30
0
 70
128
 71
77
 72
106
 73
105
 74
76
 0
VERTEX
 8
LOFT_1
 10
0
 20
0
 30
0
 70
128
 71
78
 72
107
 73
106
 74
77
 0
VERTEX
 8
LOFT_1
 10
0
 20
0
 30
0
 70
128
 71
79
 72
108
 73
107
 74
78
 0
VERTEX
 8
LOFT_1
 10
0
 20
0
 30
0
 70
128
 71
80
 72
109
 73
108
 74
79
 0
VERTEX
 8
LOFT_1
 10
0
 20
0
 30
0
 70
128
 71
81
 72
110
 73
109
 74
80
 0
VERTEX
 8
LOFT_1
 10
0
 20
0
 30
0
 70
128
 71
82
 72
111
 73
110
 74
81
 0
VERTEX
 8
LOFT_1
 10
0
 20
0
 30
0
 70
128
 71
83
 72
112
 73
111
 74
82
 0
VERTEX
 8
LOFT_1
 10
0
 20
0
 30
0
 70
128
 71
84
 72
113
 73
112
 74
83
 0
VERTEX
 8
LOFT_1
 10
0
 20
0
 30
0
 70
128
 71
85
 72
114
 73
113
 74
84
 0
VERTEX
 8
LOFT_1
 10
0
 20
0
 30
0
 70
128
 71
86
 72
115
 73
114
 74
85
 0
VERTEX
 8
LOFT_1
 10
0
 20
0
 30
0
 70
128
 71
87
 72
116
 73
115
 74
86
 0
VERTEX
 8
LOFT_1
 10
0
 20
0
 30
0
 70
128
 71
59
 72
88
 73
116
 74
87
 0
VERTEX
 8
LOFT_1
 10
0
 20
0
 30
0
 70
128
 71
89
 72
118
 73
117
 74
88
 0
VERTEX
 8
LOFT_1
 10
0
 20
0
 30
0
 70
128
 71
90
 72
119
 73
118
 74
89
 0
VERTEX
 8
LOFT_1
 10
0
 20
0
 30
0
 70
128
 71
91
 72
120
 73
119
 74
90
 0
VERTEX
 8
LOFT_1
 10
0
 20
0
 30
0
 70
128
 71
92
 72
121
 73
120
 74
91
 0
VERTEX
 8
LOFT_1
 10
0
 20
0
 30
0
 70
128
 71
93
 72
122
 73
121
 74
92
 0
VERTEX
 8
LOFT_1
 10
0
 20
0
 30
0
 70
128
 71
94
 72
123
 73
122
 74
93
 0
VERTEX
 8
LOFT_1
 10
0
 20
0
 30
0
 70
128
 71
95
 72
124
 73
123
 74
94
 0
VERTEX
 8
LOFT_1
 10
0
 20
0
 30
0
 70
128
 71
96
 72
125
 73
124
 74
95
 0
VERTEX
 8
LOFT_1
 10
0
 20
0
 30
0
 70
128
 71
97
 72
126
 73
125
 74
96
 0
VERTEX
 8
LOFT_1
 10
0
 20
0
 30
0
 70
128
 71
98
 72
127
 73
126
 74
97
 0
VERTEX
 8
LOFT_1
 10
0
 20
0
 30
0
 70
128
 71
99
 72
128
 73
127
 74
98
 0
VERTEX
 8
LOFT_1
 10
0
 20
0
 30
0
 70
128
 71
100
 72
129
 73
128
 74
99
 0
VERTEX
 8
LOFT_1
 10
0
 20
0
 30
0
 70
128
 71
101
 72
130
 73
129
 74
100
 0
VERTEX
 8
LOFT_1
 10
0
 20
0
 30
0
 70
128
 71
102
 72
131
 73
130
 74
101
 0
VERTEX
 8
LOFT_1
 10
0
 20
0
 30
0
 70
128
 71
103
 72
132
 73
131
 74
102
 0
VERTEX
 8
LOFT_1
 10
0
 20
0
 30
0
 70
128
 71
104
 72
133
 73
132
 74
103
 0
VERTEX
 8
LOFT_1
 10
0
 20
0
 30
0
 70
128
 71
105
 72
134
 73
133
 74
104
 0
VERTEX
 8
LOFT_1
 10
0
 20
0
 30
0
 70
128
 71
106
 72
135
 73
134
 74
105
 0
VERTEX
 8
LOFT_1
 10
0
 20
0
 30
0
 70
128
 71
107
 72
136
 73
135
 74
106
 0
VERTEX
 8
LOFT_1
 10
0
 20
0
 30
0
 70
128
 71
108
 72
137
 73
136
 74
107
 0
VERTEX
 8
LOFT_1
 10
0
 20
0
 30
0
 70
128
 71
109
 72
138
 73
137
 74
108
 0
VERTEX
 8
LOFT_1
 10
0
 20
0
 30
0
 70
128
 71
110
 72
139
 73
138
 74
109
 0
VERTEX
 8
LOFT_1
 10
0
 20
0
 30
0
 70
128
 71
111
 72
140
 73
139
 74
110
 0
VERTEX
 8
LOFT_1
 10
0
 20
0
 30
0
 70
128
 71
112
 72
141
 73
140
 74
111
 0
VERTEX
 8
LOFT_1
 10
0
 20
0
 30
0
 70
128
 71
113
 72
142
 73
141
 74
112
 0
VERTEX
 8
LOFT_1
 10
0
 20
0
 30
0
 70
128
 71
114
 72
143
 73
142
 74
113
 0
VERTEX
 8
LOFT_1
 10
0
 20
0
 30
0
 70
128
 71
115
 72
144
 73
143
 74
114
 0
VERTEX
 8
LOFT_1
 10
0
 20
0
 30
0
 70
128
 71
116
 72
145
 73
144
 74
115
 0
VERTEX
 8
LOFT_1
 10
0
 20
0
 30
0
 70
128
 71
88
 72
117
 73
145
 74
116
 0
VERTEX
 8
LOFT_1
 10
0
 20
0
 30
0
 70
128
 71
118
 72
147
 73
146
 74
117
 0
VERTEX
 8
LOFT_1
 10
0
 20
0
 30
0
 70
128
 71
119
 72
148
 73
147
 74
118
 0
VERTEX
 8
LOFT_1
 10
0
 20
0
 30
0
 70
128
 71
120
 72
149
 73
148
 74
119
 0
VERTEX
 8
LOFT_1
 10
0
 20
0
 30
0
 70
128
 71
121
 72
150
 73
149
 74
120
 0
VERTEX
 8
LOFT_1
 10
0
 20
0
 30
0
 70
128
 71
122
 72
151
 73
150
 74
121
 0
VERTEX
 8
LOFT_1
 10
0
 20
0
 30
0
 70
128
 71
123
 72
152
 73
151
 74
122
 0
VERTEX
 8
LOFT_1
 10
0
 20
0
 30
0
 70
128
 71
124
 72
153
 73
152
 74
123
 0
VERTEX
 8
LOFT_1
 10
0
 20
0
 30
0
 70
128
 71
125
 72
154
 73
153
 74
124
 0
VERTEX
 8
LOFT_1
 10
0
 20
0
 30
0
 70
128
 71
126
 72
155
 73
154
 74
125
 0
VERTEX
 8
LOFT_1
 10
0
 20
0
 30
0
 70
128
 71
127
 72
156
 73
155
 74
126
 0
VERTEX
 8
LOFT_1
 10
0
 20
0
 30
0
 70
128
 71
128
 72
157
 73
156
 74
127
 0
VERTEX
 8
LOFT_1
 10
0
 20
0
 30
0
 70
128
 71
129
 72
158
 73
157
 74
128
 0
VERTEX
 8
LOFT_1
 10
0
 20
0
 30
0
 70
128
 71
130
 72
159
 73
158
 74
129
 0
VERTEX
 8
LOFT_1
 10
0
 20
0
 30
0
 70
128
 71
131
 72
160
 73
159
 74
130
 0
VERTEX
 8
LOFT_1
 10
0
 20
0
 30
0
 70
128
 71
132
 72
161
 73
160
 74
131
 0
VERTEX
 8
LOFT_1
 10
0
 20
0
 30
0
 70
128
 71
133
 72
162
 73
161
 74
132
 0
VERTEX
 8
LOFT_1
 10
0
 20
0
 30
0
 70
128
 71
134
 72
163
 73
162
 74
133
 0
VERTEX
 8
LOFT_1
 10
0
 20
0
 30
0
 70
128
 71
135
 72
164
 73
163
 74
134
 0
VERTEX
 8
LOFT_1
 10
0
 20
0
 30
0
 70
128
 71
136
 72
165
 73
164
 74
135
 0
VERTEX
 8
LOFT_1
 10
0
 20
0
 30
0
 70
128
 71
137
 72
166
 73
165
 74
136
 0
VERTEX
 8
LOFT_1
 10
0
 20
0
 30
0
 70
128
 71
138
 72
167
 73
166
 74
137
 0
VERTEX
 8
LOFT_1
 10
0
 20
0
 30
0
 70
128
 71
139
 72
168
 73
167
 74
138
 0
VERTEX
 8
LOFT_1
 10
0
 20
0
 30
0
 70
128
 71
140
 72
169
 73
168
 74
139
 0
VERTEX
 8
LOFT_1
 10
0
 20
0
 30
0
 70
128
 71
141
 72
170
 73
169
 74
140
 0
VERTEX
 8
LOFT_1
 10
0
 20
0
 30
0
 70
128
 71
142
 72
171
 73
170
 74
141
 0
VERTEX
 8
LOFT_1
 10
0
 20
0
 30
0
 70
128
 71
143
 72
172
 73
171
 74
142
 0
VERTEX
 8
LOFT_1
 10
0
 20
0
 30
0
 70
128
 71
144
 72
173
 73
172
 74
143
 0
VERTEX
 8
LOFT_1
 10
0
 20
0
 30
0
 70
128
 71
145
 72
174
 73
173
 74
144
 0
VERTEX
 8
LOFT_1
 10
0
 20
0
 30
0
 70
128
 71
117
 72
146
 73
174
 74
145
 0
VERTEX
 8
LOFT_1
 10
0
 20
0
 30
0
 70
128
 71
147
 72
176
 73
175
 74
146
 0
VERTEX
 8
LOFT_1
 10
0
 20
0
 30
0
 70
128
 71
148
 72
177
 73
176
 74
147
 0
VERTEX
 8
LOFT_1
 10
0
 20
0
 30
0
 70
128
 71
149
 72
178
 73
177
 74
148
 0
VERTEX
 8
LOFT_1
 10
0
 20
0
 30
0
 70
128
 71
150
 72
179
 73
178
 74
149
 0
VERTEX
 8
LOFT_1
 10
0
 20
0
 30
0
 70
128
 71
151
 72
180
 73
179
 74
150
 0
VERTEX
 8
LOFT_1
 10
0
 20
0
 30
0
 70
128
 71
152
 72
181
 73
180
 74
151
 0
VERTEX
 8
LOFT_1
 10
0
 20
0
 30
0
 70
128
 71
153
 72
182
 73
181
 74
152
 0
VERTEX
 8
LOFT_1
 10
0
 20
0
 30
0
 70
128
 71
154
 72
183
 73
182
 74
153
 0
VERTEX
 8
LOFT_1
 10
0
 20
0
 30
0
 70
128
 71
155
 72
184
 73
183
 74
154
 0
VERTEX
 8
LOFT_1
 10
0
 20
0
 30
0
 70
128
 71
156
 72
185
 73
184
 74
155
 0
VERTEX
 8
LOFT_1
 10
0
 20
0
 30
0
 70
128
 71
157
 72
186
 73
185
 74
156
 0
VERTEX
 8
LOFT_1
 10
0
 20
0
 30
0
 70
128
 71
158
 72
187
 73
186
 74
157
 0
VERTEX
 8
LOFT_1
 10
0
 20
0
 30
0
 70
128
 71
159
 72
188
 73
187
 74
158
 0
VERTEX
 8
LOFT_1
 10
0
 20
0
 30
0
 70
128
 71
160
 72
189
 73
188
 74
159
 0
VERTEX
 8
LOFT_1
 10
0
 20
0
 30
0
 70
128
 71
161
 72
190
 73
189
 74
160
 0
VERTEX
 8
LOFT_1
 10
0
 20
0
 30
0
 70
128
 71
162
 72
191
 73
190
 74
161
 0
VERTEX
 8
LOFT_1
 10
0
 20
0
 30
0
 70
128
 71
163
 72
192
 73
191
 74
162
 0
VERTEX
 8
LOFT_1
 10
0
 20
0
 30
0
 70
128
 71
164
 72
193
 73
192
 74
163
 0
VERTEX
 8
LOFT_1
 10
0
 20
0
 30
0
 70
128
 71
165
 72
194
 73
193
 74
164
 0
VERTEX
 8
LOFT_1
 10
0
 20
0
 30
0
 70
128
 71
166
 72
195
 73
194
 74
165
 0
VERTEX
 8
LOFT_1
 10
0
 20
0
 30
0
 70
128
 71
167
 72
196
 73
195
 74
166
 0
VERTEX
 8
LOFT_1
 10
0
 20
0
 30
0
 70
128
 71
168
 72
197
 73
196
 74
167
 0
VERTEX
 8
LOFT_1
 10
0
 20
0
 30
0
 70
128
 71
169
 72
198
 73
197
 74
168
 0
VERTEX
 8
LOFT_1
 10
0
 20
0
 30
0
 70
128
 71
170
 72
199
 73
198
 74
169
 0
VERTEX
 8
LOFT_1
 10
0
 20
0
 30
0
 70
128
 71
171
 72
200
 73
199
 74
170
 0
VERTEX
 8
LOFT_1
 10
0
 20
0
 30
0
 70
128
 71
172
 72
201
 73
200
 74
171
 0
VERTEX
 8
LOFT_1
 10
0
 20
0
 30
0
 70
128
 71
173
 72
202
 73
201
 74
172
 0
VERTEX
 8
LOFT_1
 10
0
 20
0
 30
0
 70
128
 71
174
 72
203
 73
202
 74
173
 0
VERTEX
 8
LOFT_1
 10
0
 20
0
 30
0
 70
128
 71
146
 72
175
 73
203
 74
174
 0
VERTEX
 8
LOFT_1
 10
0
 20
0
 30
0
 70
128
 71
176
 72
205
 73
204
 74
175
 0
VERTEX
 8
LOFT_1
 10
0
 20
0
 30
0
 70
128
 71
177
 72
206
 73
205
 74
176
 0
VERTEX
 8
LOFT_1
 10
0
 20
0
 30
0
 70
128
 71
178
 72
207
 73
206
 74
177
 0
VERTEX
 8
LOFT_1
 10
0
 20
0
 30
0
 70
128
 71
179
 72
208
 73
207
 74
178
 0
VERTEX
 8
LOFT_1
 10
0
 20
0
 30
0
 70
128
 71
180
 72
209
 73
208
 74
179
 0
VERTEX
 8
LOFT_1
 10
0
 20
0
 30
0
 70
128
 71
181
 72
210
 73
209
 74
180
 0
VERTEX
 8
LOFT_1
 10
0
 20
0
 30
0
 70
128
 71
182
 72
211
 73
210
 74
181
 0
VERTEX
 8
LOFT_1
 10
0
 20
0
 30
0
 70
128
 71
183
 72
212
 73
211
 74
182
 0
VERTEX
 8
LOFT_1
 10
0
 20
0
 30
0
 70
128
 71
184
 72
213
 73
212
 74
183
 0
VERTEX
 8
LOFT_1
 10
0
 20
0
 30
0
 70
128
 71
185
 72
214
 73
213
 74
184
 0
VERTEX
 8
LOFT_1
 10
0
 20
0
 30
0
 70
128
 71
186
 72
215
 73
214
 74
185
 0
VERTEX
 8
LOFT_1
 10
0
 20
0
 30
0
 70
128
 71
187
 72
216
 73
215
 74
186
 0
VERTEX
 8
LOFT_1
 10
0
 20
0
 30
0
 70
128
 71
188
 72
217
 73
216
 74
187
 0
VERTEX
 8
LOFT_1
 10
0
 20
0
 30
0
 70
128
 71
189
 72
218
 73
217
 74
188
 0
VERTEX
 8
LOFT_1
 10
0
 20
0
 30
0
 70
128
 71
190
 72
219
 73
218
 74
189
 0
VERTEX
 8
LOFT_1
 10
0
 20
0
 30
0
 70
128
 71
191
 72
220
 73
219
 74
190
 0
VERTEX
 8
LOFT_1
 10
0
 20
0
 30
0
 70
128
 71
192
 72
221
 73
220
 74
191
 0
VERTEX
 8
LOFT_1
 10
0
 20
0
 30
0
 70
128
 71
193
 72
222
 73
221
 74
192
 0
VERTEX
 8
LOFT_1
 10
0
 20
0
 30
0
 70
128
 71
194
 72
223
 73
222
 74
193
 0
VERTEX
 8
LOFT_1
 10
0
 20
0
 30
0
 70
128
 71
195
 72
224
 73
223
 74
194
 0
VERTEX
 8
LOFT_1
 10
0
 20
0
 30
0
 70
128
 71
196
 72
225
 73
224
 74
195
 0
VERTEX
 8
LOFT_1
 10
0
 20
0
 30
0
 70
128
 71
197
 72
226
 73
225
 74
196
 0
VERTEX
 8
LOFT_1
 10
0
 20
0
 30
0
 70
128
 71
198
 72
227
 73
226
 74
197
 0
VERTEX
 8
LOFT_1
 10
0
 20
0
 30
0
 70
128
 71
199
 72
228
 73
227
 74
198
 0
VERTEX
 8
LOFT_1
 10
0
 20
0
 30
0
 70
128
 71
200
 72
229
 73
228
 74
199
 0
VERTEX
 8
LOFT_1
 10
0
 20
0
 30
0
 70
128
 71
201
 72
230
 73
229
 74
200
 0
VERTEX
 8
LOFT_1
 10
0
 20
0
 30
0
 70
128
 71
202
 72
231
 73
230
 74
201
 0
VERTEX
 8
LOFT_1
 10
0
 20
0
 30
0
 70
128
 71
203
 72
232
 73
231
 74
202
 0
VERTEX
 8
LOFT_1
 10
0
 20
0
 30
0
 70
128
 71
175
 72
204
 73
232
 74
203
 0
VERTEX
 8
LOFT_1
 10
0
 20
0
 30
0
 70
128
 71
205
 72
234
 73
233
 74
204
 0
VERTEX
 8
LOFT_1
 10
0
 20
0
 30
0
 70
128
 71
206
 72
235
 73
234
 74
205
 0
VERTEX
 8
LOFT_1
 10
0
 20
0
 30
0
 70
128
 71
207
 72
236
 73
235
 74
206
 0
VERTEX
 8
LOFT_1
 10
0
 20
0
 30
0
 70
128
 71
208
 72
237
 73
236
 74
207
 0
VERTEX
 8
LOFT_1
 10
0
 20
0
 30
0
 70
128
 71
209
 72
238
 73
237
 74
208
 0
VERTEX
 8
LOFT_1
 10
0
 20
0
 30
0
 70
128
 71
210
 72
239
 73
238
 74
209
 0
VERTEX
 8
LOFT_1
 10
0
 20
0
 30
0
 70
128
 71
211
 72
240
 73
239
 74
210
 0
VERTEX
 8
LOFT_1
 10
0
 20
0
 30
0
 70
128
 71
212
 72
241
 73
240
 74
211
 0
VERTEX
 8
LOFT_1
 10
0
 20
0
 30
0
 70
128
 71
213
 72
242
 73
241
 74
212
 0
VERTEX
 8
LOFT_1
 10
0
 20
0
 30
0
 70
128
 71
214
 72
243
 73
242
 74
213
 0
VERTEX
 8
LOFT_1
 10
0
 20
0
 30
0
 70
128
 71
215
 72
244
 73
243
 74
214
 0
VERTEX
 8
LOFT_1
 10
0
 20
0
 30
0
 70
128
 71
216
 72
245
 73
244
 74
215
 0
VERTEX
 8
LOFT_1
 10
0
 20
0
 30
0
 70
128
 71
217
 72
246
 73
245
 74
216
 0
VERTEX
 8
LOFT_1
 10
0
 20
0
 30
0
 70
128
 71
218
 72
247
 73
246
 74
217
 0
VERTEX
 8
LOFT_1
 10
0
 20
0
 30
0
 70
128
 71
219
 72
248
 73
247
 74
218
 0
VERTEX
 8
LOFT_1
 10
0
 20
0
 30
0
 70
128
 71
220
 72
249
 73
248
 74
219
 0
VERTEX
 8
LOFT_1
 10
0
 20
0
 30
0
 70
128
 71
221
 72
250
 73
249
 74
220
 0
VERTEX
 8
LOFT_1
 10
0
 20
0
 30
0
 70
128
 71
222
 72
251
 73
250
 74
221
 0
VERTEX
 8
LOFT_1
 10
0
 20
0
 30
0
 70
128
 71
223
 72
252
 73
251
 74
222
 0
VERTEX
 8
LOFT_1
 10
0
 20
0
 30
0
 70
128
 71
224
 72
253
 73
252
 74
223
 0
VERTEX
 8
LOFT_1
 10
0
 20
0
 30
0
 70
128
 71
225
 72
254
 73
253
 74
224
 0
VERTEX
 8
LOFT_1
 10
0
 20
0
 30
0
 70
128
 71
226
 72
255
 73
254
 74
225
 0
VERTEX
 8
LOFT_1
 10
0
 20
0
 30
0
 70
128
 71
227
 72
256
 73
255
 74
226
 0
VERTEX
 8
LOFT_1
 10
0
 20
0
 30
0
 70
128
 71
228
 72
257
 73
256
 74
227
 0
VERTEX
 8
LOFT_1
 10
0
 20
0
 30
0
 70
128
 71
229
 72
258
 73
257
 74
228
 0
VERTEX
 8
LOFT_1
 10
0
 20
0
 30
0
 70
128
 71
230
 72
259
 73
258
 74
229
 0
VERTEX
 8
LOFT_1
 10
0
 20
0
 30
0
 70
128
 71
231
 72
260
 73
259
 74
230
 0
VERTEX
 8
LOFT_1
 10
0
 20
0
 30
0
 70
128
 71
232
 72
261
 73
260
 74
231
 0
VERTEX
 8
LOFT_1
 10
0
 20
0
 30
0
 70
128
 71
204
 72
233
 73
261
 74
232
 0
VERTEX
 8
LOFT_1
 10
0
 20
0
 30
0
 70
128
 71
234
 72
263
 73
262
 74
233
 0
VERTEX
 8
LOFT_1
 10
0
 20
0
 30
0
 70
128
 71
235
 72
264
 73
263
 74
234
 0
VERTEX
 8
LOFT_1
 10
0
 20
0
 30
0
 70
128
 71
236
 72
265
 73
264
 74
235
 0
VERTEX
 8
LOFT_1
 10
0
 20
0
 30
0
 70
128
 71
237
 72
266
 73
265
 74
236
 0
VERTEX
 8
LOFT_1
 10
0
 20
0
 30
0
 70
128
 71
238
 72
267
 73
266
 74
237
 0
VERTEX
 8
LOFT_1
 10
0
 20
0
 30
0
 70
128
 71
239
 72
268
 73
267
 74
238
 0
VERTEX
 8
LOFT_1
 10
0
 20
0
 30
0
 70
128
 71
240
 72
269
 73
268
 74
239
 0
VERTEX
 8
LOFT_1
 10
0
 20
0
 30
0
 70
128
 71
241
 72
270
 73
269
 74
240
 0
VERTEX
 8
LOFT_1
 10
0
 20
0
 30
0
 70
128
 71
242
 72
271
 73
270
 74
241
 0
VERTEX
 8
LOFT_1
 10
0
 20
0
 30
0
 70
128
 71
243
 72
272
 73
271
 74
242
 0
VERTEX
 8
LOFT_1
 10
0
 20
0
 30
0
 70
128
 71
244
 72
273
 73
272
 74
243
 0
VERTEX
 8
LOFT_1
 10
0
 20
0
 30
0
 70
128
 71
245
 72
274
 73
273
 74
244
 0
VERTEX
 8
LOFT_1
 10
0
 20
0
 30
0
 70
128
 71
246
 72
275
 73
274
 74
245
 0
VERTEX
 8
LOFT_1
 10
0
 20
0
 30
0
 70
128
 71
247
 72
276
 73
275
 74
246
 0
VERTEX
 8
LOFT_1
 10
0
 20
0
 30
0
 70
128
 71
248
 72
277
 73
276
 74
247
 0
VERTEX
 8
LOFT_1
 10
0
 20
0
 30
0
 70
128
 71
249
 72
278
 73
277
 74
248
 0
VERTEX
 8
LOFT_1
 10
0
 20
0
 30
0
 70
128
 71
250
 72
279
 73
278
 74
249
 0
VERTEX
 8
LOFT_1
 10
0
 20
0
 30
0
 70
128
 71
251
 72
280
 73
279
 74
250
 0
VERTEX
 8
LOFT_1
 10
0
 20
0
 30
0
 70
128
 71
252
 72
281
 73
280
 74
251
 0
VERTEX
 8
LOFT_1
 10
0
 20
0
 30
0
 70
128
 71
253
 72
282
 73
281
 74
252
 0
VERTEX
 8
LOFT_1
 10
0
 20
0
 30
0
 70
128
 71
254
 72
283
 73
282
 74
253
 0
VERTEX
 8
LOFT_1
 10
0
 20
0
 30
0
 70
128
 71
255
 72
284
 73
283
 74
254
 0
VERTEX
 8
LOFT_1
 10
0
 20
0
 30
0
 70
128
 71
256
 72
285
 73
284
 74
255
 0
VERTEX
 8
LOFT_1
 10
0
 20
0
 30
0
 70
128
 71
257
 72
286
 73
285
 74
256
 0
VERTEX
 8
LOFT_1
 10
0
 20
0
 30
0
 70
128
 71
258
 72
287
 73
286
 74
257
 0
VERTEX
 8
LOFT_1
 10
0
 20
0
 30
0
 70
128
 71
259
 72
288
 73
287
 74
258
 0
VERTEX
 8
LOFT_1
 10
0
 20
0
 30
0
 70
128
 71
260
 72
289
 73
288
 74
259
 0
VERTEX
 8
LOFT_1
 10
0
 20
0
 30
0
 70
128
 71
261
 72
290
 73
289
 74
260
 0
VERTEX
 8
LOFT_1
 10
0
 20
0
 30
0
 70
128
 71
233
 72
262
 73
290
 74
261
 0
VERTEX
 8
LOFT_1
 10
0
 20
0
 30
0
 70
128
 71
263
 72
292
 73
291
 74
262
 0
VERTEX
 8
LOFT_1
 10
0
 20
0
 30
0
 70
128
 71
264
 72
293
 73
292
 74
263
 0
VERTEX
 8
LOFT_1
 10
0
 20
0
 30
0
 70
128
 71
265
 72
294
 73
293
 74
264
 0
VERTEX
 8
LOFT_1
 10
0
 20
0
 30
0
 70
128
 71
266
 72
295
 73
294
 74
265
 0
VERTEX
 8
LOFT_1
 10
0
 20
0
 30
0
 70
128
 71
267
 72
296
 73
295
 74
266
 0
VERTEX
 8
LOFT_1
 10
0
 20
0
 30
0
 70
128
 71
268
 72
297
 73
296
 74
267
 0
VERTEX
 8
LOFT_1
 10
0
 20
0
 30
0
 70
128
 71
269
 72
298
 73
297
 74
268
 0
VERTEX
 8
LOFT_1
 10
0
 20
0
 30
0
 70
128
 71
270
 72
299
 73
298
 74
269
 0
VERTEX
 8
LOFT_1
 10
0
 20
0
 30
0
 70
128
 71
271
 72
300
 73
299
 74
270
 0
VERTEX
 8
LOFT_1
 10
0
 20
0
 30
0
 70
128
 71
272
 72
301
 73
300
 74
271
 0
VERTEX
 8
LOFT_1
 10
0
 20
0
 30
0
 70
128
 71
273
 72
302
 73
301
 74
272
 0
VERTEX
 8
LOFT_1
 10
0
 20
0
 30
0
 70
128
 71
274
 72
303
 73
302
 74
273
 0
VERTEX
 8
LOFT_1
 10
0
 20
0
 30
0
 70
128
 71
275
 72
304
 73
303
 74
274
 0
VERTEX
 8
LOFT_1
 10
0
 20
0
 30
0
 70
128
 71
276
 72
305
 73
304
 74
275
 0
VERTEX
 8
LOFT_1
 10
0
 20
0
 30
0
 70
128
 71
277
 72
306
 73
305
 74
276
 0
VERTEX
 8
LOFT_1
 10
0
 20
0
 30
0
 70
128
 71
278
 72
307
 73
306
 74
277
 0
VERTEX
 8
LOFT_1
 10
0
 20
0
 30
0
 70
128
 71
279
 72
308
 73
307
 74
278
 0
VERTEX
 8
LOFT_1
 10
0
 20
0
 30
0
 70
128
 71
280
 72
309
 73
308
 74
279
 0
VERTEX
 8
LOFT_1
 10
0
 20
0
 30
0
 70
128
 71
281
 72
310
 73
309
 74
280
 0
VERTEX
 8
LOFT_1
 10
0
 20
0
 30
0
 70
128
 71
282
 72
311
 73
310
 74
281
 0
VERTEX
 8
LOFT_1
 10
0
 20
0
 30
0
 70
128
 71
283
 72
312
 73
311
 74
282
 0
VERTEX
 8
LOFT_1
 10
0
 20
0
 30
0
 70
128
 71
284
 72
313
 73
312
 74
283
 0
VERTEX
 8
LOFT_1
 10
0
 20
0
 30
0
 70
128
 71
285
 72
314
 73
313
 74
284
 0
VERTEX
 8
LOFT_1
 10
0
 20
0
 30
0
 70
128
 71
286
 72
315
 73
314
 74
285
 0
VERTEX
 8
LOFT_1
 10
0
 20
0
 30
0
 70
128
 71
287
 72
316
 73
315
 74
286
 0
VERTEX
 8
LOFT_1
 10
0
 20
0
 30
0
 70
128
 71
288
 72
317
 73
316
 74
287
 0
VERTEX
 8
LOFT_1
 10
0
 20
0
 30
0
 70
128
 71
289
 72
318
 73
317
 74
288
 0
VERTEX
 8
LOFT_1
 10
0
 20
0
 30
0
 70
128
 71
290
 72
319
 73
318
 74
289
 0
VERTEX
 8
LOFT_1
 10
0
 20
0
 30
0
 70
128
 71
262
 72
291
 73
319
 74
290
 0
SEQEND
 0
POLYLINE
 8
TAPA_1_2
 66
1
 10
0.0
 20
0.0
 30
0.0
 70
64
 71
29
 72
27
 0
VERTEX
 8
TAPA_1_2
 10
0.1769
 20
-0.1383
 30
0.0124
 70
192
 0
VERTEX
 8
TAPA_1_2
 10
0.174
 20
-0.1386
 30
0.0124
 70
192
 0
VERTEX
 8
TAPA_1_2
 10
0.1714
 20
-0.1396
 30
0.0124
 70
192
 0
VERTEX
 8
TAPA_1_2
 10
0.169
 20
-0.141
 30
0.0124
 70
192
 0
VERTEX
 8
TAPA_1_2
 10
0.167
 20
-0.1429
 30
0.0124
 70
192
 0
VERTEX
 8
TAPA_1_2
 10
0.1655
 20
-0.1452
 30
0.0124
 70
192
 0
VERTEX
 8
TAPA_1_2
 10
0.1644
 20
-0.1477
 30
0.0124
 70
192
 0
VERTEX
 8
TAPA_1_2
 10
0.1639
 20
-0.1506
 30
0.0124
 70
192
 0
VERTEX
 8
TAPA_1_2
 10
0.1641
 20
-0.1535
 30
0.0124
 70
192
 0
VERTEX
 8
TAPA_1_2
 10
0.1649
 20
-0.1562
 30
0.0124
 70
192
 0
VERTEX
 8
TAPA_1_2
 10
0.1662
 20
-0.1587
 30
0.0124
 70
192
 0
VERTEX
 8
TAPA_1_2
 10
0.168
 20
-0.1608
 30
0.0124
 70
192
 0
VERTEX
 8
TAPA_1_2
 10
0.1702
 20
-0.1624
 30
0.0124
 70
192
 0
VERTEX
 8
TAPA_1_2
 10
0.1727
 20
-0.1636
 30
0.0124
 70
192
 0
VERTEX
 8
TAPA_1_2
 10
0.1755
 20
-0.1642
 30
0.0124
 70
192
 0
VERTEX
 8
TAPA_1_2
 10
0.1784
 20
-0.1642
 30
0.0124
 70
192
 0
VERTEX
 8
TAPA_1_2
 10
0.1812
 20
-0.1636
 30
0.0124
 70
192
 0
VERTEX
 8
TAPA_1_2
 10
0.1837
 20
-0.1624
 30
0.0124
 70
192
 0
VERTEX
 8
TAPA_1_2
 10
0.1859
 20
-0.1608
 30
0.0124
 70
192
 0
VERTEX
 8
TAPA_1_2
 10
0.1877
 20
-0.1587
 30
0.0124
 70
192
 0
VERTEX
 8
TAPA_1_2
 10
0.189
 20
-0.1562
 30
0.0124
 70
192
 0
VERTEX
 8
TAPA_1_2
 10
0.1897
 20
-0.1535
 30
0.0124
 70
192
 0
VERTEX
 8
TAPA_1_2
 10
0.1899
 20
-0.1506
 30
0.0124
 70
192
 0
VERTEX
 8
TAPA_1_2
 10
0.1894
 20
-0.1477
 30
0.0124
 70
192
 0
VERTEX
 8
TAPA_1_2
 10
0.1884
 20
-0.1452
 30
0.0124
 70
192
 0
VERTEX
 8
TAPA_1_2
 10
0.1868
 20
-0.1429
 30
0.0124
 70
192
 0
VERTEX
 8
TAPA_1_2
 10
0.1848
 20
-0.141
 30
0.0124
 70
192
 0
VERTEX
 8
TAPA_1_2
 10
0.1825
 20
-0.1396
 30
0.0124
 70
192
 0
VERTEX
 8
TAPA_1_2
 10
0.1798
 20
-0.1386
 30
0.0124
 70
192
 0
VERTEX
 8
TAPA_1_2
 10
0
 20
0
 30
0
 70
128
 71
1
 72
2
 73
4
 74
4
 0
VERTEX
 8
TAPA_1_2
 10
0
 20
0
 30
0
 70
128
 71
1
 72
4
 73
5
 74
5
 0
VERTEX
 8
TAPA_1_2
 10
0
 20
0
 30
0
 70
128
 71
1
 72
5
 73
8
 74
8
 0
VERTEX
 8
TAPA_1_2
 10
0
 20
0
 30
0
 70
128
 71
1
 72
8
 73
23
 74
23
 0
VERTEX
 8
TAPA_1_2
 10
0
 20
0
 30
0
 70
128
 71
1
 72
23
 73
26
 74
26
 0
VERTEX
 8
TAPA_1_2
 10
0
 20
0
 30
0
 70
128
 71
1
 72
26
 73
27
 74
27
 0
VERTEX
 8
TAPA_1_2
 10
0
 20
0
 30
0
 70
128
 71
1
 72
27
 73
29
 74
29
 0
VERTEX
 8
TAPA_1_2
 10
0
 20
0
 30
0
 70
128
 71
2
 72
3
 73
4
 74
4
 0
VERTEX
 8
TAPA_1_2
 10
0
 20
0
 30
0
 70
128
 71
5
 72
6
 73
8
 74
8
 0
VERTEX
 8
TAPA_1_2
 10
0
 20
0
 30
0
 70
128
 71
6
 72
7
 73
8
 74
8
 0
VERTEX
 8
TAPA_1_2
 10
0
 20
0
 30
0
 70
128
 71
8
 72
9
 73
15
 74
15
 0
VERTEX
 8
TAPA_1_2
 10
0
 20
0
 30
0
 70
128
 71
8
 72
15
 73
23
 74
23
 0
VERTEX
 8
TAPA_1_2
 10
0
 20
0
 30
0
 70
128
 71
9
 72
10
 73
11
 74
11
 0
VERTEX
 8
TAPA_1_2
 10
0
 20
0
 30
0
 70
128
 71
9
 72
11
 73
12
 74
12
 0
VERTEX
 8
TAPA_1_2
 10
0
 20
0
 30
0
 70
128
 71
9
 72
12
 73
15
 74
15
 0
VERTEX
 8
TAPA_1_2
 10
0
 20
0
 30
0
 70
128
 71
12
 72
13
 73
15
 74
15
 0
VERTEX
 8
TAPA_1_2
 10
0
 20
0
 30
0
 70
128
 71
13
 72
14
 73
15
 74
15
 0
VERTEX
 8
TAPA_1_2
 10
0
 20
0
 30
0
 70
128
 71
15
 72
16
 73
23
 74
23
 0
VERTEX
 8
TAPA_1_2
 10
0
 20
0
 30
0
 70
128
 71
16
 72
17
 73
18
 74
18
 0
VERTEX
 8
TAPA_1_2
 10
0
 20
0
 30
0
 70
128
 71
16
 72
18
 73
19
 74
19
 0
VERTEX
 8
TAPA_1_2
 10
0
 20
0
 30
0
 70
128
 71
16
 72
19
 73
22
 74
22
 0
VERTEX
 8
TAPA_1_2
 10
0
 20
0
 30
0
 70
128
 71
16
 72
22
 73
23
 74
23
 0
VERTEX
 8
TAPA_1_2
 10
0
 20
0
 30
0
 70
128
 71
19
 72
20
 73
22
 74
22
 0
VERTEX
 8
TAPA_1_2
 10
0
 20
0
 30
0
 70
128
 71
20
 72
21
 73
22
 74
22
 0
VERTEX
 8
TAPA_1_2
 10
0
 20
0
 30
0
 70
128
 71
23
 72
24
 73
25
 74
25
 0
VERTEX
 8
TAPA_1_2
 10
0
 20
0
 30
0
 70
128
 71
23
 72
25
 73
26
 74
26
 0
VERTEX
 8
TAPA_1_2
 10
0
 20
0
 30
0
 70
128
 71
27
 72
28
 73
29
 74
29
 0
SEQEND
 0
POLYLINE
 8
TAPA_2_2
 66
1
 10
0.0
 20
0.0
 30
0.0
 70
64
 71
29
 72
27
 0
VERTEX
 8
TAPA_2_2
 10
0.1769
 20
-0.1154
 30
0.2649
 70
192
 0
VERTEX
 8
TAPA_2_2
 10
0.1714
 20
-0.116
 30
0.2649
 70
192
 0
VERTEX
 8
TAPA_2_2
 10
0.1663
 20
-0.1178
 30
0.2649
 70
192
 0
VERTEX
 8
TAPA_2_2
 10
0.1617
 20
-0.1205
 30
0.2649
 70
192
 0
VERTEX
 8
TAPA_2_2
 10
0.1579
 20
-0.1242
 30
0.2649
 70
192
 0
VERTEX
 8
TAPA_2_2
 10
0.1549
 20
-0.1286
 30
0.2649
 70
192
 0
VERTEX
 8
TAPA_2_2
 10
0.1529
 20
-0.1335
 30
0.2649
 70
192
 0
VERTEX
 8
TAPA_2_2
 10
0.152
 20
-0.139
 30
0.2649
 70
192
 0
VERTEX
 8
TAPA_2_2
 10
0.1523
 20
-0.1446
 30
0.2649
 70
192
 0
VERTEX
 8
TAPA_2_2
 10
0.1538
 20
-0.1498
 30
0.2649
 70
192
 0
VERTEX
 8
TAPA_2_2
 10
0.1563
 20
-0.1545
 30
0.2649
 70
192
 0
VERTEX
 8
TAPA_2_2
 10
0.1597
 20
-0.1586
 30
0.2649
 70
192
 0
VERTEX
 8
TAPA_2_2
 10
0.1639
 20
-0.1618
 30
0.2649
 70
192
 0
VERTEX
 8
TAPA_2_2
 10
0.1688
 20
-0.1641
 30
0.2649
 70
192
 0
VERTEX
 8
TAPA_2_2
 10
0.1741
 20
-0.1653
 30
0.2649
 70
192
 0
VERTEX
 8
TAPA_2_2
 10
0.1797
 20
-0.1653
 30
0.2649
 70
192
 0
VERTEX
 8
TAPA_2_2
 10
0.1851
 20
-0.1641
 30
0.2649
 70
192
 0
VERTEX
 8
TAPA_2_2
 10
0.1899
 20
-0.1618
 30
0.2649
 70
192
 0
VERTEX
 8
TAPA_2_2
 10
0.1941
 20
-0.1586
 30
0.2649
 70
192
 0
VERTEX
 8
TAPA_2_2
 10
0.1976
 20
-0.1545
 30
0.2649
 70
192
 0
VERTEX
 8
TAPA_2_2
 10
0.2001
 20
-0.1498
 30
0.2649
 70
192
 0
VERTEX
 8
TAPA_2_2
 10
0.2016
 20
-0.1446
 30
0.2649
 70
192
 0
VERTEX
 8
TAPA_2_2
 10
0.2019
 20
-0.139
 30
0.2649
 70
192
 0
VERTEX
 8
TAPA_2_2
 10
0.201
 20
-0.1335
 30
0.2649
 70
192
 0
VERTEX
 8
TAPA_2_2
 10
0.199
 20
-0.1286
 30
0.2649
 70
192
 0
VERTEX
 8
TAPA_2_2
 10
0.196
 20
-0.1242
 30
0.2649
 70
192
 0
VERTEX
 8
TAPA_2_2
 10
0.1921
 20
-0.1205
 30
0.2649
 70
192
 0
VERTEX
 8
TAPA_2_2
 10
0.1876
 20
-0.1178
 30
0.2649
 70
192
 0
VERTEX
 8
TAPA_2_2
 10
0.1825
 20
-0.116
 30
0.2649
 70
192
 0
VERTEX
 8
TAPA_2_2
 10
0
 20
0
 30
0
 70
128
 71
29
 72
28
 73
27
 74
27
 0
VERTEX
 8
TAPA_2_2
 10
0
 20
0
 30
0
 70
128
 71
29
 72
27
 73
1
 74
1
 0
VERTEX
 8
TAPA_2_2
 10
0
 20
0
 30
0
 70
128
 71
27
 72
26
 73
1
 74
1
 0
VERTEX
 8
TAPA_2_2
 10
0
 20
0
 30
0
 70
128
 71
26
 72
25
 73
23
 74
23
 0
VERTEX
 8
TAPA_2_2
 10
0
 20
0
 30
0
 70
128
 71
26
 72
23
 73
1
 74
1
 0
VERTEX
 8
TAPA_2_2
 10
0
 20
0
 30
0
 70
128
 71
25
 72
24
 73
23
 74
23
 0
VERTEX
 8
TAPA_2_2
 10
0
 20
0
 30
0
 70
128
 71
23
 72
22
 73
16
 74
16
 0
VERTEX
 8
TAPA_2_2
 10
0
 20
0
 30
0
 70
128
 71
23
 72
16
 73
15
 74
15
 0
VERTEX
 8
TAPA_2_2
 10
0
 20
0
 30
0
 70
128
 71
23
 72
15
 73
8
 74
8
 0
VERTEX
 8
TAPA_2_2
 10
0
 20
0
 30
0
 70
128
 71
23
 72
8
 73
1
 74
1
 0
VERTEX
 8
TAPA_2_2
 10
0
 20
0
 30
0
 70
128
 71
22
 72
21
 73
20
 74
20
 0
VERTEX
 8
TAPA_2_2
 10
0
 20
0
 30
0
 70
128
 71
22
 72
20
 73
19
 74
19
 0
VERTEX
 8
TAPA_2_2
 10
0
 20
0
 30
0
 70
128
 71
22
 72
19
 73
16
 74
16
 0
VERTEX
 8
TAPA_2_2
 10
0
 20
0
 30
0
 70
128
 71
19
 72
18
 73
16
 74
16
 0
VERTEX
 8
TAPA_2_2
 10
0
 20
0
 30
0
 70
128
 71
18
 72
17
 73
16
 74
16
 0
VERTEX
 8
TAPA_2_2
 10
0
 20
0
 30
0
 70
128
 71
15
 72
14
 73
13
 74
13
 0
VERTEX
 8
TAPA_2_2
 10
0
 20
0
 30
0
 70
128
 71
15
 72
13
 73
12
 74
12
 0
VERTEX
 8
TAPA_2_2
 10
0
 20
0
 30
0
 70
128
 71
15
 72
12
 73
9
 74
9
 0
VERTEX
 8
TAPA_2_2
 10
0
 20
0
 30
0
 70
128
 71
15
 72
9
 73
8
 74
8
 0
VERTEX
 8
TAPA_2_2
 10
0
 20
0
 30
0
 70
128
 71
12
 72
11
 73
9
 74
9
 0
VERTEX
 8
TAPA_2_2
 10
0
 20
0
 30
0
 70
128
 71
11
 72
10
 73
9
 74
9
 0
VERTEX
 8
TAPA_2_2
 10
0
 20
0
 30
0
 70
128
 71
8
 72
7
 73
6
 74
6
 0
VERTEX
 8
TAPA_2_2
 10
0
 20
0
 30
0
 70
128
 71
8
 72
6
 73
5
 74
5
 0
VERTEX
 8
TAPA_2_2
 10
0
 20
0
 30
0
 70
128
 71
8
 72
5
 73
1
 74
1
 0
VERTEX
 8
TAPA_2_2
 10
0
 20
0
 30
0
 70
128
 71
5
 72
4
 73
1
 74
1
 0
VERTEX
 8
TAPA_2_2
 10
0
 20
0
 30
0
 70
128
 71
4
 72
3
 73
2
 74
2
 0
VERTEX
 8
TAPA_2_2
 10
0
 20
0
 30
0
 70
128
 71
4
 72
2
 73
1
 74
1
 0
SEQEND
 0
POLYLINE
 8
CUBE
 66
1
 10
0.0
 20
0.0
 30
0.0
 70
64
 71
23
 72
15
 0
VERTEX
 8
CUBE
 10
-0.215
 20
-0.1951
 30
0.2853
 70
192
 0
VERTEX
 8
CUBE
 10
-0.215
 20
-0.1951
 30
0.3792
 70
192
 0
VERTEX
 8
CUBE
 10
0.215
 20
-0.1951
 30
0.2853
 70
192
 0
VERTEX
 8
CUBE
 10
0.215
 20
-0.1951
 30
0.3792
 70
192
 0
VERTEX
 8
CUBE
 10
0.215
 20
0.124
 30
0.2853
 70
192
 0
VERTEX
 8
CUBE
 10
0.215
 20
0.124
 30
0.3792
 70
192
 0
VERTEX
 8
CUBE
 10
-0.215
 20
0.124
 30
0.2853
 70
192
 0
VERTEX
 8
CUBE
 10
-0.215
 20
0.124
 30
0.3792
 70
192
 0
VERTEX
 8
CUBE
 10
0.1954
 20
0.124
 30
0.3792
 70
192
 0
VERTEX
 8
CUBE
 10
0.1954
 20
0.124
 30
0.2853
 70
192
 0
VERTEX
 8
CUBE
 10
-0.1954
 20
0.124
 30
0.3792
 70
192
 0
VERTEX
 8
CUBE
 10
-0.1954
 20
0.124
 30
0.2853
 70
192
 0
VERTEX
 8
CUBE
 10
-0.1954
 20
-0.1622
 30
0.3792
 70
192
 0
VERTEX
 8
CUBE
 10
0.1954
 20
-0.1622
 30
0.3792
 70
192
 0
VERTEX
 8
CUBE
 10
-0.1954
 20
-0.1622
 30
0.2853
 70
192
 0
VERTEX
 8
CUBE
 10
0.1954
 20
-0.1622
 30
0.2853
 70
192
 0
VERTEX
 8
CUBE
 10
-0.0468
 20
-0.1951
 30
0.3792
 70
192
 0
VERTEX
 8
CUBE
 10
-0.0042
 20
-0.1951
 30
0.3792
 70
192
 0
VERTEX
 8
CUBE
 10
-0.0042
 20
-0.1622
 30
0.3792
 70
192
 0
VERTEX
 8
CUBE
 10
-0.0468
 20
-0.1622
 30
0.3792
 70
192
 0
VERTEX
 8
CUBE
 10
-0.0468
 20
-0.1951
 30
0.3554
 70
192
 0
VERTEX
 8
CUBE
 10
0.0406
 20
-0.1951
 30
0.3788
 70
192
 0
VERTEX
 8
CUBE
 10
0.0406
 20
-0.1951
 30
0.3559
 70
192
 0
VERTEX
 8
CUBE
 10
0
 20
0
 30
0
 70
128
 71
1
 72
2
 73
17
 74
21
 0
VERTEX
 8
CUBE
 10
0
 20
0
 30
0
 70
128
 71
22
 72
18
 73
4
 74
4
 0
VERTEX
 8
CUBE
 10
0
 20
0
 30
0
 70
128
 71
23
 72
22
 73
4
 74
3
 0
VERTEX
 8
CUBE
 10
0
 20
0
 30
0
 70
128
 71
1
 72
21
 73
23
 74
3
 0
VERTEX
 8
CUBE
 10
0
 20
0
 30
0
 70
128
 71
3
 72
4
 73
6
 74
5
 0
VERTEX
 8
CUBE
 10
0
 20
0
 30
0
 70
128
 71
11
 72
8
 73
7
 74
12
 0
VERTEX
 8
CUBE
 10
0
 20
0
 30
0
 70
128
 71
10
 72
5
 73
6
 74
9
 0
VERTEX
 8
CUBE
 10
0
 20
0
 30
0
 70
128
 71
7
 72
8
 73
2
 74
1
 0
VERTEX
 8
CUBE
 10
0
 20
0
 30
0
 70
128
 71
14
 72
9
 73
6
 74
4
 0
VERTEX
 8
CUBE
 10
0
 20
0
 30
0
 70
128
 71
2
 72
8
 73
11
 74
13
 0
VERTEX
 8
CUBE
 10
0
 20
0
 30
0
 70
128
 71
4
 72
18
 73
19
 74
14
 0
VERTEX
 8
CUBE
 10
0
 20
0
 30
0
 70
128
 71
13
 72
20
 73
17
 74
2
 0
VERTEX
 8
CUBE
 10
0
 20
0
 30
0
 70
128
 71
15
 72
12
 73
7
 74
1
 0
VERTEX
 8
CUBE
 10
0
 20
0
 30
0
 70
128
 71
3
 72
5
 73
10
 74
16
 0
VERTEX
 8
CUBE
 10
0
 20
0
 30
0
 70
128
 71
16
 72
15
 73
1
 74
3
 0
SEQEND
 0
POLYLINE
 8
CUBE_2
 66
1
 10
0.0
 20
0.0
 30
0.0
 70
64
 71
13
 72
6
 0
VERTEX
 8
CUBE_2
 10
-0.1954
 20
-0.1622
 30
0.3792
 70
192
 0
VERTEX
 8
CUBE_2
 10
0.1954
 20
-0.1622
 30
0.3792
 70
192
 0
VERTEX
 8
CUBE_2
 10
-0.1954
 20
-0.1622
 30
0.2853
 70
192
 0
VERTEX
 8
CUBE_2
 10
0.1954
 20
-0.1622
 30
0.2853
 70
192
 0
VERTEX
 8
CUBE_2
 10
0.1954
 20
0.124
 30
0.3792
 70
192
 0
VERTEX
 8
CUBE_2
 10
0.1954
 20
0.124
 30
0.2853
 70
192
 0
VERTEX
 8
CUBE_2
 10
-0.1954
 20
0.124
 30
0.3792
 70
192
 0
VERTEX
 8
CUBE_2
 10
-0.1954
 20
0.124
 30
0.2853
 70
192
 0
VERTEX
 8
CUBE_2
 10
-0.0468
 20
-0.1622
 30
0.3792
 70
192
 0
VERTEX
 8
CUBE_2
 10
-0.0042
 20
-0.1622
 30
0.3792
 70
192
 0
VERTEX
 8
CUBE_2
 10
-0.0468
 20
-0.1622
 30
0.3554
 70
192
 0
VERTEX
 8
CUBE_2
 10
0.0406
 20
-0.1622
 30
0.3559
 70
192
 0
VERTEX
 8
CUBE_2
 10
0.0406
 20
-0.1622
 30
0.3788
 70
192
 0
VERTEX
 8
CUBE_2
 10
0
 20
0
 30
0
 70
128
 71
2
 72
10
 73
13
 74
13
 0
VERTEX
 8
CUBE_2
 10
0
 20
0
 30
0
 70
128
 71
11
 72
9
 73
1
 74
3
 0
VERTEX
 8
CUBE_2
 10
0
 20
0
 30
0
 70
128
 71
12
 72
11
 73
3
 74
4
 0
VERTEX
 8
CUBE_2
 10
0
 20
0
 30
0
 70
128
 71
4
 72
2
 73
13
 74
12
 0
VERTEX
 8
CUBE_2
 10
0
 20
0
 30
0
 70
128
 71
2
 72
4
 73
6
 74
5
 0
VERTEX
 8
CUBE_2
 10
0
 20
0
 30
0
 70
128
 71
1
 72
7
 73
8
 74
3
 0
SEQEND
 0
POLYLINE
 8
EXTRUDE
 66
1
 10
0.0
 20
0.0
 30
0.0
 70
64
 71
10
 72
4
 0
VERTEX
 8
EXTRUDE
 10
-0.0468
 20
-0.1951
 30
0.3554
 70
192
 0
VERTEX
 8
EXTRUDE
 10
0.0406
 20
-0.1951
 30
0.3559
 70
192
 0
VERTEX
 8
EXTRUDE
 10
0.0406
 20
-0.1951
 30
0.3788
 70
192
 0
VERTEX
 8
EXTRUDE
 10
0.0406
 20
-0.1622
 30
0.3559
 70
192
 0
VERTEX
 8
EXTRUDE
 10
-0.0468
 20
-0.1622
 30
0.3554
 70
192
 0
VERTEX
 8
EXTRUDE
 10
0.0406
 20
-0.1622
 30
0.3788
 70
192
 0
VERTEX
 8
EXTRUDE
 10
-0.0468
 20
-0.1951
 30
0.3792
 70
192
 0
VERTEX
 8
EXTRUDE
 10
-0.0042
 20
-0.1951
 30
0.3792
 70
192
 0
VERTEX
 8
EXTRUDE
 10
-0.0468
 20
-0.1622
 30
0.3792
 70
192
 0
VERTEX
 8
EXTRUDE
 10
-0.0042
 20
-0.1622
 30
0.3792
 70
192
 0
VERTEX
 8
EXTRUDE
 10
0
 20
0
 30
0
 70
128
 71
5
 72
1
 73
7
 74
9
 0
VERTEX
 8
EXTRUDE
 10
0
 20
0
 30
0
 70
128
 71
4
 72
2
 73
1
 74
5
 0
VERTEX
 8
EXTRUDE
 10
0
 20
0
 30
0
 70
128
 71
2
 72
4
 73
6
 74
3
 0
VERTEX
 8
EXTRUDE
 10
0
 20
0
 30
0
 70
128
 71
10
 72
8
 73
3
 74
6
 0
SEQEND
 0
POLYLINE
 8
CUBE_1
 66
1
 10
0.0
 20
0.0
 30
0.0
 70
64
 71
23
 72
15
 0
VERTEX
 8
CUBE_1
 10
-0.215
 20
-0.1951
 30
0.38
 70
192
 0
VERTEX
 8
CUBE_1
 10
-0.215
 20
-0.1951
 30
0.4739
 70
192
 0
VERTEX
 8
CUBE_1
 10
0.215
 20
-0.1951
 30
0.38
 70
192
 0
VERTEX
 8
CUBE_1
 10
0.215
 20
-0.1951
 30
0.4739
 70
192
 0
VERTEX
 8
CUBE_1
 10
0.215
 20
0.124
 30
0.38
 70
192
 0
VERTEX
 8
CUBE_1
 10
0.215
 20
0.124
 30
0.4739
 70
192
 0
VERTEX
 8
CUBE_1
 10
-0.215
 20
0.124
 30
0.38
 70
192
 0
VERTEX
 8
CUBE_1
 10
-0.215
 20
0.124
 30
0.4739
 70
192
 0
VERTEX
 8
CUBE_1
 10
0.1954
 20
0.124
 30
0.4739
 70
192
 0
VERTEX
 8
CUBE_1
 10
0.1954
 20
0.124
 30
0.38
 70
192
 0
VERTEX
 8
CUBE_1
 10
-0.1954
 20
0.124
 30
0.4739
 70
192
 0
VERTEX
 8
CUBE_1
 10
-0.1954
 20
0.124
 30
0.38
 70
192
 0
VERTEX
 8
CUBE_1
 10
-0.1954
 20
-0.1622
 30
0.4739
 70
192
 0
VERTEX
 8
CUBE_1
 10
0.1954
 20
-0.1622
 30
0.4739
 70
192
 0
VERTEX
 8
CUBE_1
 10
-0.1954
 20
-0.1622
 30
0.38
 70
192
 0
VERTEX
 8
CUBE_1
 10
0.1954
 20
-0.1622
 30
0.38
 70
192
 0
VERTEX
 8
CUBE_1
 10
-0.0468
 20
-0.1951
 30
0.4739
 70
192
 0
VERTEX
 8
CUBE_1
 10
-0.0042
 20
-0.1951
 30
0.4739
 70
192
 0
VERTEX
 8
CUBE_1
 10
-0.0042
 20
-0.1622
 30
0.4739
 70
192
 0
VERTEX
 8
CUBE_1
 10
-0.0468
 20
-0.1622
 30
0.4739
 70
192
 0
VERTEX
 8
CUBE_1
 10
-0.0468
 20
-0.1951
 30
0.4501
 70
192
 0
VERTEX
 8
CUBE_1
 10
0.0406
 20
-0.1951
 30
0.4735
 70
192
 0
VERTEX
 8
CUBE_1
 10
0.0406
 20
-0.1951
 30
0.4507
 70
192
 0
VERTEX
 8
CUBE_1
 10
0
 20
0
 30
0
 70
128
 71
1
 72
2
 73
17
 74
21
 0
VERTEX
 8
CUBE_1
 10
0
 20
0
 30
0
 70
128
 71
22
 72
18
 73
4
 74
4
 0
VERTEX
 8
CUBE_1
 10
0
 20
0
 30
0
 70
128
 71
23
 72
22
 73
4
 74
3
 0
VERTEX
 8
CUBE_1
 10
0
 20
0
 30
0
 70
128
 71
1
 72
21
 73
23
 74
3
 0
VERTEX
 8
CUBE_1
 10
0
 20
0
 30
0
 70
128
 71
3
 72
4
 73
6
 74
5
 0
VERTEX
 8
CUBE_1
 10
0
 20
0
 30
0
 70
128
 71
11
 72
8
 73
7
 74
12
 0
VERTEX
 8
CUBE_1
 10
0
 20
0
 30
0
 70
128
 71
10
 72
5
 73
6
 74
9
 0
VERTEX
 8
CUBE_1
 10
0
 20
0
 30
0
 70
128
 71
7
 72
8
 73
2
 74
1
 0
VERTEX
 8
CUBE_1
 10
0
 20
0
 30
0
 70
128
 71
14
 72
9
 73
6
 74
4
 0
VERTEX
 8
CUBE_1
 10
0
 20
0
 30
0
 70
128
 71
2
 72
8
 73
11
 74
13
 0
VERTEX
 8
CUBE_1
 10
0
 20
0
 30
0
 70
128
 71
4
 72
18
 73
19
 74
14
 0
VERTEX
 8
CUBE_1
 10
0
 20
0
 30
0
 70
128
 71
13
 72
20
 73
17
 74
2
 0
VERTEX
 8
CUBE_1
 10
0
 20
0
 30
0
 70
128
 71
15
 72
12
 73
7
 74
1
 0
VERTEX
 8
CUBE_1
 10
0
 20
0
 30
0
 70
128
 71
3
 72
5
 73
10
 74
16
 0
VERTEX
 8
CUBE_1
 10
0
 20
0
 30
0
 70
128
 71
16
 72
15
 73
1
 74
3
 0
SEQEND
 0
POLYLINE
 8
CUBE_2_1
 66
1
 10
0.0
 20
0.0
 30
0.0
 70
64
 71
13
 72
6
 0
VERTEX
 8
CUBE_2_1
 10
-0.1954
 20
-0.1622
 30
0.4739
 70
192
 0
VERTEX
 8
CUBE_2_1
 10
0.1954
 20
-0.1622
 30
0.4739
 70
192
 0
VERTEX
 8
CUBE_2_1
 10
-0.1954
 20
-0.1622
 30
0.38
 70
192
 0
VERTEX
 8
CUBE_2_1
 10
0.1954
 20
-0.1622
 30
0.38
 70
192
 0
VERTEX
 8
CUBE_2_1
 10
0.1954
 20
0.124
 30
0.4739
 70
192
 0
VERTEX
 8
CUBE_2_1
 10
0.1954
 20
0.124
 30
0.38
 70
192
 0
VERTEX
 8
CUBE_2_1
 10
-0.1954
 20
0.124
 30
0.4739
 70
192
 0
VERTEX
 8
CUBE_2_1
 10
-0.1954
 20
0.124
 30
0.38
 70
192
 0
VERTEX
 8
CUBE_2_1
 10
-0.0468
 20
-0.1622
 30
0.4739
 70
192
 0
VERTEX
 8
CUBE_2_1
 10
-0.0042
 20
-0.1622
 30
0.4739
 70
192
 0
VERTEX
 8
CUBE_2_1
 10
-0.0468
 20
-0.1622
 30
0.4501
 70
192
 0
VERTEX
 8
CUBE_2_1
 10
0.0406
 20
-0.1622
 30
0.4507
 70
192
 0
VERTEX
 8
CUBE_2_1
 10
0.0406
 20
-0.1622
 30
0.4735
 70
192
 0
VERTEX
 8
CUBE_2_1
 10
0
 20
0
 30
0
 70
128
 71
2
 72
10
 73
13
 74
13
 0
VERTEX
 8
CUBE_2_1
 10
0
 20
0
 30
0
 70
128
 71
11
 72
9
 73
1
 74
3
 0
VERTEX
 8
CUBE_2_1
 10
0
 20
0
 30
0
 70
128
 71
12
 72
11
 73
3
 74
4
 0
VERTEX
 8
CUBE_2_1
 10
0
 20
0
 30
0
 70
128
 71
4
 72
2
 73
13
 74
12
 0
VERTEX
 8
CUBE_2_1
 10
0
 20
0
 30
0
 70
128
 71
2
 72
4
 73
6
 74
5
 0
VERTEX
 8
CUBE_2_1
 10
0
 20
0
 30
0
 70
128
 71
1
 72
7
 73
8
 74
3
 0
SEQEND
 0
POLYLINE
 8
EXTRUDE_1
 66
1
 10
0.0
 20
0.0
 30
0.0
 70
64
 71
10
 72
4
 0
VERTEX
 8
EXTRUDE_1
 10
-0.0468
 20
-0.1951
 30
0.4501
 70
192
 0
VERTEX
 8
EXTRUDE_1
 10
0.0406
 20
-0.1951
 30
0.4507
 70
192
 0
VERTEX
 8
EXTRUDE_1
 10
0.0406
 20
-0.1951
 30
0.4735
 70
192
 0
VERTEX
 8
EXTRUDE_1
 10
0.0406
 20
-0.1622
 30
0.4507
 70
192
 0
VERTEX
 8
EXTRUDE_1
 10
-0.0468
 20
-0.1622
 30
0.4501
 70
192
 0
VERTEX
 8
EXTRUDE_1
 10
0.0406
 20
-0.1622
 30
0.4735
 70
192
 0
VERTEX
 8
EXTRUDE_1
 10
-0.0468
 20
-0.1951
 30
0.4739
 70
192
 0
VERTEX
 8
EXTRUDE_1
 10
-0.0042
 20
-0.1951
 30
0.4739
 70
192
 0
VERTEX
 8
EXTRUDE_1
 10
-0.0468
 20
-0.1622
 30
0.4739
 70
192
 0
VERTEX
 8
EXTRUDE_1
 10
-0.0042
 20
-0.1622
 30
0.4739
 70
192
 0
VERTEX
 8
EXTRUDE_1
 10
0
 20
0
 30
0
 70
128
 71
5
 72
1
 73
7
 74
9
 0
VERTEX
 8
EXTRUDE_1
 10
0
 20
0
 30
0
 70
128
 71
4
 72
2
 73
1
 74
5
 0
VERTEX
 8
EXTRUDE_1
 10
0
 20
0
 30
0
 70
128
 71
2
 72
4
 73
6
 74
3
 0
VERTEX
 8
EXTRUDE_1
 10
0
 20
0
 30
0
 70
128
 71
10
 72
8
 73
3
 74
6
 0
SEQEND
 0
POLYLINE
 8
LOFT
 66
1
 10
0.0
 20
0.0
 30
0.0
 70
64
 71
319
 72
290
 0
VERTEX
 8
LOFT
 10
-0.1846
 20
-0.1457
 30
0.0124
 70
192
 0
VERTEX
 8
LOFT
 10
-0.1849
 20
-0.1428
 30
0.0124
 70
192
 0
VERTEX
 8
LOFT
 10
-0.1858
 20
-0.1401
 30
0.0124
 70
192
 0
VERTEX
 8
LOFT
 10
-0.1873
 20
-0.1378
 30
0.0124
 70
192
 0
VERTEX
 8
LOFT
 10
-0.1892
 20
-0.1358
 30
0.0124
 70
192
 0
VERTEX
 8
LOFT
 10
-0.1914
 20
-0.1342
 30
0.0124
 70
192
 0
VERTEX
 8
LOFT
 10
-0.194
 20
-0.1332
 30
0.0124
 70
192
 0
VERTEX
 8
LOFT
 10
-0.1969
 20
-0.1327
 30
0.0124
 70
192
 0
VERTEX
 8
LOFT
 10
-0.1998
 20
-0.1329
 30
0.0124
 70
192
 0
VERTEX
 8
LOFT
 10
-0.2025
 20
-0.1336
 30
0.0124
 70
192
 0
VERTEX
 8
LOFT
 10
-0.2049
 20
-0.1349
 30
0.0124
 70
192
 0
VERTEX
 8
LOFT
 10
-0.207
 20
-0.1367
 30
0.0124
 70
192
 0
VERTEX
 8
LOFT
 10
-0.2087
 20
-0.1389
 30
0.0124
 70
192
 0
VERTEX
 8
LOFT
 10
-0.2099
 20
-0.1414
 30
0.0124
 70
192
 0
VERTEX
 8
LOFT
 10
-0.2105
 20
-0.1442
 30
0.0124
 70
192
 0
VERTEX
 8
LOFT
 10
-0.2105
 20
-0.1472
 30
0.0124
 70
192
 0
VERTEX
 8
LOFT
 10
-0.2099
 20
-0.1499
 30
0.0124
 70
192
 0
VERTEX
 8
LOFT
 10
-0.2087
 20
-0.1524
 30
0.0124
 70
192
 0
VERTEX
 8
LOFT
 10
-0.207
 20
-0.1546
 30
0.0124
 70
192
 0
VERTEX
 8
LOFT
 10
-0.2049
 20
-0.1564
 30
0.0124
 70
192
 0
VERTEX
 8
LOFT
 10
-0.2025
 20
-0.1577
 30
0.0124
 70
192
 0
VERTEX
 8
LOFT
 10
-0.1998
 20
-0.1585
 30
0.0124
 70
192
 0
VERTEX
 8
LOFT
 10
-0.1969
 20
-0.1587
 30
0.0124
 70
192
 0
VERTEX
 8
LOFT
 10
-0.194
 20
-0.1582
 30
0.0124
 70
192
 0
VERTEX
 8
LOFT
 10
-0.1914
 20
-0.1571
 30
0.0124
 70
192
 0
VERTEX
 8
LOFT
 10
-0.1892
 20
-0.1556
 30
0.0124
 70
192
 0
VERTEX
 8
LOFT
 10
-0.1873
 20
-0.1536
 30
0.0124
 70
192
 0
VERTEX
 8
LOFT
 10
-0.1858
 20
-0.1512
 30
0.0124
 70
192
 0
VERTEX
 8
LOFT
 10
-0.1849
 20
-0.1486
 30
0.0124
 70
192
 0
VERTEX
 8
LOFT
 10
-0.1823
 20
-0.1457
 30
0.0377
 70
192
 0
VERTEX
 8
LOFT
 10
-0.1827
 20
-0.1425
 30
0.0377
 70
192
 0
VERTEX
 8
LOFT
 10
-0.1837
 20
-0.1396
 30
0.0377
 70
192
 0
VERTEX
 8
LOFT
 10
-0.1852
 20
-0.137
 30
0.0377
 70
192
 0
VERTEX
 8
LOFT
 10
-0.1873
 20
-0.1349
 30
0.0377
 70
192
 0
VERTEX
 8
LOFT
 10
-0.1898
 20
-0.1332
 30
0.0377
 70
192
 0
VERTEX
 8
LOFT
 10
-0.1926
 20
-0.132
 30
0.0377
 70
192
 0
VERTEX
 8
LOFT
 10
-0.1957
 20
-0.1315
 30
0.0377
 70
192
 0
VERTEX
 8
LOFT
 10
-0.1989
 20
-0.1317
 30
0.0377
 70
192
 0
VERTEX
 8
LOFT
 10
-0.2019
 20
-0.1325
 30
0.0377
 70
192
 0
VERTEX
 8
LOFT
 10
-0.2045
 20
-0.134
 30
0.0377
 70
192
 0
VERTEX
 8
LOFT
 10
-0.2068
 20
-0.1359
 30
0.0377
 70
192
 0
VERTEX
 8
LOFT
 10
-0.2086
 20
-0.1383
 30
0.0377
 70
192
 0
VERTEX
 8
LOFT
 10
-0.2099
 20
-0.141
 30
0.0377
 70
192
 0
VERTEX
 8
LOFT
 10
-0.2106
 20
-0.1441
 30
0.0377
 70
192
 0
VERTEX
 8
LOFT
 10
-0.2106
 20
-0.1473
 30
0.0377
 70
192
 0
VERTEX
 8
LOFT
 10
-0.2099
 20
-0.1503
 30
0.0377
 70
192
 0
VERTEX
 8
LOFT
 10
-0.2086
 20
-0.1531
 30
0.0377
 70
192
 0
VERTEX
 8
LOFT
 10
-0.2068
 20
-0.1555
 30
0.0377
 70
192
 0
VERTEX
 8
LOFT
 10
-0.2045
 20
-0.1574
 30
0.0377
 70
192
 0
VERTEX
 8
LOFT
 10
-0.2019
 20
-0.1588
 30
0.0377
 70
192
 0
VERTEX
 8
LOFT
 10
-0.1989
 20
-0.1597
 30
0.0377
 70
192
 0
VERTEX
 8
LOFT
 10
-0.1957
 20
-0.1599
 30
0.0377
 70
192
 0
VERTEX
 8
LOFT
 10
-0.1926
 20
-0.1593
 30
0.0377
 70
192
 0
VERTEX
 8
LOFT
 10
-0.1898
 20
-0.1582
 30
0.0377
 70
192
 0
VERTEX
 8
LOFT
 10
-0.1873
 20
-0.1565
 30
0.0377
 70
192
 0
VERTEX
 8
LOFT
 10
-0.1852
 20
-0.1543
 30
0.0377
 70
192
 0
VERTEX
 8
LOFT
 10
-0.1837
 20
-0.1517
 30
0.0377
 70
192
 0
VERTEX
 8
LOFT
 10
-0.1827
 20
-0.1488
 30
0.0377
 70
192
 0
VERTEX
 8
LOFT
 10
-0.18
 20
-0.1457
 30
0.0629
 70
192
 0
VERTEX
 8
LOFT
 10
-0.1804
 20
-0.1423
 30
0.0629
 70
192
 0
VERTEX
 8
LOFT
 10
-0.1815
 20
-0.1391
 30
0.0629
 70
192
 0
VERTEX
 8
LOFT
 10
-0.1832
 20
-0.1363
 30
0.0629
 70
192
 0
VERTEX
 8
LOFT
 10
-0.1854
 20
-0.134
 30
0.0629
 70
192
 0
VERTEX
 8
LOFT
 10
-0.1881
 20
-0.1321
 30
0.0629
 70
192
 0
VERTEX
 8
LOFT
 10
-0.1912
 20
-0.1309
 30
0.0629
 70
192
 0
VERTEX
 8
LOFT
 10
-0.1945
 20
-0.1303
 30
0.0629
 70
192
 0
VERTEX
 8
LOFT
 10
-0.198
 20
-0.1305
 30
0.0629
 70
192
 0
VERTEX
 8
LOFT
 10
-0.2012
 20
-0.1314
 30
0.0629
 70
192
 0
VERTEX
 8
LOFT
 10
-0.2041
 20
-0.133
 30
0.0629
 70
192
 0
VERTEX
 8
LOFT
 10
-0.2066
 20
-0.1351
 30
0.0629
 70
192
 0
VERTEX
 8
LOFT
 10
-0.2086
 20
-0.1377
 30
0.0629
 70
192
 0
VERTEX
 8
LOFT
 10
-0.21
 20
-0.1407
 30
0.0629
 70
192
 0
VERTEX
 8
LOFT
 10
-0.2107
 20
-0.1439
 30
0.0629
 70
192
 0
VERTEX
 8
LOFT
 10
-0.2107
 20
-0.1474
 30
0.0629
 70
192
 0
VERTEX
 8
LOFT
 10
-0.21
 20
-0.1507
 30
0.0629
 70
192
 0
VERTEX
 8
LOFT
 10
-0.2086
 20
-0.1537
 30
0.0629
 70
192
 0
VERTEX
 8
LOFT
 10
-0.2066
 20
-0.1563
 30
0.0629
 70
192
 0
VERTEX
 8
LOFT
 10
-0.2041
 20
-0.1584
 30
0.0629
 70
192
 0
VERTEX
 8
LOFT
 10
-0.2012
 20
-0.16
 30
0.0629
 70
192
 0
VERTEX
 8
LOFT
 10
-0.198
 20
-0.1609
 30
0.0629
 70
192
 0
VERTEX
 8
LOFT
 10
-0.1945
 20
-0.1611
 30
0.0629
 70
192
 0
VERTEX
 8
LOFT
 10
-0.1912
 20
-0.1605
 30
0.0629
 70
192
 0
VERTEX
 8
LOFT
 10
-0.1881
 20
-0.1593
 30
0.0629
 70
192
 0
VERTEX
 8
LOFT
 10
-0.1854
 20
-0.1574
 30
0.0629
 70
192
 0
VERTEX
 8
LOFT
 10
-0.1832
 20
-0.155
 30
0.0629
 70
192
 0
VERTEX
 8
LOFT
 10
-0.1815
 20
-0.1523
 30
0.0629
 70
192
 0
VERTEX
 8
LOFT
 10
-0.1804
 20
-0.1491
 30
0.0629
 70
192
 0
VERTEX
 8
LOFT
 10
-0.1777
 20
-0.1457
 30
0.0882
 70
192
 0
VERTEX
 8
LOFT
 10
-0.1781
 20
-0.142
 30
0.0882
 70
192
 0
VERTEX
 8
LOFT
 10
-0.1793
 20
-0.1386
 30
0.0882
 70
192
 0
VERTEX
 8
LOFT
 10
-0.1811
 20
-0.1356
 30
0.0882
 70
192
 0
VERTEX
 8
LOFT
 10
-0.1835
 20
-0.133
 30
0.0882
 70
192
 0
VERTEX
 8
LOFT
 10
-0.1865
 20
-0.1311
 30
0.0882
 70
192
 0
VERTEX
 8
LOFT
 10
-0.1898
 20
-0.1297
 30
0.0882
 70
192
 0
VERTEX
 8
LOFT
 10
-0.1934
 20
-0.1291
 30
0.0882
 70
192
 0
VERTEX
 8
LOFT
 10
-0.1971
 20
-0.1293
 30
0.0882
 70
192
 0
VERTEX
 8
LOFT
 10
-0.2006
 20
-0.1303
 30
0.0882
 70
192
 0
VERTEX
 8
LOFT
 10
-0.2037
 20
-0.132
 30
0.0882
 70
192
 0
VERTEX
 8
LOFT
 10
-0.2064
 20
-0.1343
 30
0.0882
 70
192
 0
VERTEX
 8
LOFT
 10
-0.2085
 20
-0.137
 30
0.0882
 70
192
 0
VERTEX
 8
LOFT
 10
-0.21
 20
-0.1403
 30
0.0882
 70
192
 0
VERTEX
 8
LOFT
 10
-0.2108
 20
-0.1438
 30
0.0882
 70
192
 0
VERTEX
 8
LOFT
 10
-0.2108
 20
-0.1476
 30
0.0882
 70
192
 0
VERTEX
 8
LOFT
 10
-0.21
 20
-0.1511
 30
0.0882
 70
192
 0
VERTEX
 8
LOFT
 10
-0.2085
 20
-0.1543
 30
0.0882
 70
192
 0
VERTEX
 8
LOFT
 10
-0.2064
 20
-0.1571
 30
0.0882
 70
192
 0
VERTEX
 8
LOFT
 10
-0.2037
 20
-0.1594
 30
0.0882
 70
192
 0
VERTEX
 8
LOFT
 10
-0.2006
 20
-0.1611
 30
0.0882
 70
192
 0
VERTEX
 8
LOFT
 10
-0.1971
 20
-0.1621
 30
0.0882
 70
192
 0
VERTEX
 8
LOFT
 10
-0.1934
 20
-0.1623
 30
0.0882
 70
192
 0
VERTEX
 8
LOFT
 10
-0.1898
 20
-0.1617
 30
0.0882
 70
192
 0
VERTEX
 8
LOFT
 10
-0.1865
 20
-0.1603
 30
0.0882
 70
192
 0
VERTEX
 8
LOFT
 10
-0.1835
 20
-0.1583
 30
0.0882
 70
192
 0
VERTEX
 8
LOFT
 10
-0.1811
 20
-0.1558
 30
0.0882
 70
192
 0
VERTEX
 8
LOFT
 10
-0.1793
 20
-0.1528
 30
0.0882
 70
192
 0
VERTEX
 8
LOFT
 10
-0.1781
 20
-0.1494
 30
0.0882
 70
192
 0
VERTEX
 8
LOFT
 10
-0.1754
 20
-0.1457
 30
0.1134
 70
192
 0
VERTEX
 8
LOFT
 10
-0.1759
 20
-0.1417
 30
0.1134
 70
192
 0
VERTEX
 8
LOFT
 10
-0.1771
 20
-0.1381
 30
0.1134
 70
192
 0
VERTEX
 8
LOFT
 10
-0.1791
 20
-0.1349
 30
0.1134
 70
192
 0
VERTEX
 8
LOFT
 10
-0.1817
 20
-0.1321
 30
0.1134
 70
192
 0
VERTEX
 8
LOFT
 10
-0.1848
 20
-0.13
 30
0.1134
 70
192
 0
VERTEX
 8
LOFT
 10
-0.1883
 20
-0.1286
 30
0.1134
 70
192
 0
VERTEX
 8
LOFT
 10
-0.1922
 20
-0.1279
 30
0.1134
 70
192
 0
VERTEX
 8
LOFT
 10
-0.1962
 20
-0.1281
 30
0.1134
 70
192
 0
VERTEX
 8
LOFT
 10
-0.2
 20
-0.1292
 30
0.1134
 70
192
 0
VERTEX
 8
LOFT
 10
-0.2033
 20
-0.131
 30
0.1134
 70
192
 0
VERTEX
 8
LOFT
 10
-0.2062
 20
-0.1334
 30
0.1134
 70
192
 0
VERTEX
 8
LOFT
 10
-0.2084
 20
-0.1364
 30
0.1134
 70
192
 0
VERTEX
 8
LOFT
 10
-0.2101
 20
-0.1399
 30
0.1134
 70
192
 0
VERTEX
 8
LOFT
 10
-0.2109
 20
-0.1437
 30
0.1134
 70
192
 0
VERTEX
 8
LOFT
 10
-0.2109
 20
-0.1477
 30
0.1134
 70
192
 0
VERTEX
 8
LOFT
 10
-0.2101
 20
-0.1515
 30
0.1134
 70
192
 0
VERTEX
 8
LOFT
 10
-0.2084
 20
-0.1549
 30
0.1134
 70
192
 0
VERTEX
 8
LOFT
 10
-0.2062
 20
-0.1579
 30
0.1134
 70
192
 0
VERTEX
 8
LOFT
 10
-0.2033
 20
-0.1604
 30
0.1134
 70
192
 0
VERTEX
 8
LOFT
 10
-0.2
 20
-0.1622
 30
0.1134
 70
192
 0
VERTEX
 8
LOFT
 10
-0.1962
 20
-0.1632
 30
0.1134
 70
192
 0
VERTEX
 8
LOFT
 10
-0.1922
 20
-0.1635
 30
0.1134
 70
192
 0
VERTEX
 8
LOFT
 10
-0.1883
 20
-0.1628
 30
0.1134
 70
192
 0
VERTEX
 8
LOFT
 10
-0.1848
 20
-0.1614
 30
0.1134
 70
192
 0
VERTEX
 8
LOFT
 10
-0.1817
 20
-0.1592
 30
0.1134
 70
192
 0
VERTEX
 8
LOFT
 10
-0.1791
 20
-0.1565
 30
0.1134
 70
192
 0
VERTEX
 8
LOFT
 10
-0.1771
 20
-0.1533
 30
0.1134
 70
192
 0
VERTEX
 8
LOFT
 10
-0.1759
 20
-0.1496
 30
0.1134
 70
192
 0
VERTEX
 8
LOFT
 10
-0.1731
 20
-0.1457
 30
0.1386
 70
192
 0
VERTEX
 8
LOFT
 10
-0.1736
 20
-0.1415
 30
0.1386
 70
192
 0
VERTEX
 8
LOFT
 10
-0.1749
 20
-0.1376
 30
0.1386
 70
192
 0
VERTEX
 8
LOFT
 10
-0.177
 20
-0.1341
 30
0.1386
 70
192
 0
VERTEX
 8
LOFT
 10
-0.1798
 20
-0.1312
 30
0.1386
 70
192
 0
VERTEX
 8
LOFT
 10
-0.1831
 20
-0.1289
 30
0.1386
 70
192
 0
VERTEX
 8
LOFT
 10
-0.1869
 20
-0.1274
 30
0.1386
 70
192
 0
VERTEX
 8
LOFT
 10
-0.1911
 20
-0.1267
 30
0.1386
 70
192
 0
VERTEX
 8
LOFT
 10
-0.1953
 20
-0.1269
 30
0.1386
 70
192
 0
VERTEX
 8
LOFT
 10
-0.1993
 20
-0.1281
 30
0.1386
 70
192
 0
VERTEX
 8
LOFT
 10
-0.2029
 20
-0.13
 30
0.1386
 70
192
 0
VERTEX
 8
LOFT
 10
-0.2059
 20
-0.1326
 30
0.1386
 70
192
 0
VERTEX
 8
LOFT
 10
-0.2084
 20
-0.1358
 30
0.1386
 70
192
 0
VERTEX
 8
LOFT
 10
-0.2101
 20
-0.1395
 30
0.1386
 70
192
 0
VERTEX
 8
LOFT
 10
-0.211
 20
-0.1435
 30
0.1386
 70
192
 0
VERTEX
 8
LOFT
 10
-0.211
 20
-0.1478
 30
0.1386
 70
192
 0
VERTEX
 8
LOFT
 10
-0.2101
 20
-0.1519
 30
0.1386
 70
192
 0
VERTEX
 8
LOFT
 10
-0.2084
 20
-0.1556
 30
0.1386
 70
192
 0
VERTEX
 8
LOFT
 10
-0.2059
 20
-0.1588
 30
0.1386
 70
192
 0
VERTEX
 8
LOFT
 10
-0.2029
 20
-0.1614
 30
0.1386
 70
192
 0
VERTEX
 8
LOFT
 10
-0.1993
 20
-0.1633
 30
0.1386
 70
192
 0
VERTEX
 8
LOFT
 10
-0.1953
 20
-0.1644
 30
0.1386
 70
192
 0
VERTEX
 8
LOFT
 10
-0.1911
 20
-0.1647
 30
0.1386
 70
192
 0
VERTEX
 8
LOFT
 10
-0.1869
 20
-0.164
 30
0.1386
 70
192
 0
VERTEX
 8
LOFT
 10
-0.1831
 20
-0.1624
 30
0.1386
 70
192
 0
VERTEX
 8
LOFT
 10
-0.1798
 20
-0.1601
 30
0.1386
 70
192
 0
VERTEX
 8
LOFT
 10
-0.177
 20
-0.1572
 30
0.1386
 70
192
 0
VERTEX
 8
LOFT
 10
-0.1749
 20
-0.1538
 30
0.1386
 70
192
 0
VERTEX
 8
LOFT
 10
-0.1736
 20
-0.1499
 30
0.1386
 70
192
 0
VERTEX
 8
LOFT
 10
-0.1709
 20
-0.1457
 30
0.1639
 70
192
 0
VERTEX
 8
LOFT
 10
-0.1714
 20
-0.1412
 30
0.1639
 70
192
 0
VERTEX
 8
LOFT
 10
-0.1728
 20
-0.1371
 30
0.1639
 70
192
 0
VERTEX
 8
LOFT
 10
-0.175
 20
-0.1334
 30
0.1639
 70
192
 0
VERTEX
 8
LOFT
 10
-0.1779
 20
-0.1303
 30
0.1639
 70
192
 0
VERTEX
 8
LOFT
 10
-0.1815
 20
-0.1279
 30
0.1639
 70
192
 0
VERTEX
 8
LOFT
 10
-0.1855
 20
-0.1263
 30
0.1639
 70
192
 0
VERTEX
 8
LOFT
 10
-0.1899
 20
-0.1255
 30
0.1639
 70
192
 0
VERTEX
 8
LOFT
 10
-0.1944
 20
-0.1258
 30
0.1639
 70
192
 0
VERTEX
 8
LOFT
 10
-0.1987
 20
-0.127
 30
0.1639
 70
192
 0
VERTEX
 8
LOFT
 10
-0.2025
 20
-0.129
 30
0.1639
 70
192
 0
VERTEX
 8
LOFT
 10
-0.2057
 20
-0.1318
 30
0.1639
 70
192
 0
VERTEX
 8
LOFT
 10
-0.2083
 20
-0.1352
 30
0.1639
 70
192
 0
VERTEX
 8
LOFT
 10
-0.2102
 20
-0.1391
 30
0.1639
 70
192
 0
VERTEX
 8
LOFT
 10
-0.2111
 20
-0.1434
 30
0.1639
 70
192
 0
VERTEX
 8
LOFT
 10
-0.2111
 20
-0.148
 30
0.1639
 70
192
 0
VERTEX
 8
LOFT
 10
-0.2102
 20
-0.1523
 30
0.1639
 70
192
 0
VERTEX
 8
LOFT
 10
-0.2083
 20
-0.1562
 30
0.1639
 70
192
 0
VERTEX
 8
LOFT
 10
-0.2057
 20
-0.1596
 30
0.1639
 70
192
 0
VERTEX
 8
LOFT
 10
-0.2025
 20
-0.1624
 30
0.1639
 70
192
 0
VERTEX
 8
LOFT
 10
-0.1987
 20
-0.1644
 30
0.1639
 70
192
 0
VERTEX
 8
LOFT
 10
-0.1944
 20
-0.1656
 30
0.1639
 70
192
 0
VERTEX
 8
LOFT
 10
-0.1899
 20
-0.1659
 30
0.1639
 70
192
 0
VERTEX
 8
LOFT
 10
-0.1855
 20
-0.1651
 30
0.1639
 70
192
 0
VERTEX
 8
LOFT
 10
-0.1815
 20
-0.1635
 30
0.1639
 70
192
 0
VERTEX
 8
LOFT
 10
-0.1779
 20
-0.1611
 30
0.1639
 70
192
 0
VERTEX
 8
LOFT
 10
-0.175
 20
-0.158
 30
0.1639
 70
192
 0
VERTEX
 8
LOFT
 10
-0.1728
 20
-0.1543
 30
0.1639
 70
192
 0
VERTEX
 8
LOFT
 10
-0.1714
 20
-0.1502
 30
0.1639
 70
192
 0
VERTEX
 8
LOFT
 10
-0.1686
 20
-0.1457
 30
0.1891
 70
192
 0
VERTEX
 8
LOFT
 10
-0.1691
 20
-0.1409
 30
0.1891
 70
192
 0
VERTEX
 8
LOFT
 10
-0.1706
 20
-0.1366
 30
0.1891
 70
192
 0
VERTEX
 8
LOFT
 10
-0.173
 20
-0.1327
 30
0.1891
 70
192
 0
VERTEX
 8
LOFT
 10
-0.1761
 20
-0.1294
 30
0.1891
 70
192
 0
VERTEX
 8
LOFT
 10
-0.1798
 20
-0.1268
 30
0.1891
 70
192
 0
VERTEX
 8
LOFT
 10
-0.1841
 20
-0.1251
 30
0.1891
 70
192
 0
VERTEX
 8
LOFT
 10
-0.1887
 20
-0.1243
 30
0.1891
 70
192
 0
VERTEX
 8
LOFT
 10
-0.1936
 20
-0.1246
 30
0.1891
 70
192
 0
VERTEX
 8
LOFT
 10
-0.198
 20
-0.1259
 30
0.1891
 70
192
 0
VERTEX
 8
LOFT
 10
-0.2021
 20
-0.128
 30
0.1891
 70
192
 0
VERTEX
 8
LOFT
 10
-0.2055
 20
-0.1309
 30
0.1891
 70
192
 0
VERTEX
 8
LOFT
 10
-0.2083
 20
-0.1345
 30
0.1891
 70
192
 0
VERTEX
 8
LOFT
 10
-0.2102
 20
-0.1387
 30
0.1891
 70
192
 0
VERTEX
 8
LOFT
 10
-0.2112
 20
-0.1433
 30
0.1891
 70
192
 0
VERTEX
 8
LOFT
 10
-0.2112
 20
-0.1481
 30
0.1891
 70
192
 0
VERTEX
 8
LOFT
 10
-0.2102
 20
-0.1527
 30
0.1891
 70
192
 0
VERTEX
 8
LOFT
 10
-0.2083
 20
-0.1568
 30
0.1891
 70
192
 0
VERTEX
 8
LOFT
 10
-0.2055
 20
-0.1604
 30
0.1891
 70
192
 0
VERTEX
 8
LOFT
 10
-0.2021
 20
-0.1634
 30
0.1891
 70
192
 0
VERTEX
 8
LOFT
 10
-0.198
 20
-0.1655
 30
0.1891
 70
192
 0
VERTEX
 8
LOFT
 10
-0.1936
 20
-0.1668
 30
0.1891
 70
192
 0
VERTEX
 8
LOFT
 10
-0.1887
 20
-0.167
 30
0.1891
 70
192
 0
VERTEX
 8
LOFT
 10
-0.1841
 20
-0.1663
 30
0.1891
 70
192
 0
VERTEX
 8
LOFT
 10
-0.1798
 20
-0.1645
 30
0.1891
 70
192
 0
VERTEX
 8
LOFT
 10
-0.1761
 20
-0.162
 30
0.1891
 70
192
 0
VERTEX
 8
LOFT
 10
-0.173
 20
-0.1587
 30
0.1891
 70
192
 0
VERTEX
 8
LOFT
 10
-0.1706
 20
-0.1548
 30
0.1891
 70
192
 0
VERTEX
 8
LOFT
 10
-0.1691
 20
-0.1504
 30
0.1891
 70
192
 0
VERTEX
 8
LOFT
 10
-0.1663
 20
-0.1457
 30
0.2144
 70
192
 0
VERTEX
 8
LOFT
 10
-0.1668
 20
-0.1407
 30
0.2144
 70
192
 0
VERTEX
 8
LOFT
 10
-0.1684
 20
-0.136
 30
0.2144
 70
192
 0
VERTEX
 8
LOFT
 10
-0.1709
 20
-0.1319
 30
0.2144
 70
192
 0
VERTEX
 8
LOFT
 10
-0.1742
 20
-0.1285
 30
0.2144
 70
192
 0
VERTEX
 8
LOFT
 10
-0.1782
 20
-0.1258
 30
0.2144
 70
192
 0
VERTEX
 8
LOFT
 10
-0.1827
 20
-0.1239
 30
0.2144
 70
192
 0
VERTEX
 8
LOFT
 10
-0.1876
 20
-0.1231
 30
0.2144
 70
192
 0
VERTEX
 8
LOFT
 10
-0.1927
 20
-0.1234
 30
0.2144
 70
192
 0
VERTEX
 8
LOFT
 10
-0.1974
 20
-0.1247
 30
0.2144
 70
192
 0
VERTEX
 8
LOFT
 10
-0.2016
 20
-0.127
 30
0.2144
 70
192
 0
VERTEX
 8
LOFT
 10
-0.2053
 20
-0.1301
 30
0.2144
 70
192
 0
VERTEX
 8
LOFT
 10
-0.2082
 20
-0.1339
 30
0.2144
 70
192
 0
VERTEX
 8
LOFT
 10
-0.2102
 20
-0.1383
 30
0.2144
 70
192
 0
VERTEX
 8
LOFT
 10
-0.2113
 20
-0.1431
 30
0.2144
 70
192
 0
VERTEX
 8
LOFT
 10
-0.2113
 20
-0.1482
 30
0.2144
 70
192
 0
VERTEX
 8
LOFT
 10
-0.2102
 20
-0.1531
 30
0.2144
 70
192
 0
VERTEX
 8
LOFT
 10
-0.2082
 20
-0.1574
 30
0.2144
 70
192
 0
VERTEX
 8
LOFT
 10
-0.2053
 20
-0.1612
 30
0.2144
 70
192
 0
VERTEX
 8
LOFT
 10
-0.2016
 20
-0.1643
 30
0.2144
 70
192
 0
VERTEX
 8
LOFT
 10
-0.1974
 20
-0.1666
 30
0.2144
 70
192
 0
VERTEX
 8
LOFT
 10
-0.1927
 20
-0.168
 30
0.2144
 70
192
 0
VERTEX
 8
LOFT
 10
-0.1876
 20
-0.1682
 30
0.2144
 70
192
 0
VERTEX
 8
LOFT
 10
-0.1827
 20
-0.1674
 30
0.2144
 70
192
 0
VERTEX
 8
LOFT
 10
-0.1782
 20
-0.1656
 30
0.2144
 70
192
 0
VERTEX
 8
LOFT
 10
-0.1742
 20
-0.1629
 30
0.2144
 70
192
 0
VERTEX
 8
LOFT
 10
-0.1709
 20
-0.1594
 30
0.2144
 70
192
 0
VERTEX
 8
LOFT
 10
-0.1684
 20
-0.1553
 30
0.2144
 70
192
 0
VERTEX
 8
LOFT
 10
-0.1668
 20
-0.1507
 30
0.2144
 70
192
 0
VERTEX
 8
LOFT
 10
-0.164
 20
-0.1457
 30
0.2396
 70
192
 0
VERTEX
 8
LOFT
 10
-0.1646
 20
-0.1404
 30
0.2396
 70
192
 0
VERTEX
 8
LOFT
 10
-0.1662
 20
-0.1355
 30
0.2396
 70
192
 0
VERTEX
 8
LOFT
 10
-0.1689
 20
-0.1312
 30
0.2396
 70
192
 0
VERTEX
 8
LOFT
 10
-0.1723
 20
-0.1276
 30
0.2396
 70
192
 0
VERTEX
 8
LOFT
 10
-0.1765
 20
-0.1247
 30
0.2396
 70
192
 0
VERTEX
 8
LOFT
 10
-0.1812
 20
-0.1228
 30
0.2396
 70
192
 0
VERTEX
 8
LOFT
 10
-0.1864
 20
-0.1219
 30
0.2396
 70
192
 0
VERTEX
 8
LOFT
 10
-0.1918
 20
-0.1222
 30
0.2396
 70
192
 0
VERTEX
 8
LOFT
 10
-0.1968
 20
-0.1236
 30
0.2396
 70
192
 0
VERTEX
 8
LOFT
 10
-0.2012
 20
-0.126
 30
0.2396
 70
192
 0
VERTEX
 8
LOFT
 10
-0.2051
 20
-0.1293
 30
0.2396
 70
192
 0
VERTEX
 8
LOFT
 10
-0.2081
 20
-0.1333
 30
0.2396
 70
192
 0
VERTEX
 8
LOFT
 10
-0.2103
 20
-0.1379
 30
0.2396
 70
192
 0
VERTEX
 8
LOFT
 10
-0.2114
 20
-0.143
 30
0.2396
 70
192
 0
VERTEX
 8
LOFT
 10
-0.2114
 20
-0.1484
 30
0.2396
 70
192
 0
VERTEX
 8
LOFT
 10
-0.2103
 20
-0.1535
 30
0.2396
 70
192
 0
VERTEX
 8
LOFT
 10
-0.2081
 20
-0.1581
 30
0.2396
 70
192
 0
VERTEX
 8
LOFT
 10
-0.2051
 20
-0.1621
 30
0.2396
 70
192
 0
VERTEX
 8
LOFT
 10
-0.2012
 20
-0.1653
 30
0.2396
 70
192
 0
VERTEX
 8
LOFT
 10
-0.1968
 20
-0.1677
 30
0.2396
 70
192
 0
VERTEX
 8
LOFT
 10
-0.1918
 20
-0.1692
 30
0.2396
 70
192
 0
VERTEX
 8
LOFT
 10
-0.1864
 20
-0.1694
 30
0.2396
 70
192
 0
VERTEX
 8
LOFT
 10
-0.1812
 20
-0.1686
 30
0.2396
 70
192
 0
VERTEX
 8
LOFT
 10
-0.1765
 20
-0.1667
 30
0.2396
 70
192
 0
VERTEX
 8
LOFT
 10
-0.1723
 20
-0.1638
 30
0.2396
 70
192
 0
VERTEX
 8
LOFT
 10
-0.1689
 20
-0.1602
 30
0.2396
 70
192
 0
VERTEX
 8
LOFT
 10
-0.1662
 20
-0.1558
 30
0.2396
 70
192
 0
VERTEX
 8
LOFT
 10
-0.1646
 20
-0.151
 30
0.2396
 70
192
 0
VERTEX
 8
LOFT
 10
-0.1617
 20
-0.1457
 30
0.2649
 70
192
 0
VERTEX
 8
LOFT
 10
-0.1623
 20
-0.1401
 30
0.2649
 70
192
 0
VERTEX
 8
LOFT
 10
-0.1641
 20
-0.135
 30
0.2649
 70
192
 0
VERTEX
 8
LOFT
 10
-0.1668
 20
-0.1305
 30
0.2649
 70
192
 0
VERTEX
 8
LOFT
 10
-0.1705
 20
-0.1266
 30
0.2649
 70
192
 0
VERTEX
 8
LOFT
 10
-0.1748
 20
-0.1237
 30
0.2649
 70
192
 0
VERTEX
 8
LOFT
 10
-0.1798
 20
-0.1216
 30
0.2649
 70
192
 0
VERTEX
 8
LOFT
 10
-0.1853
 20
-0.1207
 30
0.2649
 70
192
 0
VERTEX
 8
LOFT
 10
-0.1909
 20
-0.121
 30
0.2649
 70
192
 0
VERTEX
 8
LOFT
 10
-0.1961
 20
-0.1225
 30
0.2649
 70
192
 0
VERTEX
 8
LOFT
 10
-0.2008
 20
-0.125
 30
0.2649
 70
192
 0
VERTEX
 8
LOFT
 10
-0.2048
 20
-0.1285
 30
0.2649
 70
192
 0
VERTEX
 8
LOFT
 10
-0.2081
 20
-0.1327
 30
0.2649
 70
192
 0
VERTEX
 8
LOFT
 10
-0.2103
 20
-0.1375
 30
0.2649
 70
192
 0
VERTEX
 8
LOFT
 10
-0.2115
 20
-0.1429
 30
0.2649
 70
192
 0
VERTEX
 8
LOFT
 10
-0.2115
 20
-0.1485
 30
0.2649
 70
192
 0
VERTEX
 8
LOFT
 10
-0.2103
 20
-0.1539
 30
0.2649
 70
192
 0
VERTEX
 8
LOFT
 10
-0.2081
 20
-0.1587
 30
0.2649
 70
192
 0
VERTEX
 8
LOFT
 10
-0.2048
 20
-0.1629
 30
0.2649
 70
192
 0
VERTEX
 8
LOFT
 10
-0.2008
 20
-0.1663
 30
0.2649
 70
192
 0
VERTEX
 8
LOFT
 10
-0.1961
 20
-0.1689
 30
0.2649
 70
192
 0
VERTEX
 8
LOFT
 10
-0.1909
 20
-0.1703
 30
0.2649
 70
192
 0
VERTEX
 8
LOFT
 10
-0.1853
 20
-0.1706
 30
0.2649
 70
192
 0
VERTEX
 8
LOFT
 10
-0.1798
 20
-0.1697
 30
0.2649
 70
192
 0
VERTEX
 8
LOFT
 10
-0.1748
 20
-0.1677
 30
0.2649
 70
192
 0
VERTEX
 8
LOFT
 10
-0.1705
 20
-0.1647
 30
0.2649
 70
192
 0
VERTEX
 8
LOFT
 10
-0.1668
 20
-0.1609
 30
0.2649
 70
192
 0
VERTEX
 8
LOFT
 10
-0.1641
 20
-0.1563
 30
0.2649
 70
192
 0
VERTEX
 8
LOFT
 10
-0.1623
 20
-0.1512
 30
0.2649
 70
192
 0
VERTEX
 8
LOFT
 10
0
 20
0
 30
0
 70
128
 71
2
 72
31
 73
30
 74
1
 0
VERTEX
 8
LOFT
 10
0
 20
0
 30
0
 70
128
 71
3
 72
32
 73
31
 74
2
 0
VERTEX
 8
LOFT
 10
0
 20
0
 30
0
 70
128
 71
4
 72
33
 73
32
 74
3
 0
VERTEX
 8
LOFT
 10
0
 20
0
 30
0
 70
128
 71
5
 72
34
 73
33
 74
4
 0
VERTEX
 8
LOFT
 10
0
 20
0
 30
0
 70
128
 71
6
 72
35
 73
34
 74
5
 0
VERTEX
 8
LOFT
 10
0
 20
0
 30
0
 70
128
 71
7
 72
36
 73
35
 74
6
 0
VERTEX
 8
LOFT
 10
0
 20
0
 30
0
 70
128
 71
8
 72
37
 73
36
 74
7
 0
VERTEX
 8
LOFT
 10
0
 20
0
 30
0
 70
128
 71
9
 72
38
 73
37
 74
8
 0
VERTEX
 8
LOFT
 10
0
 20
0
 30
0
 70
128
 71
10
 72
39
 73
38
 74
9
 0
VERTEX
 8
LOFT
 10
0
 20
0
 30
0
 70
128
 71
11
 72
40
 73
39
 74
10
 0
VERTEX
 8
LOFT
 10
0
 20
0
 30
0
 70
128
 71
12
 72
41
 73
40
 74
11
 0
VERTEX
 8
LOFT
 10
0
 20
0
 30
0
 70
128
 71
13
 72
42
 73
41
 74
12
 0
VERTEX
 8
LOFT
 10
0
 20
0
 30
0
 70
128
 71
14
 72
43
 73
42
 74
13
 0
VERTEX
 8
LOFT
 10
0
 20
0
 30
0
 70
128
 71
15
 72
44
 73
43
 74
14
 0
VERTEX
 8
LOFT
 10
0
 20
0
 30
0
 70
128
 71
16
 72
45
 73
44
 74
15
 0
VERTEX
 8
LOFT
 10
0
 20
0
 30
0
 70
128
 71
17
 72
46
 73
45
 74
16
 0
VERTEX
 8
LOFT
 10
0
 20
0
 30
0
 70
128
 71
18
 72
47
 73
46
 74
17
 0
VERTEX
 8
LOFT
 10
0
 20
0
 30
0
 70
128
 71
19
 72
48
 73
47
 74
18
 0
VERTEX
 8
LOFT
 10
0
 20
0
 30
0
 70
128
 71
20
 72
49
 73
48
 74
19
 0
VERTEX
 8
LOFT
 10
0
 20
0
 30
0
 70
128
 71
21
 72
50
 73
49
 74
20
 0
VERTEX
 8
LOFT
 10
0
 20
0
 30
0
 70
128
 71
22
 72
51
 73
50
 74
21
 0
VERTEX
 8
LOFT
 10
0
 20
0
 30
0
 70
128
 71
23
 72
52
 73
51
 74
22
 0
VERTEX
 8
LOFT
 10
0
 20
0
 30
0
 70
128
 71
24
 72
53
 73
52
 74
23
 0
VERTEX
 8
LOFT
 10
0
 20
0
 30
0
 70
128
 71
25
 72
54
 73
53
 74
24
 0
VERTEX
 8
LOFT
 10
0
 20
0
 30
0
 70
128
 71
26
 72
55
 73
54
 74
25
 0
VERTEX
 8
LOFT
 10
0
 20
0
 30
0
 70
128
 71
27
 72
56
 73
55
 74
26
 0
VERTEX
 8
LOFT
 10
0
 20
0
 30
0
 70
128
 71
28
 72
57
 73
56
 74
27
 0
VERTEX
 8
LOFT
 10
0
 20
0
 30
0
 70
128
 71
29
 72
58
 73
57
 74
28
 0
VERTEX
 8
LOFT
 10
0
 20
0
 30
0
 70
128
 71
1
 72
30
 73
58
 74
29
 0
VERTEX
 8
LOFT
 10
0
 20
0
 30
0
 70
128
 71
31
 72
60
 73
59
 74
30
 0
VERTEX
 8
LOFT
 10
0
 20
0
 30
0
 70
128
 71
32
 72
61
 73
60
 74
31
 0
VERTEX
 8
LOFT
 10
0
 20
0
 30
0
 70
128
 71
33
 72
62
 73
61
 74
32
 0
VERTEX
 8
LOFT
 10
0
 20
0
 30
0
 70
128
 71
34
 72
63
 73
62
 74
33
 0
VERTEX
 8
LOFT
 10
0
 20
0
 30
0
 70
128
 71
35
 72
64
 73
63
 74
34
 0
VERTEX
 8
LOFT
 10
0
 20
0
 30
0
 70
128
 71
36
 72
65
 73
64
 74
35
 0
VERTEX
 8
LOFT
 10
0
 20
0
 30
0
 70
128
 71
37
 72
66
 73
65
 74
36
 0
VERTEX
 8
LOFT
 10
0
 20
0
 30
0
 70
128
 71
38
 72
67
 73
66
 74
37
 0
VERTEX
 8
LOFT
 10
0
 20
0
 30
0
 70
128
 71
39
 72
68
 73
67
 74
38
 0
VERTEX
 8
LOFT
 10
0
 20
0
 30
0
 70
128
 71
40
 72
69
 73
68
 74
39
 0
VERTEX
 8
LOFT
 10
0
 20
0
 30
0
 70
128
 71
41
 72
70
 73
69
 74
40
 0
VERTEX
 8
LOFT
 10
0
 20
0
 30
0
 70
128
 71
42
 72
71
 73
70
 74
41
 0
VERTEX
 8
LOFT
 10
0
 20
0
 30
0
 70
128
 71
43
 72
72
 73
71
 74
42
 0
VERTEX
 8
LOFT
 10
0
 20
0
 30
0
 70
128
 71
44
 72
73
 73
72
 74
43
 0
VERTEX
 8
LOFT
 10
0
 20
0
 30
0
 70
128
 71
45
 72
74
 73
73
 74
44
 0
VERTEX
 8
LOFT
 10
0
 20
0
 30
0
 70
128
 71
46
 72
75
 73
74
 74
45
 0
VERTEX
 8
LOFT
 10
0
 20
0
 30
0
 70
128
 71
47
 72
76
 73
75
 74
46
 0
VERTEX
 8
LOFT
 10
0
 20
0
 30
0
 70
128
 71
48
 72
77
 73
76
 74
47
 0
VERTEX
 8
LOFT
 10
0
 20
0
 30
0
 70
128
 71
49
 72
78
 73
77
 74
48
 0
VERTEX
 8
LOFT
 10
0
 20
0
 30
0
 70
128
 71
50
 72
79
 73
78
 74
49
 0
VERTEX
 8
LOFT
 10
0
 20
0
 30
0
 70
128
 71
51
 72
80
 73
79
 74
50
 0
VERTEX
 8
LOFT
 10
0
 20
0
 30
0
 70
128
 71
52
 72
81
 73
80
 74
51
 0
VERTEX
 8
LOFT
 10
0
 20
0
 30
0
 70
128
 71
53
 72
82
 73
81
 74
52
 0
VERTEX
 8
LOFT
 10
0
 20
0
 30
0
 70
128
 71
54
 72
83
 73
82
 74
53
 0
VERTEX
 8
LOFT
 10
0
 20
0
 30
0
 70
128
 71
55
 72
84
 73
83
 74
54
 0
VERTEX
 8
LOFT
 10
0
 20
0
 30
0
 70
128
 71
56
 72
85
 73
84
 74
55
 0
VERTEX
 8
LOFT
 10
0
 20
0
 30
0
 70
128
 71
57
 72
86
 73
85
 74
56
 0
VERTEX
 8
LOFT
 10
0
 20
0
 30
0
 70
128
 71
58
 72
87
 73
86
 74
57
 0
VERTEX
 8
LOFT
 10
0
 20
0
 30
0
 70
128
 71
30
 72
59
 73
87
 74
58
 0
VERTEX
 8
LOFT
 10
0
 20
0
 30
0
 70
128
 71
60
 72
89
 73
88
 74
59
 0
VERTEX
 8
LOFT
 10
0
 20
0
 30
0
 70
128
 71
61
 72
90
 73
89
 74
60
 0
VERTEX
 8
LOFT
 10
0
 20
0
 30
0
 70
128
 71
62
 72
91
 73
90
 74
61
 0
VERTEX
 8
LOFT
 10
0
 20
0
 30
0
 70
128
 71
63
 72
92
 73
91
 74
62
 0
VERTEX
 8
LOFT
 10
0
 20
0
 30
0
 70
128
 71
64
 72
93
 73
92
 74
63
 0
VERTEX
 8
LOFT
 10
0
 20
0
 30
0
 70
128
 71
65
 72
94
 73
93
 74
64
 0
VERTEX
 8
LOFT
 10
0
 20
0
 30
0
 70
128
 71
66
 72
95
 73
94
 74
65
 0
VERTEX
 8
LOFT
 10
0
 20
0
 30
0
 70
128
 71
67
 72
96
 73
95
 74
66
 0
VERTEX
 8
LOFT
 10
0
 20
0
 30
0
 70
128
 71
68
 72
97
 73
96
 74
67
 0
VERTEX
 8
LOFT
 10
0
 20
0
 30
0
 70
128
 71
69
 72
98
 73
97
 74
68
 0
VERTEX
 8
LOFT
 10
0
 20
0
 30
0
 70
128
 71
70
 72
99
 73
98
 74
69
 0
VERTEX
 8
LOFT
 10
0
 20
0
 30
0
 70
128
 71
71
 72
100
 73
99
 74
70
 0
VERTEX
 8
LOFT
 10
0
 20
0
 30
0
 70
128
 71
72
 72
101
 73
100
 74
71
 0
VERTEX
 8
LOFT
 10
0
 20
0
 30
0
 70
128
 71
73
 72
102
 73
101
 74
72
 0
VERTEX
 8
LOFT
 10
0
 20
0
 30
0
 70
128
 71
74
 72
103
 73
102
 74
73
 0
VERTEX
 8
LOFT
 10
0
 20
0
 30
0
 70
128
 71
75
 72
104
 73
103
 74
74
 0
VERTEX
 8
LOFT
 10
0
 20
0
 30
0
 70
128
 71
76
 72
105
 73
104
 74
75
 0
VERTEX
 8
LOFT
 10
0
 20
0
 30
0
 70
128
 71
77
 72
106
 73
105
 74
76
 0
VERTEX
 8
LOFT
 10
0
 20
0
 30
0
 70
128
 71
78
 72
107
 73
106
 74
77
 0
VERTEX
 8
LOFT
 10
0
 20
0
 30
0
 70
128
 71
79
 72
108
 73
107
 74
78
 0
VERTEX
 8
LOFT
 10
0
 20
0
 30
0
 70
128
 71
80
 72
109
 73
108
 74
79
 0
VERTEX
 8
LOFT
 10
0
 20
0
 30
0
 70
128
 71
81
 72
110
 73
109
 74
80
 0
VERTEX
 8
LOFT
 10
0
 20
0
 30
0
 70
128
 71
82
 72
111
 73
110
 74
81
 0
VERTEX
 8
LOFT
 10
0
 20
0
 30
0
 70
128
 71
83
 72
112
 73
111
 74
82
 0
VERTEX
 8
LOFT
 10
0
 20
0
 30
0
 70
128
 71
84
 72
113
 73
112
 74
83
 0
VERTEX
 8
LOFT
 10
0
 20
0
 30
0
 70
128
 71
85
 72
114
 73
113
 74
84
 0
VERTEX
 8
LOFT
 10
0
 20
0
 30
0
 70
128
 71
86
 72
115
 73
114
 74
85
 0
VERTEX
 8
LOFT
 10
0
 20
0
 30
0
 70
128
 71
87
 72
116
 73
115
 74
86
 0
VERTEX
 8
LOFT
 10
0
 20
0
 30
0
 70
128
 71
59
 72
88
 73
116
 74
87
 0
VERTEX
 8
LOFT
 10
0
 20
0
 30
0
 70
128
 71
89
 72
118
 73
117
 74
88
 0
VERTEX
 8
LOFT
 10
0
 20
0
 30
0
 70
128
 71
90
 72
119
 73
118
 74
89
 0
VERTEX
 8
LOFT
 10
0
 20
0
 30
0
 70
128
 71
91
 72
120
 73
119
 74
90
 0
VERTEX
 8
LOFT
 10
0
 20
0
 30
0
 70
128
 71
92
 72
121
 73
120
 74
91
 0
VERTEX
 8
LOFT
 10
0
 20
0
 30
0
 70
128
 71
93
 72
122
 73
121
 74
92
 0
VERTEX
 8
LOFT
 10
0
 20
0
 30
0
 70
128
 71
94
 72
123
 73
122
 74
93
 0
VERTEX
 8
LOFT
 10
0
 20
0
 30
0
 70
128
 71
95
 72
124
 73
123
 74
94
 0
VERTEX
 8
LOFT
 10
0
 20
0
 30
0
 70
128
 71
96
 72
125
 73
124
 74
95
 0
VERTEX
 8
LOFT
 10
0
 20
0
 30
0
 70
128
 71
97
 72
126
 73
125
 74
96
 0
VERTEX
 8
LOFT
 10
0
 20
0
 30
0
 70
128
 71
98
 72
127
 73
126
 74
97
 0
VERTEX
 8
LOFT
 10
0
 20
0
 30
0
 70
128
 71
99
 72
128
 73
127
 74
98
 0
VERTEX
 8
LOFT
 10
0
 20
0
 30
0
 70
128
 71
100
 72
129
 73
128
 74
99
 0
VERTEX
 8
LOFT
 10
0
 20
0
 30
0
 70
128
 71
101
 72
130
 73
129
 74
100
 0
VERTEX
 8
LOFT
 10
0
 20
0
 30
0
 70
128
 71
102
 72
131
 73
130
 74
101
 0
VERTEX
 8
LOFT
 10
0
 20
0
 30
0
 70
128
 71
103
 72
132
 73
131
 74
102
 0
VERTEX
 8
LOFT
 10
0
 20
0
 30
0
 70
128
 71
104
 72
133
 73
132
 74
103
 0
VERTEX
 8
LOFT
 10
0
 20
0
 30
0
 70
128
 71
105
 72
134
 73
133
 74
104
 0
VERTEX
 8
LOFT
 10
0
 20
0
 30
0
 70
128
 71
106
 72
135
 73
134
 74
105
 0
VERTEX
 8
LOFT
 10
0
 20
0
 30
0
 70
128
 71
107
 72
136
 73
135
 74
106
 0
VERTEX
 8
LOFT
 10
0
 20
0
 30
0
 70
128
 71
108
 72
137
 73
136
 74
107
 0
VERTEX
 8
LOFT
 10
0
 20
0
 30
0
 70
128
 71
109
 72
138
 73
137
 74
108
 0
VERTEX
 8
LOFT
 10
0
 20
0
 30
0
 70
128
 71
110
 72
139
 73
138
 74
109
 0
VERTEX
 8
LOFT
 10
0
 20
0
 30
0
 70
128
 71
111
 72
140
 73
139
 74
110
 0
VERTEX
 8
LOFT
 10
0
 20
0
 30
0
 70
128
 71
112
 72
141
 73
140
 74
111
 0
VERTEX
 8
LOFT
 10
0
 20
0
 30
0
 70
128
 71
113
 72
142
 73
141
 74
112
 0
VERTEX
 8
LOFT
 10
0
 20
0
 30
0
 70
128
 71
114
 72
143
 73
142
 74
113
 0
VERTEX
 8
LOFT
 10
0
 20
0
 30
0
 70
128
 71
115
 72
144
 73
143
 74
114
 0
VERTEX
 8
LOFT
 10
0
 20
0
 30
0
 70
128
 71
116
 72
145
 73
144
 74
115
 0
VERTEX
 8
LOFT
 10
0
 20
0
 30
0
 70
128
 71
88
 72
117
 73
145
 74
116
 0
VERTEX
 8
LOFT
 10
0
 20
0
 30
0
 70
128
 71
118
 72
147
 73
146
 74
117
 0
VERTEX
 8
LOFT
 10
0
 20
0
 30
0
 70
128
 71
119
 72
148
 73
147
 74
118
 0
VERTEX
 8
LOFT
 10
0
 20
0
 30
0
 70
128
 71
120
 72
149
 73
148
 74
119
 0
VERTEX
 8
LOFT
 10
0
 20
0
 30
0
 70
128
 71
121
 72
150
 73
149
 74
120
 0
VERTEX
 8
LOFT
 10
0
 20
0
 30
0
 70
128
 71
122
 72
151
 73
150
 74
121
 0
VERTEX
 8
LOFT
 10
0
 20
0
 30
0
 70
128
 71
123
 72
152
 73
151
 74
122
 0
VERTEX
 8
LOFT
 10
0
 20
0
 30
0
 70
128
 71
124
 72
153
 73
152
 74
123
 0
VERTEX
 8
LOFT
 10
0
 20
0
 30
0
 70
128
 71
125
 72
154
 73
153
 74
124
 0
VERTEX
 8
LOFT
 10
0
 20
0
 30
0
 70
128
 71
126
 72
155
 73
154
 74
125
 0
VERTEX
 8
LOFT
 10
0
 20
0
 30
0
 70
128
 71
127
 72
156
 73
155
 74
126
 0
VERTEX
 8
LOFT
 10
0
 20
0
 30
0
 70
128
 71
128
 72
157
 73
156
 74
127
 0
VERTEX
 8
LOFT
 10
0
 20
0
 30
0
 70
128
 71
129
 72
158
 73
157
 74
128
 0
VERTEX
 8
LOFT
 10
0
 20
0
 30
0
 70
128
 71
130
 72
159
 73
158
 74
129
 0
VERTEX
 8
LOFT
 10
0
 20
0
 30
0
 70
128
 71
131
 72
160
 73
159
 74
130
 0
VERTEX
 8
LOFT
 10
0
 20
0
 30
0
 70
128
 71
132
 72
161
 73
160
 74
131
 0
VERTEX
 8
LOFT
 10
0
 20
0
 30
0
 70
128
 71
133
 72
162
 73
161
 74
132
 0
VERTEX
 8
LOFT
 10
0
 20
0
 30
0
 70
128
 71
134
 72
163
 73
162
 74
133
 0
VERTEX
 8
LOFT
 10
0
 20
0
 30
0
 70
128
 71
135
 72
164
 73
163
 74
134
 0
VERTEX
 8
LOFT
 10
0
 20
0
 30
0
 70
128
 71
136
 72
165
 73
164
 74
135
 0
VERTEX
 8
LOFT
 10
0
 20
0
 30
0
 70
128
 71
137
 72
166
 73
165
 74
136
 0
VERTEX
 8
LOFT
 10
0
 20
0
 30
0
 70
128
 71
138
 72
167
 73
166
 74
137
 0
VERTEX
 8
LOFT
 10
0
 20
0
 30
0
 70
128
 71
139
 72
168
 73
167
 74
138
 0
VERTEX
 8
LOFT
 10
0
 20
0
 30
0
 70
128
 71
140
 72
169
 73
168
 74
139
 0
VERTEX
 8
LOFT
 10
0
 20
0
 30
0
 70
128
 71
141
 72
170
 73
169
 74
140
 0
VERTEX
 8
LOFT
 10
0
 20
0
 30
0
 70
128
 71
142
 72
171
 73
170
 74
141
 0
VERTEX
 8
LOFT
 10
0
 20
0
 30
0
 70
128
 71
143
 72
172
 73
171
 74
142
 0
VERTEX
 8
LOFT
 10
0
 20
0
 30
0
 70
128
 71
144
 72
173
 73
172
 74
143
 0
VERTEX
 8
LOFT
 10
0
 20
0
 30
0
 70
128
 71
145
 72
174
 73
173
 74
144
 0
VERTEX
 8
LOFT
 10
0
 20
0
 30
0
 70
128
 71
117
 72
146
 73
174
 74
145
 0
VERTEX
 8
LOFT
 10
0
 20
0
 30
0
 70
128
 71
147
 72
176
 73
175
 74
146
 0
VERTEX
 8
LOFT
 10
0
 20
0
 30
0
 70
128
 71
148
 72
177
 73
176
 74
147
 0
VERTEX
 8
LOFT
 10
0
 20
0
 30
0
 70
128
 71
149
 72
178
 73
177
 74
148
 0
VERTEX
 8
LOFT
 10
0
 20
0
 30
0
 70
128
 71
150
 72
179
 73
178
 74
149
 0
VERTEX
 8
LOFT
 10
0
 20
0
 30
0
 70
128
 71
151
 72
180
 73
179
 74
150
 0
VERTEX
 8
LOFT
 10
0
 20
0
 30
0
 70
128
 71
152
 72
181
 73
180
 74
151
 0
VERTEX
 8
LOFT
 10
0
 20
0
 30
0
 70
128
 71
153
 72
182
 73
181
 74
152
 0
VERTEX
 8
LOFT
 10
0
 20
0
 30
0
 70
128
 71
154
 72
183
 73
182
 74
153
 0
VERTEX
 8
LOFT
 10
0
 20
0
 30
0
 70
128
 71
155
 72
184
 73
183
 74
154
 0
VERTEX
 8
LOFT
 10
0
 20
0
 30
0
 70
128
 71
156
 72
185
 73
184
 74
155
 0
VERTEX
 8
LOFT
 10
0
 20
0
 30
0
 70
128
 71
157
 72
186
 73
185
 74
156
 0
VERTEX
 8
LOFT
 10
0
 20
0
 30
0
 70
128
 71
158
 72
187
 73
186
 74
157
 0
VERTEX
 8
LOFT
 10
0
 20
0
 30
0
 70
128
 71
159
 72
188
 73
187
 74
158
 0
VERTEX
 8
LOFT
 10
0
 20
0
 30
0
 70
128
 71
160
 72
189
 73
188
 74
159
 0
VERTEX
 8
LOFT
 10
0
 20
0
 30
0
 70
128
 71
161
 72
190
 73
189
 74
160
 0
VERTEX
 8
LOFT
 10
0
 20
0
 30
0
 70
128
 71
162
 72
191
 73
190
 74
161
 0
VERTEX
 8
LOFT
 10
0
 20
0
 30
0
 70
128
 71
163
 72
192
 73
191
 74
162
 0
VERTEX
 8
LOFT
 10
0
 20
0
 30
0
 70
128
 71
164
 72
193
 73
192
 74
163
 0
VERTEX
 8
LOFT
 10
0
 20
0
 30
0
 70
128
 71
165
 72
194
 73
193
 74
164
 0
VERTEX
 8
LOFT
 10
0
 20
0
 30
0
 70
128
 71
166
 72
195
 73
194
 74
165
 0
VERTEX
 8
LOFT
 10
0
 20
0
 30
0
 70
128
 71
167
 72
196
 73
195
 74
166
 0
VERTEX
 8
LOFT
 10
0
 20
0
 30
0
 70
128
 71
168
 72
197
 73
196
 74
167
 0
VERTEX
 8
LOFT
 10
0
 20
0
 30
0
 70
128
 71
169
 72
198
 73
197
 74
168
 0
VERTEX
 8
LOFT
 10
0
 20
0
 30
0
 70
128
 71
170
 72
199
 73
198
 74
169
 0
VERTEX
 8
LOFT
 10
0
 20
0
 30
0
 70
128
 71
171
 72
200
 73
199
 74
170
 0
VERTEX
 8
LOFT
 10
0
 20
0
 30
0
 70
128
 71
172
 72
201
 73
200
 74
171
 0
VERTEX
 8
LOFT
 10
0
 20
0
 30
0
 70
128
 71
173
 72
202
 73
201
 74
172
 0
VERTEX
 8
LOFT
 10
0
 20
0
 30
0
 70
128
 71
174
 72
203
 73
202
 74
173
 0
VERTEX
 8
LOFT
 10
0
 20
0
 30
0
 70
128
 71
146
 72
175
 73
203
 74
174
 0
VERTEX
 8
LOFT
 10
0
 20
0
 30
0
 70
128
 71
176
 72
205
 73
204
 74
175
 0
VERTEX
 8
LOFT
 10
0
 20
0
 30
0
 70
128
 71
177
 72
206
 73
205
 74
176
 0
VERTEX
 8
LOFT
 10
0
 20
0
 30
0
 70
128
 71
178
 72
207
 73
206
 74
177
 0
VERTEX
 8
LOFT
 10
0
 20
0
 30
0
 70
128
 71
179
 72
208
 73
207
 74
178
 0
VERTEX
 8
LOFT
 10
0
 20
0
 30
0
 70
128
 71
180
 72
209
 73
208
 74
179
 0
VERTEX
 8
LOFT
 10
0
 20
0
 30
0
 70
128
 71
181
 72
210
 73
209
 74
180
 0
VERTEX
 8
LOFT
 10
0
 20
0
 30
0
 70
128
 71
182
 72
211
 73
210
 74
181
 0
VERTEX
 8
LOFT
 10
0
 20
0
 30
0
 70
128
 71
183
 72
212
 73
211
 74
182
 0
VERTEX
 8
LOFT
 10
0
 20
0
 30
0
 70
128
 71
184
 72
213
 73
212
 74
183
 0
VERTEX
 8
LOFT
 10
0
 20
0
 30
0
 70
128
 71
185
 72
214
 73
213
 74
184
 0
VERTEX
 8
LOFT
 10
0
 20
0
 30
0
 70
128
 71
186
 72
215
 73
214
 74
185
 0
VERTEX
 8
LOFT
 10
0
 20
0
 30
0
 70
128
 71
187
 72
216
 73
215
 74
186
 0
VERTEX
 8
LOFT
 10
0
 20
0
 30
0
 70
128
 71
188
 72
217
 73
216
 74
187
 0
VERTEX
 8
LOFT
 10
0
 20
0
 30
0
 70
128
 71
189
 72
218
 73
217
 74
188
 0
VERTEX
 8
LOFT
 10
0
 20
0
 30
0
 70
128
 71
190
 72
219
 73
218
 74
189
 0
VERTEX
 8
LOFT
 10
0
 20
0
 30
0
 70
128
 71
191
 72
220
 73
219
 74
190
 0
VERTEX
 8
LOFT
 10
0
 20
0
 30
0
 70
128
 71
192
 72
221
 73
220
 74
191
 0
VERTEX
 8
LOFT
 10
0
 20
0
 30
0
 70
128
 71
193
 72
222
 73
221
 74
192
 0
VERTEX
 8
LOFT
 10
0
 20
0
 30
0
 70
128
 71
194
 72
223
 73
222
 74
193
 0
VERTEX
 8
LOFT
 10
0
 20
0
 30
0
 70
128
 71
195
 72
224
 73
223
 74
194
 0
VERTEX
 8
LOFT
 10
0
 20
0
 30
0
 70
128
 71
196
 72
225
 73
224
 74
195
 0
VERTEX
 8
LOFT
 10
0
 20
0
 30
0
 70
128
 71
197
 72
226
 73
225
 74
196
 0
VERTEX
 8
LOFT
 10
0
 20
0
 30
0
 70
128
 71
198
 72
227
 73
226
 74
197
 0
VERTEX
 8
LOFT
 10
0
 20
0
 30
0
 70
128
 71
199
 72
228
 73
227
 74
198
 0
VERTEX
 8
LOFT
 10
0
 20
0
 30
0
 70
128
 71
200
 72
229
 73
228
 74
199
 0
VERTEX
 8
LOFT
 10
0
 20
0
 30
0
 70
128
 71
201
 72
230
 73
229
 74
200
 0
VERTEX
 8
LOFT
 10
0
 20
0
 30
0
 70
128
 71
202
 72
231
 73
230
 74
201
 0
VERTEX
 8
LOFT
 10
0
 20
0
 30
0
 70
128
 71
203
 72
232
 73
231
 74
202
 0
VERTEX
 8
LOFT
 10
0
 20
0
 30
0
 70
128
 71
175
 72
204
 73
232
 74
203
 0
VERTEX
 8
LOFT
 10
0
 20
0
 30
0
 70
128
 71
205
 72
234
 73
233
 74
204
 0
VERTEX
 8
LOFT
 10
0
 20
0
 30
0
 70
128
 71
206
 72
235
 73
234
 74
205
 0
VERTEX
 8
LOFT
 10
0
 20
0
 30
0
 70
128
 71
207
 72
236
 73
235
 74
206
 0
VERTEX
 8
LOFT
 10
0
 20
0
 30
0
 70
128
 71
208
 72
237
 73
236
 74
207
 0
VERTEX
 8
LOFT
 10
0
 20
0
 30
0
 70
128
 71
209
 72
238
 73
237
 74
208
 0
VERTEX
 8
LOFT
 10
0
 20
0
 30
0
 70
128
 71
210
 72
239
 73
238
 74
209
 0
VERTEX
 8
LOFT
 10
0
 20
0
 30
0
 70
128
 71
211
 72
240
 73
239
 74
210
 0
VERTEX
 8
LOFT
 10
0
 20
0
 30
0
 70
128
 71
212
 72
241
 73
240
 74
211
 0
VERTEX
 8
LOFT
 10
0
 20
0
 30
0
 70
128
 71
213
 72
242
 73
241
 74
212
 0
VERTEX
 8
LOFT
 10
0
 20
0
 30
0
 70
128
 71
214
 72
243
 73
242
 74
213
 0
VERTEX
 8
LOFT
 10
0
 20
0
 30
0
 70
128
 71
215
 72
244
 73
243
 74
214
 0
VERTEX
 8
LOFT
 10
0
 20
0
 30
0
 70
128
 71
216
 72
245
 73
244
 74
215
 0
VERTEX
 8
LOFT
 10
0
 20
0
 30
0
 70
128
 71
217
 72
246
 73
245
 74
216
 0
VERTEX
 8
LOFT
 10
0
 20
0
 30
0
 70
128
 71
218
 72
247
 73
246
 74
217
 0
VERTEX
 8
LOFT
 10
0
 20
0
 30
0
 70
128
 71
219
 72
248
 73
247
 74
218
 0
VERTEX
 8
LOFT
 10
0
 20
0
 30
0
 70
128
 71
220
 72
249
 73
248
 74
219
 0
VERTEX
 8
LOFT
 10
0
 20
0
 30
0
 70
128
 71
221
 72
250
 73
249
 74
220
 0
VERTEX
 8
LOFT
 10
0
 20
0
 30
0
 70
128
 71
222
 72
251
 73
250
 74
221
 0
VERTEX
 8
LOFT
 10
0
 20
0
 30
0
 70
128
 71
223
 72
252
 73
251
 74
222
 0
VERTEX
 8
LOFT
 10
0
 20
0
 30
0
 70
128
 71
224
 72
253
 73
252
 74
223
 0
VERTEX
 8
LOFT
 10
0
 20
0
 30
0
 70
128
 71
225
 72
254
 73
253
 74
224
 0
VERTEX
 8
LOFT
 10
0
 20
0
 30
0
 70
128
 71
226
 72
255
 73
254
 74
225
 0
VERTEX
 8
LOFT
 10
0
 20
0
 30
0
 70
128
 71
227
 72
256
 73
255
 74
226
 0
VERTEX
 8
LOFT
 10
0
 20
0
 30
0
 70
128
 71
228
 72
257
 73
256
 74
227
 0
VERTEX
 8
LOFT
 10
0
 20
0
 30
0
 70
128
 71
229
 72
258
 73
257
 74
228
 0
VERTEX
 8
LOFT
 10
0
 20
0
 30
0
 70
128
 71
230
 72
259
 73
258
 74
229
 0
VERTEX
 8
LOFT
 10
0
 20
0
 30
0
 70
128
 71
231
 72
260
 73
259
 74
230
 0
VERTEX
 8
LOFT
 10
0
 20
0
 30
0
 70
128
 71
232
 72
261
 73
260
 74
231
 0
VERTEX
 8
LOFT
 10
0
 20
0
 30
0
 70
128
 71
204
 72
233
 73
261
 74
232
 0
VERTEX
 8
LOFT
 10
0
 20
0
 30
0
 70
128
 71
234
 72
263
 73
262
 74
233
 0
VERTEX
 8
LOFT
 10
0
 20
0
 30
0
 70
128
 71
235
 72
264
 73
263
 74
234
 0
VERTEX
 8
LOFT
 10
0
 20
0
 30
0
 70
128
 71
236
 72
265
 73
264
 74
235
 0
VERTEX
 8
LOFT
 10
0
 20
0
 30
0
 70
128
 71
237
 72
266
 73
265
 74
236
 0
VERTEX
 8
LOFT
 10
0
 20
0
 30
0
 70
128
 71
238
 72
267
 73
266
 74
237
 0
VERTEX
 8
LOFT
 10
0
 20
0
 30
0
 70
128
 71
239
 72
268
 73
267
 74
238
 0
VERTEX
 8
LOFT
 10
0
 20
0
 30
0
 70
128
 71
240
 72
269
 73
268
 74
239
 0
VERTEX
 8
LOFT
 10
0
 20
0
 30
0
 70
128
 71
241
 72
270
 73
269
 74
240
 0
VERTEX
 8
LOFT
 10
0
 20
0
 30
0
 70
128
 71
242
 72
271
 73
270
 74
241
 0
VERTEX
 8
LOFT
 10
0
 20
0
 30
0
 70
128
 71
243
 72
272
 73
271
 74
242
 0
VERTEX
 8
LOFT
 10
0
 20
0
 30
0
 70
128
 71
244
 72
273
 73
272
 74
243
 0
VERTEX
 8
LOFT
 10
0
 20
0
 30
0
 70
128
 71
245
 72
274
 73
273
 74
244
 0
VERTEX
 8
LOFT
 10
0
 20
0
 30
0
 70
128
 71
246
 72
275
 73
274
 74
245
 0
VERTEX
 8
LOFT
 10
0
 20
0
 30
0
 70
128
 71
247
 72
276
 73
275
 74
246
 0
VERTEX
 8
LOFT
 10
0
 20
0
 30
0
 70
128
 71
248
 72
277
 73
276
 74
247
 0
VERTEX
 8
LOFT
 10
0
 20
0
 30
0
 70
128
 71
249
 72
278
 73
277
 74
248
 0
VERTEX
 8
LOFT
 10
0
 20
0
 30
0
 70
128
 71
250
 72
279
 73
278
 74
249
 0
VERTEX
 8
LOFT
 10
0
 20
0
 30
0
 70
128
 71
251
 72
280
 73
279
 74
250
 0
VERTEX
 8
LOFT
 10
0
 20
0
 30
0
 70
128
 71
252
 72
281
 73
280
 74
251
 0
VERTEX
 8
LOFT
 10
0
 20
0
 30
0
 70
128
 71
253
 72
282
 73
281
 74
252
 0
VERTEX
 8
LOFT
 10
0
 20
0
 30
0
 70
128
 71
254
 72
283
 73
282
 74
253
 0
VERTEX
 8
LOFT
 10
0
 20
0
 30
0
 70
128
 71
255
 72
284
 73
283
 74
254
 0
VERTEX
 8
LOFT
 10
0
 20
0
 30
0
 70
128
 71
256
 72
285
 73
284
 74
255
 0
VERTEX
 8
LOFT
 10
0
 20
0
 30
0
 70
128
 71
257
 72
286
 73
285
 74
256
 0
VERTEX
 8
LOFT
 10
0
 20
0
 30
0
 70
128
 71
258
 72
287
 73
286
 74
257
 0
VERTEX
 8
LOFT
 10
0
 20
0
 30
0
 70
128
 71
259
 72
288
 73
287
 74
258
 0
VERTEX
 8
LOFT
 10
0
 20
0
 30
0
 70
128
 71
260
 72
289
 73
288
 74
259
 0
VERTEX
 8
LOFT
 10
0
 20
0
 30
0
 70
128
 71
261
 72
290
 73
289
 74
260
 0
VERTEX
 8
LOFT
 10
0
 20
0
 30
0
 70
128
 71
233
 72
262
 73
290
 74
261
 0
VERTEX
 8
LOFT
 10
0
 20
0
 30
0
 70
128
 71
263
 72
292
 73
291
 74
262
 0
VERTEX
 8
LOFT
 10
0
 20
0
 30
0
 70
128
 71
264
 72
293
 73
292
 74
263
 0
VERTEX
 8
LOFT
 10
0
 20
0
 30
0
 70
128
 71
265
 72
294
 73
293
 74
264
 0
VERTEX
 8
LOFT
 10
0
 20
0
 30
0
 70
128
 71
266
 72
295
 73
294
 74
265
 0
VERTEX
 8
LOFT
 10
0
 20
0
 30
0
 70
128
 71
267
 72
296
 73
295
 74
266
 0
VERTEX
 8
LOFT
 10
0
 20
0
 30
0
 70
128
 71
268
 72
297
 73
296
 74
267
 0
VERTEX
 8
LOFT
 10
0
 20
0
 30
0
 70
128
 71
269
 72
298
 73
297
 74
268
 0
VERTEX
 8
LOFT
 10
0
 20
0
 30
0
 70
128
 71
270
 72
299
 73
298
 74
269
 0
VERTEX
 8
LOFT
 10
0
 20
0
 30
0
 70
128
 71
271
 72
300
 73
299
 74
270
 0
VERTEX
 8
LOFT
 10
0
 20
0
 30
0
 70
128
 71
272
 72
301
 73
300
 74
271
 0
VERTEX
 8
LOFT
 10
0
 20
0
 30
0
 70
128
 71
273
 72
302
 73
301
 74
272
 0
VERTEX
 8
LOFT
 10
0
 20
0
 30
0
 70
128
 71
274
 72
303
 73
302
 74
273
 0
VERTEX
 8
LOFT
 10
0
 20
0
 30
0
 70
128
 71
275
 72
304
 73
303
 74
274
 0
VERTEX
 8
LOFT
 10
0
 20
0
 30
0
 70
128
 71
276
 72
305
 73
304
 74
275
 0
VERTEX
 8
LOFT
 10
0
 20
0
 30
0
 70
128
 71
277
 72
306
 73
305
 74
276
 0
VERTEX
 8
LOFT
 10
0
 20
0
 30
0
 70
128
 71
278
 72
307
 73
306
 74
277
 0
VERTEX
 8
LOFT
 10
0
 20
0
 30
0
 70
128
 71
279
 72
308
 73
307
 74
278
 0
VERTEX
 8
LOFT
 10
0
 20
0
 30
0
 70
128
 71
280
 72
309
 73
308
 74
279
 0
VERTEX
 8
LOFT
 10
0
 20
0
 30
0
 70
128
 71
281
 72
310
 73
309
 74
280
 0
VERTEX
 8
LOFT
 10
0
 20
0
 30
0
 70
128
 71
282
 72
311
 73
310
 74
281
 0
VERTEX
 8
LOFT
 10
0
 20
0
 30
0
 70
128
 71
283
 72
312
 73
311
 74
282
 0
VERTEX
 8
LOFT
 10
0
 20
0
 30
0
 70
128
 71
284
 72
313
 73
312
 74
283
 0
VERTEX
 8
LOFT
 10
0
 20
0
 30
0
 70
128
 71
285
 72
314
 73
313
 74
284
 0
VERTEX
 8
LOFT
 10
0
 20
0
 30
0
 70
128
 71
286
 72
315
 73
314
 74
285
 0
VERTEX
 8
LOFT
 10
0
 20
0
 30
0
 70
128
 71
287
 72
316
 73
315
 74
286
 0
VERTEX
 8
LOFT
 10
0
 20
0
 30
0
 70
128
 71
288
 72
317
 73
316
 74
287
 0
VERTEX
 8
LOFT
 10
0
 20
0
 30
0
 70
128
 71
289
 72
318
 73
317
 74
288
 0
VERTEX
 8
LOFT
 10
0
 20
0
 30
0
 70
128
 71
290
 72
319
 73
318
 74
289
 0
VERTEX
 8
LOFT
 10
0
 20
0
 30
0
 70
128
 71
262
 72
291
 73
319
 74
290
 0
SEQEND
 0
POLYLINE
 8
TAPA_1_5
 66
1
 10
0.0
 20
0.0
 30
0.0
 70
64
 71
29
 72
27
 0
VERTEX
 8
TAPA_1_5
 10
-0.1846
 20
-0.1457
 30
0.0124
 70
192
 0
VERTEX
 8
TAPA_1_5
 10
-0.1849
 20
-0.1428
 30
0.0124
 70
192
 0
VERTEX
 8
TAPA_1_5
 10
-0.1858
 20
-0.1401
 30
0.0124
 70
192
 0
VERTEX
 8
TAPA_1_5
 10
-0.1873
 20
-0.1378
 30
0.0124
 70
192
 0
VERTEX
 8
TAPA_1_5
 10
-0.1892
 20
-0.1358
 30
0.0124
 70
192
 0
VERTEX
 8
TAPA_1_5
 10
-0.1914
 20
-0.1342
 30
0.0124
 70
192
 0
VERTEX
 8
TAPA_1_5
 10
-0.194
 20
-0.1332
 30
0.0124
 70
192
 0
VERTEX
 8
TAPA_1_5
 10
-0.1969
 20
-0.1327
 30
0.0124
 70
192
 0
VERTEX
 8
TAPA_1_5
 10
-0.1998
 20
-0.1329
 30
0.0124
 70
192
 0
VERTEX
 8
TAPA_1_5
 10
-0.2025
 20
-0.1336
 30
0.0124
 70
192
 0
VERTEX
 8
TAPA_1_5
 10
-0.2049
 20
-0.1349
 30
0.0124
 70
192
 0
VERTEX
 8
TAPA_1_5
 10
-0.207
 20
-0.1367
 30
0.0124
 70
192
 0
VERTEX
 8
TAPA_1_5
 10
-0.2087
 20
-0.1389
 30
0.0124
 70
192
 0
VERTEX
 8
TAPA_1_5
 10
-0.2099
 20
-0.1414
 30
0.0124
 70
192
 0
VERTEX
 8
TAPA_1_5
 10
-0.2105
 20
-0.1442
 30
0.0124
 70
192
 0
VERTEX
 8
TAPA_1_5
 10
-0.2105
 20
-0.1472
 30
0.0124
 70
192
 0
VERTEX
 8
TAPA_1_5
 10
-0.2099
 20
-0.1499
 30
0.0124
 70
192
 0
VERTEX
 8
TAPA_1_5
 10
-0.2087
 20
-0.1524
 30
0.0124
 70
192
 0
VERTEX
 8
TAPA_1_5
 10
-0.207
 20
-0.1546
 30
0.0124
 70
192
 0
VERTEX
 8
TAPA_1_5
 10
-0.2049
 20
-0.1564
 30
0.0124
 70
192
 0
VERTEX
 8
TAPA_1_5
 10
-0.2025
 20
-0.1577
 30
0.0124
 70
192
 0
VERTEX
 8
TAPA_1_5
 10
-0.1998
 20
-0.1585
 30
0.0124
 70
192
 0
VERTEX
 8
TAPA_1_5
 10
-0.1969
 20
-0.1587
 30
0.0124
 70
192
 0
VERTEX
 8
TAPA_1_5
 10
-0.194
 20
-0.1582
 30
0.0124
 70
192
 0
VERTEX
 8
TAPA_1_5
 10
-0.1914
 20
-0.1571
 30
0.0124
 70
192
 0
VERTEX
 8
TAPA_1_5
 10
-0.1892
 20
-0.1556
 30
0.0124
 70
192
 0
VERTEX
 8
TAPA_1_5
 10
-0.1873
 20
-0.1536
 30
0.0124
 70
192
 0
VERTEX
 8
TAPA_1_5
 10
-0.1858
 20
-0.1512
 30
0.0124
 70
192
 0
VERTEX
 8
TAPA_1_5
 10
-0.1849
 20
-0.1486
 30
0.0124
 70
192
 0
VERTEX
 8
TAPA_1_5
 10
0
 20
0
 30
0
 70
128
 71
1
 72
2
 73
4
 74
4
 0
VERTEX
 8
TAPA_1_5
 10
0
 20
0
 30
0
 70
128
 71
1
 72
4
 73
5
 74
5
 0
VERTEX
 8
TAPA_1_5
 10
0
 20
0
 30
0
 70
128
 71
1
 72
5
 73
8
 74
8
 0
VERTEX
 8
TAPA_1_5
 10
0
 20
0
 30
0
 70
128
 71
1
 72
8
 73
23
 74
23
 0
VERTEX
 8
TAPA_1_5
 10
0
 20
0
 30
0
 70
128
 71
1
 72
23
 73
26
 74
26
 0
VERTEX
 8
TAPA_1_5
 10
0
 20
0
 30
0
 70
128
 71
1
 72
26
 73
27
 74
27
 0
VERTEX
 8
TAPA_1_5
 10
0
 20
0
 30
0
 70
128
 71
1
 72
27
 73
29
 74
29
 0
VERTEX
 8
TAPA_1_5
 10
0
 20
0
 30
0
 70
128
 71
2
 72
3
 73
4
 74
4
 0
VERTEX
 8
TAPA_1_5
 10
0
 20
0
 30
0
 70
128
 71
5
 72
6
 73
8
 74
8
 0
VERTEX
 8
TAPA_1_5
 10
0
 20
0
 30
0
 70
128
 71
6
 72
7
 73
8
 74
8
 0
VERTEX
 8
TAPA_1_5
 10
0
 20
0
 30
0
 70
128
 71
8
 72
9
 73
15
 74
15
 0
VERTEX
 8
TAPA_1_5
 10
0
 20
0
 30
0
 70
128
 71
8
 72
15
 73
23
 74
23
 0
VERTEX
 8
TAPA_1_5
 10
0
 20
0
 30
0
 70
128
 71
9
 72
10
 73
11
 74
11
 0
VERTEX
 8
TAPA_1_5
 10
0
 20
0
 30
0
 70
128
 71
9
 72
11
 73
12
 74
12
 0
VERTEX
 8
TAPA_1_5
 10
0
 20
0
 30
0
 70
128
 71
9
 72
12
 73
15
 74
15
 0
VERTEX
 8
TAPA_1_5
 10
0
 20
0
 30
0
 70
128
 71
12
 72
13
 73
15
 74
15
 0
VERTEX
 8
TAPA_1_5
 10
0
 20
0
 30
0
 70
128
 71
13
 72
14
 73
15
 74
15
 0
VERTEX
 8
TAPA_1_5
 10
0
 20
0
 30
0
 70
128
 71
15
 72
16
 73
23
 74
23
 0
VERTEX
 8
TAPA_1_5
 10
0
 20
0
 30
0
 70
128
 71
16
 72
17
 73
18
 74
18
 0
VERTEX
 8
TAPA_1_5
 10
0
 20
0
 30
0
 70
128
 71
16
 72
18
 73
19
 74
19
 0
VERTEX
 8
TAPA_1_5
 10
0
 20
0
 30
0
 70
128
 71
16
 72
19
 73
22
 74
22
 0
VERTEX
 8
TAPA_1_5
 10
0
 20
0
 30
0
 70
128
 71
16
 72
22
 73
23
 74
23
 0
VERTEX
 8
TAPA_1_5
 10
0
 20
0
 30
0
 70
128
 71
19
 72
20
 73
22
 74
22
 0
VERTEX
 8
TAPA_1_5
 10
0
 20
0
 30
0
 70
128
 71
20
 72
21
 73
22
 74
22
 0
VERTEX
 8
TAPA_1_5
 10
0
 20
0
 30
0
 70
128
 71
23
 72
24
 73
25
 74
25
 0
VERTEX
 8
TAPA_1_5
 10
0
 20
0
 30
0
 70
128
 71
23
 72
25
 73
26
 74
26
 0
VERTEX
 8
TAPA_1_5
 10
0
 20
0
 30
0
 70
128
 71
27
 72
28
 73
29
 74
29
 0
SEQEND
 0
POLYLINE
 8
TAPA_2_5
 66
1
 10
0.0
 20
0.0
 30
0.0
 70
64
 71
29
 72
27
 0
VERTEX
 8
TAPA_2_5
 10
-0.1617
 20
-0.1457
 30
0.2649
 70
192
 0
VERTEX
 8
TAPA_2_5
 10
-0.1623
 20
-0.1401
 30
0.2649
 70
192
 0
VERTEX
 8
TAPA_2_5
 10
-0.1641
 20
-0.135
 30
0.2649
 70
192
 0
VERTEX
 8
TAPA_2_5
 10
-0.1668
 20
-0.1305
 30
0.2649
 70
192
 0
VERTEX
 8
TAPA_2_5
 10
-0.1705
 20
-0.1266
 30
0.2649
 70
192
 0
VERTEX
 8
TAPA_2_5
 10
-0.1748
 20
-0.1237
 30
0.2649
 70
192
 0
VERTEX
 8
TAPA_2_5
 10
-0.1798
 20
-0.1216
 30
0.2649
 70
192
 0
VERTEX
 8
TAPA_2_5
 10
-0.1853
 20
-0.1207
 30
0.2649
 70
192
 0
VERTEX
 8
TAPA_2_5
 10
-0.1909
 20
-0.121
 30
0.2649
 70
192
 0
VERTEX
 8
TAPA_2_5
 10
-0.1961
 20
-0.1225
 30
0.2649
 70
192
 0
VERTEX
 8
TAPA_2_5
 10
-0.2008
 20
-0.125
 30
0.2649
 70
192
 0
VERTEX
 8
TAPA_2_5
 10
-0.2048
 20
-0.1285
 30
0.2649
 70
192
 0
VERTEX
 8
TAPA_2_5
 10
-0.2081
 20
-0.1327
 30
0.2649
 70
192
 0
VERTEX
 8
TAPA_2_5
 10
-0.2103
 20
-0.1375
 30
0.2649
 70
192
 0
VERTEX
 8
TAPA_2_5
 10
-0.2115
 20
-0.1429
 30
0.2649
 70
192
 0
VERTEX
 8
TAPA_2_5
 10
-0.2115
 20
-0.1485
 30
0.2649
 70
192
 0
VERTEX
 8
TAPA_2_5
 10
-0.2103
 20
-0.1539
 30
0.2649
 70
192
 0
VERTEX
 8
TAPA_2_5
 10
-0.2081
 20
-0.1587
 30
0.2649
 70
192
 0
VERTEX
 8
TAPA_2_5
 10
-0.2048
 20
-0.1629
 30
0.2649
 70
192
 0
VERTEX
 8
TAPA_2_5
 10
-0.2008
 20
-0.1663
 30
0.2649
 70
192
 0
VERTEX
 8
TAPA_2_5
 10
-0.1961
 20
-0.1689
 30
0.2649
 70
192
 0
VERTEX
 8
TAPA_2_5
 10
-0.1909
 20
-0.1703
 30
0.2649
 70
192
 0
VERTEX
 8
TAPA_2_5
 10
-0.1853
 20
-0.1706
 30
0.2649
 70
192
 0
VERTEX
 8
TAPA_2_5
 10
-0.1798
 20
-0.1697
 30
0.2649
 70
192
 0
VERTEX
 8
TAPA_2_5
 10
-0.1748
 20
-0.1677
 30
0.2649
 70
192
 0
VERTEX
 8
TAPA_2_5
 10
-0.1705
 20
-0.1647
 30
0.2649
 70
192
 0
VERTEX
 8
TAPA_2_5
 10
-0.1668
 20
-0.1609
 30
0.2649
 70
192
 0
VERTEX
 8
TAPA_2_5
 10
-0.1641
 20
-0.1563
 30
0.2649
 70
192
 0
VERTEX
 8
TAPA_2_5
 10
-0.1623
 20
-0.1512
 30
0.2649
 70
192
 0
VERTEX
 8
TAPA_2_5
 10
0
 20
0
 30
0
 70
128
 71
29
 72
28
 73
27
 74
27
 0
VERTEX
 8
TAPA_2_5
 10
0
 20
0
 30
0
 70
128
 71
29
 72
27
 73
1
 74
1
 0
VERTEX
 8
TAPA_2_5
 10
0
 20
0
 30
0
 70
128
 71
27
 72
26
 73
1
 74
1
 0
VERTEX
 8
TAPA_2_5
 10
0
 20
0
 30
0
 70
128
 71
26
 72
25
 73
23
 74
23
 0
VERTEX
 8
TAPA_2_5
 10
0
 20
0
 30
0
 70
128
 71
26
 72
23
 73
1
 74
1
 0
VERTEX
 8
TAPA_2_5
 10
0
 20
0
 30
0
 70
128
 71
25
 72
24
 73
23
 74
23
 0
VERTEX
 8
TAPA_2_5
 10
0
 20
0
 30
0
 70
128
 71
23
 72
22
 73
16
 74
16
 0
VERTEX
 8
TAPA_2_5
 10
0
 20
0
 30
0
 70
128
 71
23
 72
16
 73
15
 74
15
 0
VERTEX
 8
TAPA_2_5
 10
0
 20
0
 30
0
 70
128
 71
23
 72
15
 73
8
 74
8
 0
VERTEX
 8
TAPA_2_5
 10
0
 20
0
 30
0
 70
128
 71
23
 72
8
 73
1
 74
1
 0
VERTEX
 8
TAPA_2_5
 10
0
 20
0
 30
0
 70
128
 71
22
 72
21
 73
20
 74
20
 0
VERTEX
 8
TAPA_2_5
 10
0
 20
0
 30
0
 70
128
 71
22
 72
20
 73
19
 74
19
 0
VERTEX
 8
TAPA_2_5
 10
0
 20
0
 30
0
 70
128
 71
22
 72
19
 73
16
 74
16
 0
VERTEX
 8
TAPA_2_5
 10
0
 20
0
 30
0
 70
128
 71
19
 72
18
 73
16
 74
16
 0
VERTEX
 8
TAPA_2_5
 10
0
 20
0
 30
0
 70
128
 71
18
 72
17
 73
16
 74
16
 0
VERTEX
 8
TAPA_2_5
 10
0
 20
0
 30
0
 70
128
 71
15
 72
14
 73
13
 74
13
 0
VERTEX
 8
TAPA_2_5
 10
0
 20
0
 30
0
 70
128
 71
15
 72
13
 73
12
 74
12
 0
VERTEX
 8
TAPA_2_5
 10
0
 20
0
 30
0
 70
128
 71
15
 72
12
 73
9
 74
9
 0
VERTEX
 8
TAPA_2_5
 10
0
 20
0
 30
0
 70
128
 71
15
 72
9
 73
8
 74
8
 0
VERTEX
 8
TAPA_2_5
 10
0
 20
0
 30
0
 70
128
 71
12
 72
11
 73
9
 74
9
 0
VERTEX
 8
TAPA_2_5
 10
0
 20
0
 30
0
 70
128
 71
11
 72
10
 73
9
 74
9
 0
VERTEX
 8
TAPA_2_5
 10
0
 20
0
 30
0
 70
128
 71
8
 72
7
 73
6
 74
6
 0
VERTEX
 8
TAPA_2_5
 10
0
 20
0
 30
0
 70
128
 71
8
 72
6
 73
5
 74
5
 0
VERTEX
 8
TAPA_2_5
 10
0
 20
0
 30
0
 70
128
 71
8
 72
5
 73
1
 74
1
 0
VERTEX
 8
TAPA_2_5
 10
0
 20
0
 30
0
 70
128
 71
5
 72
4
 73
1
 74
1
 0
VERTEX
 8
TAPA_2_5
 10
0
 20
0
 30
0
 70
128
 71
4
 72
3
 73
2
 74
2
 0
VERTEX
 8
TAPA_2_5
 10
0
 20
0
 30
0
 70
128
 71
4
 72
2
 73
1
 74
1
 0
SEQEND
 0
POLYLINE
 8
BOOLE_3_1
 66
1
 10
0.0
 20
0.0
 30
0.0
 70
64
 71
34
 72
24
 0
VERTEX
 8
BOOLE_3_1
 10
-0.225
 20
-0.19
 30
0.2717
 70
192
 0
VERTEX
 8
BOOLE_3_1
 10
-0.225
 20
-0.19
 30
0.6171
 70
192
 0
VERTEX
 8
BOOLE_3_1
 10
0.225
 20
-0.19
 30
0.2717
 70
192
 0
VERTEX
 8
BOOLE_3_1
 10
0.225
 20
-0.19
 30
0.6171
 70
192
 0
VERTEX
 8
BOOLE_3_1
 10
0.225
 20
0.19
 30
0.2717
 70
192
 0
VERTEX
 8
BOOLE_3_1
 10
0.225
 20
0.19
 30
0.6171
 70
192
 0
VERTEX
 8
BOOLE_3_1
 10
-0.225
 20
0.19
 30
0.2717
 70
192
 0
VERTEX
 8
BOOLE_3_1
 10
-0.225
 20
0.19
 30
0.6171
 70
192
 0
VERTEX
 8
BOOLE_3_1
 10
0.215
 20
-0.19
 30
0.6171
 70
192
 0
VERTEX
 8
BOOLE_3_1
 10
-0.215
 20
-0.19
 30
0.6171
 70
192
 0
VERTEX
 8
BOOLE_3_1
 10
0.215
 20
-0.19
 30
0.4863
 70
192
 0
VERTEX
 8
BOOLE_3_1
 10
-0.215
 20
-0.19
 30
0.4863
 70
192
 0
VERTEX
 8
BOOLE_3_1
 10
-0.215
 20
0.1694
 30
0.6171
 70
192
 0
VERTEX
 8
BOOLE_3_1
 10
0.215
 20
0.1694
 30
0.6171
 70
192
 0
VERTEX
 8
BOOLE_3_1
 10
0.215
 20
-0.19
 30
0.4739
 70
192
 0
VERTEX
 8
BOOLE_3_1
 10
0.215
 20
-0.19
 30
0.2846
 70
192
 0
VERTEX
 8
BOOLE_3_1
 10
-0.215
 20
-0.19
 30
0.4739
 70
192
 0
VERTEX
 8
BOOLE_3_1
 10
-0.215
 20
-0.19
 30
0.2846
 70
192
 0
VERTEX
 8
BOOLE_3_1
 10
0.215
 20
0.1694
 30
0.4863
 70
192
 0
VERTEX
 8
BOOLE_3_1
 10
-0.215
 20
0.1694
 30
0.4863
 70
192
 0
VERTEX
 8
BOOLE_3_1
 10
-0.215
 20
-0.19
 30
0.4863
 70
192
 0
VERTEX
 8
BOOLE_3_1
 10
0.215
 20
-0.19
 30
0.4863
 70
192
 0
VERTEX
 8
BOOLE_3_1
 10
0.215
 20
0.1694
 30
0.6171
 70
192
 0
VERTEX
 8
BOOLE_3_1
 10
-0.215
 20
0.1694
 30
0.6171
 70
192
 0
VERTEX
 8
BOOLE_3_1
 10
-0.215
 20
-0.19
 30
0.6171
 70
192
 0
VERTEX
 8
BOOLE_3_1
 10
0.215
 20
-0.19
 30
0.6171
 70
192
 0
VERTEX
 8
BOOLE_3_1
 10
0.215
 20
0.1694
 30
0.2846
 70
192
 0
VERTEX
 8
BOOLE_3_1
 10
0.215
 20
0.1694
 30
0.4739
 70
192
 0
VERTEX
 8
BOOLE_3_1
 10
-0.215
 20
0.1694
 30
0.2846
 70
192
 0
VERTEX
 8
BOOLE_3_1
 10
-0.215
 20
0.1694
 30
0.4739
 70
192
 0
VERTEX
 8
BOOLE_3_1
 10
0.215
 20
-0.19
 30
0.4739
 70
192
 0
VERTEX
 8
BOOLE_3_1
 10
0.215
 20
-0.19
 30
0.2846
 70
192
 0
VERTEX
 8
BOOLE_3_1
 10
-0.215
 20
-0.19
 30
0.4739
 70
192
 0
VERTEX
 8
BOOLE_3_1
 10
-0.215
 20
-0.19
 30
0.2846
 70
192
 0
VERTEX
 8
BOOLE_3_1
 10
0
 20
0
 30
0
 70
128
 71
9
 72
4
 73
3
 74
11
 0
VERTEX
 8
BOOLE_3_1
 10
0
 20
0
 30
0
 70
128
 71
1
 72
2
 73
10
 74
12
 0
VERTEX
 8
BOOLE_3_1
 10
0
 20
0
 30
0
 70
128
 71
17
 72
18
 73
1
 74
1
 0
VERTEX
 8
BOOLE_3_1
 10
0
 20
0
 30
0
 70
128
 71
1
 72
18
 73
16
 74
3
 0
VERTEX
 8
BOOLE_3_1
 10
0
 20
0
 30
0
 70
128
 71
17
 72
1
 73
12
 74
12
 0
VERTEX
 8
BOOLE_3_1
 10
0
 20
0
 30
0
 70
128
 71
3
 72
16
 73
15
 74
15
 0
VERTEX
 8
BOOLE_3_1
 10
0
 20
0
 30
0
 70
128
 71
17
 72
12
 73
11
 74
15
 0
VERTEX
 8
BOOLE_3_1
 10
0
 20
0
 30
0
 70
128
 71
11
 72
3
 73
15
 74
15
 0
VERTEX
 8
BOOLE_3_1
 10
0
 20
0
 30
0
 70
128
 71
3
 72
4
 73
6
 74
5
 0
VERTEX
 8
BOOLE_3_1
 10
0
 20
0
 30
0
 70
128
 71
5
 72
6
 73
8
 74
7
 0
VERTEX
 8
BOOLE_3_1
 10
0
 20
0
 30
0
 70
128
 71
7
 72
8
 73
2
 74
1
 0
VERTEX
 8
BOOLE_3_1
 10
0
 20
0
 30
0
 70
128
 71
10
 72
2
 73
8
 74
13
 0
VERTEX
 8
BOOLE_3_1
 10
0
 20
0
 30
0
 70
128
 71
4
 72
9
 73
14
 74
6
 0
VERTEX
 8
BOOLE_3_1
 10
0
 20
0
 30
0
 70
128
 71
8
 72
6
 73
14
 74
13
 0
VERTEX
 8
BOOLE_3_1
 10
0
 20
0
 30
0
 70
128
 71
7
 72
1
 73
3
 74
5
 0
VERTEX
 8
BOOLE_3_1
 10
0
 20
0
 30
0
 70
128
 71
23
 72
26
 73
22
 74
19
 0
VERTEX
 8
BOOLE_3_1
 10
0
 20
0
 30
0
 70
128
 71
20
 72
24
 73
23
 74
19
 0
VERTEX
 8
BOOLE_3_1
 10
0
 20
0
 30
0
 70
128
 71
20
 72
21
 73
25
 74
24
 0
VERTEX
 8
BOOLE_3_1
 10
0
 20
0
 30
0
 70
128
 71
19
 72
22
 73
21
 74
20
 0
VERTEX
 8
BOOLE_3_1
 10
0
 20
0
 30
0
 70
128
 71
28
 72
31
 73
32
 74
27
 0
VERTEX
 8
BOOLE_3_1
 10
0
 20
0
 30
0
 70
128
 71
28
 72
27
 73
29
 74
30
 0
VERTEX
 8
BOOLE_3_1
 10
0
 20
0
 30
0
 70
128
 71
29
 72
34
 73
33
 74
30
 0
VERTEX
 8
BOOLE_3_1
 10
0
 20
0
 30
0
 70
128
 71
30
 72
33
 73
31
 74
28
 0
VERTEX
 8
BOOLE_3_1
 10
0
 20
0
 30
0
 70
128
 71
27
 72
32
 73
34
 74
29
 0
SEQEND
 0
POLYLINE
 8
CUBE_1_1
 66
1
 10
0.0
 20
0.0
 30
0.0
 70
64
 71
8
 72
6
 0
VERTEX
 8
CUBE_1_1
 10
-0.221
 20
-0.1929
 30
0.5858
 70
192
 0
VERTEX
 8
CUBE_1_1
 10
-0.221
 20
-0.1929
 30
0.5988
 70
192
 0
VERTEX
 8
CUBE_1_1
 10
0.221
 20
-0.1929
 30
0.5858
 70
192
 0
VERTEX
 8
CUBE_1_1
 10
0.221
 20
-0.1929
 30
0.5988
 70
192
 0
VERTEX
 8
CUBE_1_1
 10
0.221
 20
0.1709
 30
0.5858
 70
192
 0
VERTEX
 8
CUBE_1_1
 10
0.221
 20
0.1709
 30
0.5988
 70
192
 0
VERTEX
 8
CUBE_1_1
 10
-0.221
 20
0.1709
 30
0.5858
 70
192
 0
VERTEX
 8
CUBE_1_1
 10
-0.221
 20
0.1709
 30
0.5988
 70
192
 0
VERTEX
 8
CUBE_1_1
 10
0
 20
0
 30
0
 70
128
 71
1
 72
2
 73
4
 74
3
 0
VERTEX
 8
CUBE_1_1
 10
0
 20
0
 30
0
 70
128
 71
3
 72
4
 73
6
 74
5
 0
VERTEX
 8
CUBE_1_1
 10
0
 20
0
 30
0
 70
128
 71
5
 72
6
 73
8
 74
7
 0
VERTEX
 8
CUBE_1_1
 10
0
 20
0
 30
0
 70
128
 71
7
 72
8
 73
2
 74
1
 0
VERTEX
 8
CUBE_1_1
 10
0
 20
0
 30
0
 70
128
 71
2
 72
8
 73
6
 74
4
 0
VERTEX
 8
CUBE_1_1
 10
0
 20
0
 30
0
 70
128
 71
7
 72
1
 73
3
 74
5
 0
SEQEND
 0
POLYLINE
 8
CYLINDER
 66
1
 10
0.0
 20
0.0
 30
0.0
 70
64
 71
146
 72
108
 0
VERTEX
 8
CYLINDER
 10
-0.187
 20
-0.1451
 30
0.263
 70
192
 0
VERTEX
 8
CYLINDER
 10
-0.187
 20
-0.1451
 30
0.2716
 70
192
 0
VERTEX
 8
CYLINDER
 10
-0.152
 20
-0.1451
 30
0.263
 70
192
 0
VERTEX
 8
CYLINDER
 10
-0.152
 20
-0.1451
 30
0.263
 70
192
 0
VERTEX
 8
CYLINDER
 10
-0.152
 20
-0.1451
 30
0.2716
 70
192
 0
VERTEX
 8
CYLINDER
 10
-0.152
 20
-0.1451
 30
0.2716
 70
192
 0
VERTEX
 8
CYLINDER
 10
-0.1525
 20
-0.1391
 30
0.263
 70
192
 0
VERTEX
 8
CYLINDER
 10
-0.1525
 20
-0.1391
 30
0.263
 70
192
 0
VERTEX
 8
CYLINDER
 10
-0.1525
 20
-0.1391
 30
0.2716
 70
192
 0
VERTEX
 8
CYLINDER
 10
-0.1525
 20
-0.1391
 30
0.2716
 70
192
 0
VERTEX
 8
CYLINDER
 10
-0.1541
 20
-0.1332
 30
0.263
 70
192
 0
VERTEX
 8
CYLINDER
 10
-0.1541
 20
-0.1332
 30
0.263
 70
192
 0
VERTEX
 8
CYLINDER
 10
-0.1541
 20
-0.1332
 30
0.2716
 70
192
 0
VERTEX
 8
CYLINDER
 10
-0.1541
 20
-0.1332
 30
0.2716
 70
192
 0
VERTEX
 8
CYLINDER
 10
-0.1567
 20
-0.1277
 30
0.263
 70
192
 0
VERTEX
 8
CYLINDER
 10
-0.1567
 20
-0.1277
 30
0.263
 70
192
 0
VERTEX
 8
CYLINDER
 10
-0.1567
 20
-0.1277
 30
0.2716
 70
192
 0
VERTEX
 8
CYLINDER
 10
-0.1567
 20
-0.1277
 30
0.2716
 70
192
 0
VERTEX
 8
CYLINDER
 10
-0.1602
 20
-0.1227
 30
0.263
 70
192
 0
VERTEX
 8
CYLINDER
 10
-0.1602
 20
-0.1227
 30
0.263
 70
192
 0
VERTEX
 8
CYLINDER
 10
-0.1602
 20
-0.1227
 30
0.2716
 70
192
 0
VERTEX
 8
CYLINDER
 10
-0.1602
 20
-0.1227
 30
0.2716
 70
192
 0
VERTEX
 8
CYLINDER
 10
-0.1645
 20
-0.1184
 30
0.263
 70
192
 0
VERTEX
 8
CYLINDER
 10
-0.1645
 20
-0.1184
 30
0.263
 70
192
 0
VERTEX
 8
CYLINDER
 10
-0.1645
 20
-0.1184
 30
0.2716
 70
192
 0
VERTEX
 8
CYLINDER
 10
-0.1645
 20
-0.1184
 30
0.2716
 70
192
 0
VERTEX
 8
CYLINDER
 10
-0.1695
 20
-0.1149
 30
0.263
 70
192
 0
VERTEX
 8
CYLINDER
 10
-0.1695
 20
-0.1149
 30
0.263
 70
192
 0
VERTEX
 8
CYLINDER
 10
-0.1695
 20
-0.1149
 30
0.2716
 70
192
 0
VERTEX
 8
CYLINDER
 10
-0.1695
 20
-0.1149
 30
0.2716
 70
192
 0
VERTEX
 8
CYLINDER
 10
-0.175
 20
-0.1123
 30
0.263
 70
192
 0
VERTEX
 8
CYLINDER
 10
-0.175
 20
-0.1123
 30
0.263
 70
192
 0
VERTEX
 8
CYLINDER
 10
-0.175
 20
-0.1123
 30
0.2716
 70
192
 0
VERTEX
 8
CYLINDER
 10
-0.175
 20
-0.1123
 30
0.2716
 70
192
 0
VERTEX
 8
CYLINDER
 10
-0.1809
 20
-0.1107
 30
0.263
 70
192
 0
VERTEX
 8
CYLINDER
 10
-0.1809
 20
-0.1107
 30
0.263
 70
192
 0
VERTEX
 8
CYLINDER
 10
-0.1809
 20
-0.1107
 30
0.2716
 70
192
 0
VERTEX
 8
CYLINDER
 10
-0.1809
 20
-0.1107
 30
0.2716
 70
192
 0
VERTEX
 8
CYLINDER
 10
-0.187
 20
-0.1102
 30
0.263
 70
192
 0
VERTEX
 8
CYLINDER
 10
-0.187
 20
-0.1102
 30
0.263
 70
192
 0
VERTEX
 8
CYLINDER
 10
-0.187
 20
-0.1102
 30
0.2716
 70
192
 0
VERTEX
 8
CYLINDER
 10
-0.187
 20
-0.1102
 30
0.2716
 70
192
 0
VERTEX
 8
CYLINDER
 10
-0.193
 20
-0.1107
 30
0.263
 70
192
 0
VERTEX
 8
CYLINDER
 10
-0.193
 20
-0.1107
 30
0.263
 70
192
 0
VERTEX
 8
CYLINDER
 10
-0.193
 20
-0.1107
 30
0.2716
 70
192
 0
VERTEX
 8
CYLINDER
 10
-0.193
 20
-0.1107
 30
0.2716
 70
192
 0
VERTEX
 8
CYLINDER
 10
-0.1989
 20
-0.1123
 30
0.263
 70
192
 0
VERTEX
 8
CYLINDER
 10
-0.1989
 20
-0.1123
 30
0.263
 70
192
 0
VERTEX
 8
CYLINDER
 10
-0.1989
 20
-0.1123
 30
0.2716
 70
192
 0
VERTEX
 8
CYLINDER
 10
-0.1989
 20
-0.1123
 30
0.2716
 70
192
 0
VERTEX
 8
CYLINDER
 10
-0.2044
 20
-0.1149
 30
0.263
 70
192
 0
VERTEX
 8
CYLINDER
 10
-0.2044
 20
-0.1149
 30
0.263
 70
192
 0
VERTEX
 8
CYLINDER
 10
-0.2044
 20
-0.1149
 30
0.2716
 70
192
 0
VERTEX
 8
CYLINDER
 10
-0.2044
 20
-0.1149
 30
0.2716
 70
192
 0
VERTEX
 8
CYLINDER
 10
-0.2094
 20
-0.1184
 30
0.263
 70
192
 0
VERTEX
 8
CYLINDER
 10
-0.2094
 20
-0.1184
 30
0.263
 70
192
 0
VERTEX
 8
CYLINDER
 10
-0.2094
 20
-0.1184
 30
0.2716
 70
192
 0
VERTEX
 8
CYLINDER
 10
-0.2094
 20
-0.1184
 30
0.2716
 70
192
 0
VERTEX
 8
CYLINDER
 10
-0.2137
 20
-0.1227
 30
0.263
 70
192
 0
VERTEX
 8
CYLINDER
 10
-0.2137
 20
-0.1227
 30
0.263
 70
192
 0
VERTEX
 8
CYLINDER
 10
-0.2137
 20
-0.1227
 30
0.2716
 70
192
 0
VERTEX
 8
CYLINDER
 10
-0.2137
 20
-0.1227
 30
0.2716
 70
192
 0
VERTEX
 8
CYLINDER
 10
-0.2172
 20
-0.1277
 30
0.263
 70
192
 0
VERTEX
 8
CYLINDER
 10
-0.2172
 20
-0.1277
 30
0.263
 70
192
 0
VERTEX
 8
CYLINDER
 10
-0.2172
 20
-0.1277
 30
0.2716
 70
192
 0
VERTEX
 8
CYLINDER
 10
-0.2172
 20
-0.1277
 30
0.2716
 70
192
 0
VERTEX
 8
CYLINDER
 10
-0.2198
 20
-0.1332
 30
0.263
 70
192
 0
VERTEX
 8
CYLINDER
 10
-0.2198
 20
-0.1332
 30
0.263
 70
192
 0
VERTEX
 8
CYLINDER
 10
-0.2198
 20
-0.1332
 30
0.2716
 70
192
 0
VERTEX
 8
CYLINDER
 10
-0.2198
 20
-0.1332
 30
0.2716
 70
192
 0
VERTEX
 8
CYLINDER
 10
-0.2214
 20
-0.1391
 30
0.263
 70
192
 0
VERTEX
 8
CYLINDER
 10
-0.2214
 20
-0.1391
 30
0.263
 70
192
 0
VERTEX
 8
CYLINDER
 10
-0.2214
 20
-0.1391
 30
0.2716
 70
192
 0
VERTEX
 8
CYLINDER
 10
-0.2214
 20
-0.1391
 30
0.2716
 70
192
 0
VERTEX
 8
CYLINDER
 10
-0.2219
 20
-0.1451
 30
0.263
 70
192
 0
VERTEX
 8
CYLINDER
 10
-0.2219
 20
-0.1451
 30
0.263
 70
192
 0
VERTEX
 8
CYLINDER
 10
-0.2219
 20
-0.1451
 30
0.2716
 70
192
 0
VERTEX
 8
CYLINDER
 10
-0.2219
 20
-0.1451
 30
0.2716
 70
192
 0
VERTEX
 8
CYLINDER
 10
-0.2214
 20
-0.1512
 30
0.263
 70
192
 0
VERTEX
 8
CYLINDER
 10
-0.2214
 20
-0.1512
 30
0.263
 70
192
 0
VERTEX
 8
CYLINDER
 10
-0.2214
 20
-0.1512
 30
0.2716
 70
192
 0
VERTEX
 8
CYLINDER
 10
-0.2214
 20
-0.1512
 30
0.2716
 70
192
 0
VERTEX
 8
CYLINDER
 10
-0.2198
 20
-0.1571
 30
0.263
 70
192
 0
VERTEX
 8
CYLINDER
 10
-0.2198
 20
-0.1571
 30
0.263
 70
192
 0
VERTEX
 8
CYLINDER
 10
-0.2198
 20
-0.1571
 30
0.2716
 70
192
 0
VERTEX
 8
CYLINDER
 10
-0.2198
 20
-0.1571
 30
0.2716
 70
192
 0
VERTEX
 8
CYLINDER
 10
-0.2172
 20
-0.1626
 30
0.263
 70
192
 0
VERTEX
 8
CYLINDER
 10
-0.2172
 20
-0.1626
 30
0.263
 70
192
 0
VERTEX
 8
CYLINDER
 10
-0.2172
 20
-0.1626
 30
0.2716
 70
192
 0
VERTEX
 8
CYLINDER
 10
-0.2172
 20
-0.1626
 30
0.2716
 70
192
 0
VERTEX
 8
CYLINDER
 10
-0.2137
 20
-0.1676
 30
0.263
 70
192
 0
VERTEX
 8
CYLINDER
 10
-0.2137
 20
-0.1676
 30
0.263
 70
192
 0
VERTEX
 8
CYLINDER
 10
-0.2137
 20
-0.1676
 30
0.2716
 70
192
 0
VERTEX
 8
CYLINDER
 10
-0.2137
 20
-0.1676
 30
0.2716
 70
192
 0
VERTEX
 8
CYLINDER
 10
-0.2094
 20
-0.1719
 30
0.263
 70
192
 0
VERTEX
 8
CYLINDER
 10
-0.2094
 20
-0.1719
 30
0.263
 70
192
 0
VERTEX
 8
CYLINDER
 10
-0.2094
 20
-0.1719
 30
0.2716
 70
192
 0
VERTEX
 8
CYLINDER
 10
-0.2094
 20
-0.1719
 30
0.2716
 70
192
 0
VERTEX
 8
CYLINDER
 10
-0.2044
 20
-0.1754
 30
0.263
 70
192
 0
VERTEX
 8
CYLINDER
 10
-0.2044
 20
-0.1754
 30
0.263
 70
192
 0
VERTEX
 8
CYLINDER
 10
-0.2044
 20
-0.1754
 30
0.2716
 70
192
 0
VERTEX
 8
CYLINDER
 10
-0.2044
 20
-0.1754
 30
0.2716
 70
192
 0
VERTEX
 8
CYLINDER
 10
-0.1989
 20
-0.178
 30
0.263
 70
192
 0
VERTEX
 8
CYLINDER
 10
-0.1989
 20
-0.178
 30
0.263
 70
192
 0
VERTEX
 8
CYLINDER
 10
-0.1989
 20
-0.178
 30
0.2716
 70
192
 0
VERTEX
 8
CYLINDER
 10
-0.1989
 20
-0.178
 30
0.2716
 70
192
 0
VERTEX
 8
CYLINDER
 10
-0.193
 20
-0.1796
 30
0.263
 70
192
 0
VERTEX
 8
CYLINDER
 10
-0.193
 20
-0.1796
 30
0.263
 70
192
 0
VERTEX
 8
CYLINDER
 10
-0.193
 20
-0.1796
 30
0.2716
 70
192
 0
VERTEX
 8
CYLINDER
 10
-0.193
 20
-0.1796
 30
0.2716
 70
192
 0
VERTEX
 8
CYLINDER
 10
-0.187
 20
-0.1801
 30
0.263
 70
192
 0
VERTEX
 8
CYLINDER
 10
-0.187
 20
-0.1801
 30
0.263
 70
192
 0
VERTEX
 8
CYLINDER
 10
-0.187
 20
-0.1801
 30
0.2716
 70
192
 0
VERTEX
 8
CYLINDER
 10
-0.187
 20
-0.1801
 30
0.2716
 70
192
 0
VERTEX
 8
CYLINDER
 10
-0.1809
 20
-0.1796
 30
0.263
 70
192
 0
VERTEX
 8
CYLINDER
 10
-0.1809
 20
-0.1796
 30
0.263
 70
192
 0
VERTEX
 8
CYLINDER
 10
-0.1809
 20
-0.1796
 30
0.2716
 70
192
 0
VERTEX
 8
CYLINDER
 10
-0.1809
 20
-0.1796
 30
0.2716
 70
192
 0
VERTEX
 8
CYLINDER
 10
-0.175
 20
-0.178
 30
0.263
 70
192
 0
VERTEX
 8
CYLINDER
 10
-0.175
 20
-0.178
 30
0.263
 70
192
 0
VERTEX
 8
CYLINDER
 10
-0.175
 20
-0.178
 30
0.2716
 70
192
 0
VERTEX
 8
CYLINDER
 10
-0.175
 20
-0.178
 30
0.2716
 70
192
 0
VERTEX
 8
CYLINDER
 10
-0.1695
 20
-0.1754
 30
0.263
 70
192
 0
VERTEX
 8
CYLINDER
 10
-0.1695
 20
-0.1754
 30
0.263
 70
192
 0
VERTEX
 8
CYLINDER
 10
-0.1695
 20
-0.1754
 30
0.2716
 70
192
 0
VERTEX
 8
CYLINDER
 10
-0.1695
 20
-0.1754
 30
0.2716
 70
192
 0
VERTEX
 8
CYLINDER
 10
-0.1645
 20
-0.1719
 30
0.263
 70
192
 0
VERTEX
 8
CYLINDER
 10
-0.1645
 20
-0.1719
 30
0.263
 70
192
 0
VERTEX
 8
CYLINDER
 10
-0.1645
 20
-0.1719
 30
0.2716
 70
192
 0
VERTEX
 8
CYLINDER
 10
-0.1645
 20
-0.1719
 30
0.2716
 70
192
 0
VERTEX
 8
CYLINDER
 10
-0.1602
 20
-0.1676
 30
0.263
 70
192
 0
VERTEX
 8
CYLINDER
 10
-0.1602
 20
-0.1676
 30
0.263
 70
192
 0
VERTEX
 8
CYLINDER
 10
-0.1602
 20
-0.1676
 30
0.2716
 70
192
 0
VERTEX
 8
CYLINDER
 10
-0.1602
 20
-0.1676
 30
0.2716
 70
192
 0
VERTEX
 8
CYLINDER
 10
-0.1567
 20
-0.1626
 30
0.263
 70
192
 0
VERTEX
 8
CYLINDER
 10
-0.1567
 20
-0.1626
 30
0.263
 70
192
 0
VERTEX
 8
CYLINDER
 10
-0.1567
 20
-0.1626
 30
0.2716
 70
192
 0
VERTEX
 8
CYLINDER
 10
-0.1567
 20
-0.1626
 30
0.2716
 70
192
 0
VERTEX
 8
CYLINDER
 10
-0.1541
 20
-0.1571
 30
0.263
 70
192
 0
VERTEX
 8
CYLINDER
 10
-0.1541
 20
-0.1571
 30
0.263
 70
192
 0
VERTEX
 8
CYLINDER
 10
-0.1541
 20
-0.1571
 30
0.2716
 70
192
 0
VERTEX
 8
CYLINDER
 10
-0.1541
 20
-0.1571
 30
0.2716
 70
192
 0
VERTEX
 8
CYLINDER
 10
-0.1525
 20
-0.1512
 30
0.263
 70
192
 0
VERTEX
 8
CYLINDER
 10
-0.1525
 20
-0.1512
 30
0.263
 70
192
 0
VERTEX
 8
CYLINDER
 10
-0.1525
 20
-0.1512
 30
0.2716
 70
192
 0
VERTEX
 8
CYLINDER
 10
-0.1525
 20
-0.1512
 30
0.2716
 70
192
 0
VERTEX
 8
CYLINDER
 10
0
 20
0
 30
0
 70
128
 71
1
 72
3
 73
7
 74
7
 0
VERTEX
 8
CYLINDER
 10
0
 20
0
 30
0
 70
128
 71
4
 72
5
 73
9
 74
8
 0
VERTEX
 8
CYLINDER
 10
0
 20
0
 30
0
 70
128
 71
6
 72
2
 73
10
 74
10
 0
VERTEX
 8
CYLINDER
 10
0
 20
0
 30
0
 70
128
 71
1
 72
7
 73
11
 74
11
 0
VERTEX
 8
CYLINDER
 10
0
 20
0
 30
0
 70
128
 71
8
 72
9
 73
13
 74
12
 0
VERTEX
 8
CYLINDER
 10
0
 20
0
 30
0
 70
128
 71
10
 72
2
 73
14
 74
14
 0
VERTEX
 8
CYLINDER
 10
0
 20
0
 30
0
 70
128
 71
1
 72
11
 73
15
 74
15
 0
VERTEX
 8
CYLINDER
 10
0
 20
0
 30
0
 70
128
 71
12
 72
13
 73
17
 74
16
 0
VERTEX
 8
CYLINDER
 10
0
 20
0
 30
0
 70
128
 71
14
 72
2
 73
18
 74
18
 0
VERTEX
 8
CYLINDER
 10
0
 20
0
 30
0
 70
128
 71
1
 72
15
 73
19
 74
19
 0
VERTEX
 8
CYLINDER
 10
0
 20
0
 30
0
 70
128
 71
16
 72
17
 73
21
 74
20
 0
VERTEX
 8
CYLINDER
 10
0
 20
0
 30
0
 70
128
 71
18
 72
2
 73
22
 74
22
 0
VERTEX
 8
CYLINDER
 10
0
 20
0
 30
0
 70
128
 71
1
 72
19
 73
23
 74
23
 0
VERTEX
 8
CYLINDER
 10
0
 20
0
 30
0
 70
128
 71
20
 72
21
 73
25
 74
24
 0
VERTEX
 8
CYLINDER
 10
0
 20
0
 30
0
 70
128
 71
22
 72
2
 73
26
 74
26
 0
VERTEX
 8
CYLINDER
 10
0
 20
0
 30
0
 70
128
 71
1
 72
23
 73
27
 74
27
 0
VERTEX
 8
CYLINDER
 10
0
 20
0
 30
0
 70
128
 71
24
 72
25
 73
29
 74
28
 0
VERTEX
 8
CYLINDER
 10
0
 20
0
 30
0
 70
128
 71
26
 72
2
 73
30
 74
30
 0
VERTEX
 8
CYLINDER
 10
0
 20
0
 30
0
 70
128
 71
1
 72
27
 73
31
 74
31
 0
VERTEX
 8
CYLINDER
 10
0
 20
0
 30
0
 70
128
 71
28
 72
29
 73
33
 74
32
 0
VERTEX
 8
CYLINDER
 10
0
 20
0
 30
0
 70
128
 71
30
 72
2
 73
34
 74
34
 0
VERTEX
 8
CYLINDER
 10
0
 20
0
 30
0
 70
128
 71
1
 72
31
 73
35
 74
35
 0
VERTEX
 8
CYLINDER
 10
0
 20
0
 30
0
 70
128
 71
32
 72
33
 73
37
 74
36
 0
VERTEX
 8
CYLINDER
 10
0
 20
0
 30
0
 70
128
 71
34
 72
2
 73
38
 74
38
 0
VERTEX
 8
CYLINDER
 10
0
 20
0
 30
0
 70
128
 71
1
 72
35
 73
39
 74
39
 0
VERTEX
 8
CYLINDER
 10
0
 20
0
 30
0
 70
128
 71
36
 72
37
 73
41
 74
40
 0
VERTEX
 8
CYLINDER
 10
0
 20
0
 30
0
 70
128
 71
38
 72
2
 73
42
 74
42
 0
VERTEX
 8
CYLINDER
 10
0
 20
0
 30
0
 70
128
 71
1
 72
39
 73
43
 74
43
 0
VERTEX
 8
CYLINDER
 10
0
 20
0
 30
0
 70
128
 71
40
 72
41
 73
45
 74
44
 0
VERTEX
 8
CYLINDER
 10
0
 20
0
 30
0
 70
128
 71
42
 72
2
 73
46
 74
46
 0
VERTEX
 8
CYLINDER
 10
0
 20
0
 30
0
 70
128
 71
1
 72
43
 73
47
 74
47
 0
VERTEX
 8
CYLINDER
 10
0
 20
0
 30
0
 70
128
 71
44
 72
45
 73
49
 74
48
 0
VERTEX
 8
CYLINDER
 10
0
 20
0
 30
0
 70
128
 71
46
 72
2
 73
50
 74
50
 0
VERTEX
 8
CYLINDER
 10
0
 20
0
 30
0
 70
128
 71
1
 72
47
 73
51
 74
51
 0
VERTEX
 8
CYLINDER
 10
0
 20
0
 30
0
 70
128
 71
48
 72
49
 73
53
 74
52
 0
VERTEX
 8
CYLINDER
 10
0
 20
0
 30
0
 70
128
 71
50
 72
2
 73
54
 74
54
 0
VERTEX
 8
CYLINDER
 10
0
 20
0
 30
0
 70
128
 71
1
 72
51
 73
55
 74
55
 0
VERTEX
 8
CYLINDER
 10
0
 20
0
 30
0
 70
128
 71
52
 72
53
 73
57
 74
56
 0
VERTEX
 8
CYLINDER
 10
0
 20
0
 30
0
 70
128
 71
54
 72
2
 73
58
 74
58
 0
VERTEX
 8
CYLINDER
 10
0
 20
0
 30
0
 70
128
 71
1
 72
55
 73
59
 74
59
 0
VERTEX
 8
CYLINDER
 10
0
 20
0
 30
0
 70
128
 71
56
 72
57
 73
61
 74
60
 0
VERTEX
 8
CYLINDER
 10
0
 20
0
 30
0
 70
128
 71
58
 72
2
 73
62
 74
62
 0
VERTEX
 8
CYLINDER
 10
0
 20
0
 30
0
 70
128
 71
1
 72
59
 73
63
 74
63
 0
VERTEX
 8
CYLINDER
 10
0
 20
0
 30
0
 70
128
 71
60
 72
61
 73
65
 74
64
 0
VERTEX
 8
CYLINDER
 10
0
 20
0
 30
0
 70
128
 71
62
 72
2
 73
66
 74
66
 0
VERTEX
 8
CYLINDER
 10
0
 20
0
 30
0
 70
128
 71
1
 72
63
 73
67
 74
67
 0
VERTEX
 8
CYLINDER
 10
0
 20
0
 30
0
 70
128
 71
64
 72
65
 73
69
 74
68
 0
VERTEX
 8
CYLINDER
 10
0
 20
0
 30
0
 70
128
 71
66
 72
2
 73
70
 74
70
 0
VERTEX
 8
CYLINDER
 10
0
 20
0
 30
0
 70
128
 71
1
 72
67
 73
71
 74
71
 0
VERTEX
 8
CYLINDER
 10
0
 20
0
 30
0
 70
128
 71
68
 72
69
 73
73
 74
72
 0
VERTEX
 8
CYLINDER
 10
0
 20
0
 30
0
 70
128
 71
70
 72
2
 73
74
 74
74
 0
VERTEX
 8
CYLINDER
 10
0
 20
0
 30
0
 70
128
 71
1
 72
71
 73
75
 74
75
 0
VERTEX
 8
CYLINDER
 10
0
 20
0
 30
0
 70
128
 71
72
 72
73
 73
77
 74
76
 0
VERTEX
 8
CYLINDER
 10
0
 20
0
 30
0
 70
128
 71
74
 72
2
 73
78
 74
78
 0
VERTEX
 8
CYLINDER
 10
0
 20
0
 30
0
 70
128
 71
1
 72
75
 73
79
 74
79
 0
VERTEX
 8
CYLINDER
 10
0
 20
0
 30
0
 70
128
 71
76
 72
77
 73
81
 74
80
 0
VERTEX
 8
CYLINDER
 10
0
 20
0
 30
0
 70
128
 71
78
 72
2
 73
82
 74
82
 0
VERTEX
 8
CYLINDER
 10
0
 20
0
 30
0
 70
128
 71
1
 72
79
 73
83
 74
83
 0
VERTEX
 8
CYLINDER
 10
0
 20
0
 30
0
 70
128
 71
80
 72
81
 73
85
 74
84
 0
VERTEX
 8
CYLINDER
 10
0
 20
0
 30
0
 70
128
 71
82
 72
2
 73
86
 74
86
 0
VERTEX
 8
CYLINDER
 10
0
 20
0
 30
0
 70
128
 71
1
 72
83
 73
87
 74
87
 0
VERTEX
 8
CYLINDER
 10
0
 20
0
 30
0
 70
128
 71
84
 72
85
 73
89
 74
88
 0
VERTEX
 8
CYLINDER
 10
0
 20
0
 30
0
 70
128
 71
86
 72
2
 73
90
 74
90
 0
VERTEX
 8
CYLINDER
 10
0
 20
0
 30
0
 70
128
 71
1
 72
87
 73
91
 74
91
 0
VERTEX
 8
CYLINDER
 10
0
 20
0
 30
0
 70
128
 71
88
 72
89
 73
93
 74
92
 0
VERTEX
 8
CYLINDER
 10
0
 20
0
 30
0
 70
128
 71
90
 72
2
 73
94
 74
94
 0
VERTEX
 8
CYLINDER
 10
0
 20
0
 30
0
 70
128
 71
1
 72
91
 73
95
 74
95
 0
VERTEX
 8
CYLINDER
 10
0
 20
0
 30
0
 70
128
 71
92
 72
93
 73
97
 74
96
 0
VERTEX
 8
CYLINDER
 10
0
 20
0
 30
0
 70
128
 71
94
 72
2
 73
98
 74
98
 0
VERTEX
 8
CYLINDER
 10
0
 20
0
 30
0
 70
128
 71
1
 72
95
 73
99
 74
99
 0
VERTEX
 8
CYLINDER
 10
0
 20
0
 30
0
 70
128
 71
96
 72
97
 73
101
 74
100
 0
VERTEX
 8
CYLINDER
 10
0
 20
0
 30
0
 70
128
 71
98
 72
2
 73
102
 74
102
 0
VERTEX
 8
CYLINDER
 10
0
 20
0
 30
0
 70
128
 71
1
 72
99
 73
103
 74
103
 0
VERTEX
 8
CYLINDER
 10
0
 20
0
 30
0
 70
128
 71
100
 72
101
 73
105
 74
104
 0
VERTEX
 8
CYLINDER
 10
0
 20
0
 30
0
 70
128
 71
102
 72
2
 73
106
 74
106
 0
VERTEX
 8
CYLINDER
 10
0
 20
0
 30
0
 70
128
 71
1
 72
103
 73
107
 74
107
 0
VERTEX
 8
CYLINDER
 10
0
 20
0
 30
0
 70
128
 71
104
 72
105
 73
109
 74
108
 0
VERTEX
 8
CYLINDER
 10
0
 20
0
 30
0
 70
128
 71
106
 72
2
 73
110
 74
110
 0
VERTEX
 8
CYLINDER
 10
0
 20
0
 30
0
 70
128
 71
1
 72
107
 73
111
 74
111
 0
VERTEX
 8
CYLINDER
 10
0
 20
0
 30
0
 70
128
 71
108
 72
109
 73
113
 74
112
 0
VERTEX
 8
CYLINDER
 10
0
 20
0
 30
0
 70
128
 71
110
 72
2
 73
114
 74
114
 0
VERTEX
 8
CYLINDER
 10
0
 20
0
 30
0
 70
128
 71
1
 72
111
 73
115
 74
115
 0
VERTEX
 8
CYLINDER
 10
0
 20
0
 30
0
 70
128
 71
112
 72
113
 73
117
 74
116
 0
VERTEX
 8
CYLINDER
 10
0
 20
0
 30
0
 70
128
 71
114
 72
2
 73
118
 74
118
 0
VERTEX
 8
CYLINDER
 10
0
 20
0
 30
0
 70
128
 71
1
 72
115
 73
119
 74
119
 0
VERTEX
 8
CYLINDER
 10
0
 20
0
 30
0
 70
128
 71
116
 72
117
 73
121
 74
120
 0
VERTEX
 8
CYLINDER
 10
0
 20
0
 30
0
 70
128
 71
118
 72
2
 73
122
 74
122
 0
VERTEX
 8
CYLINDER
 10
0
 20
0
 30
0
 70
128
 71
1
 72
119
 73
123
 74
123
 0
VERTEX
 8
CYLINDER
 10
0
 20
0
 30
0
 70
128
 71
120
 72
121
 73
125
 74
124
 0
VERTEX
 8
CYLINDER
 10
0
 20
0
 30
0
 70
128
 71
122
 72
2
 73
126
 74
126
 0
VERTEX
 8
CYLINDER
 10
0
 20
0
 30
0
 70
128
 71
1
 72
123
 73
127
 74
127
 0
VERTEX
 8
CYLINDER
 10
0
 20
0
 30
0
 70
128
 71
124
 72
125
 73
129
 74
128
 0
VERTEX
 8
CYLINDER
 10
0
 20
0
 30
0
 70
128
 71
126
 72
2
 73
130
 74
130
 0
VERTEX
 8
CYLINDER
 10
0
 20
0
 30
0
 70
128
 71
1
 72
127
 73
131
 74
131
 0
VERTEX
 8
CYLINDER
 10
0
 20
0
 30
0
 70
128
 71
128
 72
129
 73
133
 74
132
 0
VERTEX
 8
CYLINDER
 10
0
 20
0
 30
0
 70
128
 71
130
 72
2
 73
134
 74
134
 0
VERTEX
 8
CYLINDER
 10
0
 20
0
 30
0
 70
128
 71
1
 72
131
 73
135
 74
135
 0
VERTEX
 8
CYLINDER
 10
0
 20
0
 30
0
 70
128
 71
132
 72
133
 73
137
 74
136
 0
VERTEX
 8
CYLINDER
 10
0
 20
0
 30
0
 70
128
 71
134
 72
2
 73
138
 74
138
 0
VERTEX
 8
CYLINDER
 10
0
 20
0
 30
0
 70
128
 71
1
 72
135
 73
139
 74
139
 0
VERTEX
 8
CYLINDER
 10
0
 20
0
 30
0
 70
128
 71
136
 72
137
 73
141
 74
140
 0
VERTEX
 8
CYLINDER
 10
0
 20
0
 30
0
 70
128
 71
138
 72
2
 73
142
 74
142
 0
VERTEX
 8
CYLINDER
 10
0
 20
0
 30
0
 70
128
 71
1
 72
139
 73
143
 74
143
 0
VERTEX
 8
CYLINDER
 10
0
 20
0
 30
0
 70
128
 71
140
 72
141
 73
145
 74
144
 0
VERTEX
 8
CYLINDER
 10
0
 20
0
 30
0
 70
128
 71
142
 72
2
 73
146
 74
146
 0
VERTEX
 8
CYLINDER
 10
0
 20
0
 30
0
 70
128
 71
1
 72
143
 73
3
 74
3
 0
VERTEX
 8
CYLINDER
 10
0
 20
0
 30
0
 70
128
 71
144
 72
145
 73
5
 74
4
 0
VERTEX
 8
CYLINDER
 10
0
 20
0
 30
0
 70
128
 71
146
 72
2
 73
6
 74
6
 0
SEQEND
 0
ENDSEC
 0
EOF
