 0
SECTION
 2
HEADER
 9
$ACADVER
 1
AC1009
 0
ENDSEC
 0
SECTION
 2
TABLES
 0
TABLE
 2
LTYPE
 70
1
 0
LTYPE
 2
CONTINUOUS
 70
64
 3
solid line
 72
65
 73
0
 40
0.0
 0
ENDTAB
 0
TABLE
 2
LAYER
 70
6
 0
LAYER
 2
0
 70
0
 62
7
 6
CONTINUOUS
 0
LAYER
 2
NULL_2
 70
64
 62
7
 6
CONTINUOUS
 0
LAYER
 2
EXTRUDE_1
 70
64
 62
250
 6
CONTINUOUS
 0
LAYER
 2
CAP_1
 70
64
 62
250
 6
CONTINUOUS
 0
LAYER
 2
CAP_2
 70
64
 62
250
 6
CONTINUOUS
 0
LAYER
 2
EXTRUDE
 70
64
 62
250
 6
CONTINUOUS
 0
LAYER
 2
CAP_1_1
 70
64
 62
250
 6
CONTINUOUS
 0
LAYER
 2
CAP_2_1
 70
64
 62
250
 6
CONTINUOUS
 0
LAYER
 2
NULL_1
 70
64
 62
7
 6
CONTINUOUS
 0
LAYER
 2
EXTRUDE_1_1
 70
64
 62
250
 6
CONTINUOUS
 0
LAYER
 2
CAP_1_2
 70
64
 62
250
 6
CONTINUOUS
 0
LAYER
 2
CAP_2_2
 70
64
 62
250
 6
CONTINUOUS
 0
LAYER
 2
EXTRUDE_2
 70
64
 62
250
 6
CONTINUOUS
 0
LAYER
 2
CAP_1_3
 70
64
 62
250
 6
CONTINUOUS
 0
LAYER
 2
CAP_2_3
 70
64
 62
250
 6
CONTINUOUS
 0
LAYER
 2
NULL
 70
64
 62
7
 6
CONTINUOUS
 0
LAYER
 2
EXTRUDE_1_2
 70
64
 62
250
 6
CONTINUOUS
 0
LAYER
 2
CAP_1_4
 70
64
 62
250
 6
CONTINUOUS
 0
LAYER
 2
CAP_2_4
 70
64
 62
250
 6
CONTINUOUS
 0
LAYER
 2
EXTRUDE_3
 70
64
 62
250
 6
CONTINUOUS
 0
LAYER
 2
CAP_1_5
 70
64
 62
250
 6
CONTINUOUS
 0
LAYER
 2
CAP_2_5
 70
64
 62
250
 6
CONTINUOUS
 0
LAYER
 2
CYLINDER_1
 70
64
 62
35
 6
CONTINUOUS
 0
LAYER
 2
CYLINDER
 70
64
 62
250
 6
CONTINUOUS
 0
ENDTAB
 0
ENDSEC
 0
SECTION
 2
BLOCKS
 0
ENDSEC
 0
SECTION
 2
ENTITIES
 0
POLYLINE
 8
EXTRUDE_1
 66
1
 10
0.0
 20
0.0
 30
0.0
 70
64
 71
74
 72
37
 0
VERTEX
 8
EXTRUDE_1
 10
-0.0252
 20
0.1735
 30
0.2167
 70
192
 0
VERTEX
 8
EXTRUDE_1
 10
-0.0252
 20
0.1743
 30
0.2077
 70
192
 0
VERTEX
 8
EXTRUDE_1
 10
-0.0252
 20
0.1742
 30
0.1807
 70
192
 0
VERTEX
 8
EXTRUDE_1
 10
-0.0252
 20
0.1699
 30
0.1355
 70
192
 0
VERTEX
 8
EXTRUDE_1
 10
-0.0253
 20
0.1578
 30
0.0716
 70
192
 0
VERTEX
 8
EXTRUDE_1
 10
-0.0253
 20
0.1302
 30
-0.0243
 70
192
 0
VERTEX
 8
EXTRUDE_1
 10
-0.0255
 20
0.09
 30
-0.1287
 70
192
 0
VERTEX
 8
EXTRUDE_1
 10
-0.0256
 20
0.0313
 30
-0.2524
 70
192
 0
VERTEX
 8
EXTRUDE_1
 10
-0.0257
 20
0.0151
 30
-0.253
 70
192
 0
VERTEX
 8
EXTRUDE_1
 10
-0.0257
 20
-0.0011
 30
-0.2536
 70
192
 0
VERTEX
 8
EXTRUDE_1
 10
-0.0256
 20
0.0551
 30
-0.1326
 70
192
 0
VERTEX
 8
EXTRUDE_1
 10
-0.0254
 20
0.1061
 30
0.0063
 70
192
 0
VERTEX
 8
EXTRUDE_1
 10
-0.0253
 20
0.1293
 30
0.0949
 70
192
 0
VERTEX
 8
EXTRUDE_1
 10
-0.0253
 20
0.1395
 30
0.1574
 70
192
 0
VERTEX
 8
EXTRUDE_1
 10
-0.0253
 20
0.1416
 30
0.1816
 70
192
 0
VERTEX
 8
EXTRUDE_1
 10
-0.0253
 20
0.1423
 30
0.2167
 70
192
 0
VERTEX
 8
EXTRUDE_1
 10
-0.0253
 20
0.1579
 30
0.2167
 70
192
 0
VERTEX
 8
EXTRUDE_1
 10
-0.0257
 20
0.0189
 30
0.2107
 70
192
 0
VERTEX
 8
EXTRUDE_1
 10
-0.0258
 20
-0.0125
 30
0.2107
 70
192
 0
VERTEX
 8
EXTRUDE_1
 10
-0.0258
 20
-0.0126
 30
0.2052
 70
192
 0
VERTEX
 8
EXTRUDE_1
 10
-0.0258
 20
-0.0112
 30
0.1841
 70
192
 0
VERTEX
 8
EXTRUDE_1
 10
-0.0257
 20
-0.0041
 30
0.1385
 70
192
 0
VERTEX
 8
EXTRUDE_1
 10
-0.0257
 20
0.0164
 30
0.057
 70
192
 0
VERTEX
 8
EXTRUDE_1
 10
-0.0255
 20
0.062
 30
-0.0752
 70
192
 0
VERTEX
 8
EXTRUDE_1
 10
-0.0253
 20
0.1401
 30
-0.2559
 70
192
 0
VERTEX
 8
EXTRUDE_1
 10
-0.0252
 20
0.1788
 30
-0.2571
 70
192
 0
VERTEX
 8
EXTRUDE_1
 10
-0.0254
 20
0.1248
 30
-0.1516
 70
192
 0
VERTEX
 8
EXTRUDE_1
 10
-0.0255
 20
0.0723
 30
-0.0253
 70
192
 0
VERTEX
 8
EXTRUDE_1
 10
-0.0256
 20
0.0419
 30
0.0714
 70
192
 0
VERTEX
 8
EXTRUDE_1
 10
-0.0256
 20
0.0305
 30
0.1209
 70
192
 0
VERTEX
 8
EXTRUDE_1
 10
-0.0257
 20
0.0213
 30
0.1823
 70
192
 0
VERTEX
 8
EXTRUDE_1
 10
-0.0257
 20
0.0212
 30
0.1823
 70
192
 0
VERTEX
 8
EXTRUDE_1
 10
-0.0257
 20
0.0212
 30
0.1825
 70
192
 0
VERTEX
 8
EXTRUDE_1
 10
-0.0257
 20
0.0211
 30
0.1827
 70
192
 0
VERTEX
 8
EXTRUDE_1
 10
-0.0257
 20
0.0209
 30
0.1832
 70
192
 0
VERTEX
 8
EXTRUDE_1
 10
-0.0257
 20
0.0205
 30
0.1855
 70
192
 0
VERTEX
 8
EXTRUDE_1
 10
-0.0257
 20
0.0193
 30
0.2009
 70
192
 0
VERTEX
 8
EXTRUDE_1
 10
0.0048
 20
0.1734
 30
0.2167
 70
192
 0
VERTEX
 8
EXTRUDE_1
 10
0.0048
 20
0.1742
 30
0.2077
 70
192
 0
VERTEX
 8
EXTRUDE_1
 10
0.0048
 20
0.1741
 30
0.1807
 70
192
 0
VERTEX
 8
EXTRUDE_1
 10
0.0048
 20
0.1698
 30
0.1355
 70
192
 0
VERTEX
 8
EXTRUDE_1
 10
0.0047
 20
0.1577
 30
0.0716
 70
192
 0
VERTEX
 8
EXTRUDE_1
 10
0.0047
 20
0.1301
 30
-0.0243
 70
192
 0
VERTEX
 8
EXTRUDE_1
 10
0.0045
 20
0.0899
 30
-0.1287
 70
192
 0
VERTEX
 8
EXTRUDE_1
 10
0.0044
 20
0.0312
 30
-0.2524
 70
192
 0
VERTEX
 8
EXTRUDE_1
 10
0.0043
 20
0.015
 30
-0.253
 70
192
 0
VERTEX
 8
EXTRUDE_1
 10
0.0043
 20
-0.0012
 30
-0.2536
 70
192
 0
VERTEX
 8
EXTRUDE_1
 10
0.0044
 20
0.055
 30
-0.1326
 70
192
 0
VERTEX
 8
EXTRUDE_1
 10
0.0046
 20
0.106
 30
0.0063
 70
192
 0
VERTEX
 8
EXTRUDE_1
 10
0.0047
 20
0.1292
 30
0.0949
 70
192
 0
VERTEX
 8
EXTRUDE_1
 10
0.0047
 20
0.1394
 30
0.1574
 70
192
 0
VERTEX
 8
EXTRUDE_1
 10
0.0047
 20
0.1415
 30
0.1816
 70
192
 0
VERTEX
 8
EXTRUDE_1
 10
0.0047
 20
0.1422
 30
0.2167
 70
192
 0
VERTEX
 8
EXTRUDE_1
 10
0.0047
 20
0.1578
 30
0.2167
 70
192
 0
VERTEX
 8
EXTRUDE_1
 10
0.0043
 20
0.0188
 30
0.2107
 70
192
 0
VERTEX
 8
EXTRUDE_1
 10
0.0042
 20
-0.0126
 30
0.2107
 70
192
 0
VERTEX
 8
EXTRUDE_1
 10
0.0042
 20
-0.0127
 30
0.2052
 70
192
 0
VERTEX
 8
EXTRUDE_1
 10
0.0042
 20
-0.0113
 30
0.1841
 70
192
 0
VERTEX
 8
EXTRUDE_1
 10
0.0043
 20
-0.0042
 30
0.1385
 70
192
 0
VERTEX
 8
EXTRUDE_1
 10
0.0043
 20
0.0163
 30
0.057
 70
192
 0
VERTEX
 8
EXTRUDE_1
 10
0.0045
 20
0.0619
 30
-0.0752
 70
192
 0
VERTEX
 8
EXTRUDE_1
 10
0.0047
 20
0.14
 30
-0.2559
 70
192
 0
VERTEX
 8
EXTRUDE_1
 10
0.0048
 20
0.1787
 30
-0.2571
 70
192
 0
VERTEX
 8
EXTRUDE_1
 10
0.0046
 20
0.1247
 30
-0.1516
 70
192
 0
VERTEX
 8
EXTRUDE_1
 10
0.0045
 20
0.0722
 30
-0.0253
 70
192
 0
VERTEX
 8
EXTRUDE_1
 10
0.0044
 20
0.0418
 30
0.0714
 70
192
 0
VERTEX
 8
EXTRUDE_1
 10
0.0044
 20
0.0304
 30
0.1209
 70
192
 0
VERTEX
 8
EXTRUDE_1
 10
0.0043
 20
0.0212
 30
0.1823
 70
192
 0
VERTEX
 8
EXTRUDE_1
 10
0.0043
 20
0.0211
 30
0.1823
 70
192
 0
VERTEX
 8
EXTRUDE_1
 10
0.0043
 20
0.0211
 30
0.1825
 70
192
 0
VERTEX
 8
EXTRUDE_1
 10
0.0043
 20
0.021
 30
0.1827
 70
192
 0
VERTEX
 8
EXTRUDE_1
 10
0.0043
 20
0.0208
 30
0.1832
 70
192
 0
VERTEX
 8
EXTRUDE_1
 10
0.0043
 20
0.0205
 30
0.1855
 70
192
 0
VERTEX
 8
EXTRUDE_1
 10
0.0043
 20
0.0192
 30
0.2009
 70
192
 0
VERTEX
 8
EXTRUDE_1
 10
0
 20
0
 30
0
 70
128
 71
1
 72
2
 73
39
 74
38
 0
VERTEX
 8
EXTRUDE_1
 10
0
 20
0
 30
0
 70
128
 71
2
 72
3
 73
40
 74
39
 0
VERTEX
 8
EXTRUDE_1
 10
0
 20
0
 30
0
 70
128
 71
3
 72
4
 73
41
 74
40
 0
VERTEX
 8
EXTRUDE_1
 10
0
 20
0
 30
0
 70
128
 71
4
 72
5
 73
42
 74
41
 0
VERTEX
 8
EXTRUDE_1
 10
0
 20
0
 30
0
 70
128
 71
5
 72
6
 73
43
 74
42
 0
VERTEX
 8
EXTRUDE_1
 10
0
 20
0
 30
0
 70
128
 71
6
 72
7
 73
44
 74
43
 0
VERTEX
 8
EXTRUDE_1
 10
0
 20
0
 30
0
 70
128
 71
7
 72
8
 73
45
 74
44
 0
VERTEX
 8
EXTRUDE_1
 10
0
 20
0
 30
0
 70
128
 71
8
 72
9
 73
46
 74
45
 0
VERTEX
 8
EXTRUDE_1
 10
0
 20
0
 30
0
 70
128
 71
9
 72
10
 73
47
 74
46
 0
VERTEX
 8
EXTRUDE_1
 10
0
 20
0
 30
0
 70
128
 71
10
 72
11
 73
48
 74
47
 0
VERTEX
 8
EXTRUDE_1
 10
0
 20
0
 30
0
 70
128
 71
11
 72
12
 73
49
 74
48
 0
VERTEX
 8
EXTRUDE_1
 10
0
 20
0
 30
0
 70
128
 71
12
 72
13
 73
50
 74
49
 0
VERTEX
 8
EXTRUDE_1
 10
0
 20
0
 30
0
 70
128
 71
13
 72
14
 73
51
 74
50
 0
VERTEX
 8
EXTRUDE_1
 10
0
 20
0
 30
0
 70
128
 71
14
 72
15
 73
52
 74
51
 0
VERTEX
 8
EXTRUDE_1
 10
0
 20
0
 30
0
 70
128
 71
15
 72
16
 73
53
 74
52
 0
VERTEX
 8
EXTRUDE_1
 10
0
 20
0
 30
0
 70
128
 71
16
 72
17
 73
54
 74
53
 0
VERTEX
 8
EXTRUDE_1
 10
0
 20
0
 30
0
 70
128
 71
17
 72
1
 73
38
 74
54
 0
VERTEX
 8
EXTRUDE_1
 10
0
 20
0
 30
0
 70
128
 71
18
 72
55
 73
56
 74
19
 0
VERTEX
 8
EXTRUDE_1
 10
0
 20
0
 30
0
 70
128
 71
19
 72
56
 73
57
 74
20
 0
VERTEX
 8
EXTRUDE_1
 10
0
 20
0
 30
0
 70
128
 71
20
 72
57
 73
58
 74
21
 0
VERTEX
 8
EXTRUDE_1
 10
0
 20
0
 30
0
 70
128
 71
21
 72
58
 73
59
 74
22
 0
VERTEX
 8
EXTRUDE_1
 10
0
 20
0
 30
0
 70
128
 71
22
 72
59
 73
60
 74
23
 0
VERTEX
 8
EXTRUDE_1
 10
0
 20
0
 30
0
 70
128
 71
23
 72
60
 73
61
 74
24
 0
VERTEX
 8
EXTRUDE_1
 10
0
 20
0
 30
0
 70
128
 71
24
 72
61
 73
62
 74
25
 0
VERTEX
 8
EXTRUDE_1
 10
0
 20
0
 30
0
 70
128
 71
25
 72
62
 73
63
 74
26
 0
VERTEX
 8
EXTRUDE_1
 10
0
 20
0
 30
0
 70
128
 71
26
 72
63
 73
64
 74
27
 0
VERTEX
 8
EXTRUDE_1
 10
0
 20
0
 30
0
 70
128
 71
27
 72
64
 73
65
 74
28
 0
VERTEX
 8
EXTRUDE_1
 10
0
 20
0
 30
0
 70
128
 71
28
 72
65
 73
66
 74
29
 0
VERTEX
 8
EXTRUDE_1
 10
0
 20
0
 30
0
 70
128
 71
29
 72
66
 73
67
 74
30
 0
VERTEX
 8
EXTRUDE_1
 10
0
 20
0
 30
0
 70
128
 71
30
 72
67
 73
68
 74
31
 0
VERTEX
 8
EXTRUDE_1
 10
0
 20
0
 30
0
 70
128
 71
31
 72
68
 73
69
 74
32
 0
VERTEX
 8
EXTRUDE_1
 10
0
 20
0
 30
0
 70
128
 71
32
 72
69
 73
70
 74
33
 0
VERTEX
 8
EXTRUDE_1
 10
0
 20
0
 30
0
 70
128
 71
33
 72
70
 73
71
 74
34
 0
VERTEX
 8
EXTRUDE_1
 10
0
 20
0
 30
0
 70
128
 71
34
 72
71
 73
72
 74
35
 0
VERTEX
 8
EXTRUDE_1
 10
0
 20
0
 30
0
 70
128
 71
35
 72
72
 73
73
 74
36
 0
VERTEX
 8
EXTRUDE_1
 10
0
 20
0
 30
0
 70
128
 71
36
 72
73
 73
74
 74
37
 0
VERTEX
 8
EXTRUDE_1
 10
0
 20
0
 30
0
 70
128
 71
37
 72
74
 73
55
 74
18
 0
SEQEND
 0
POLYLINE
 8
CAP_1
 66
1
 10
0.0
 20
0.0
 30
0.0
 70
64
 71
37
 72
21
 0
VERTEX
 8
CAP_1
 10
-0.0252
 20
0.1735
 30
0.2167
 70
192
 0
VERTEX
 8
CAP_1
 10
-0.0252
 20
0.1743
 30
0.2077
 70
192
 0
VERTEX
 8
CAP_1
 10
-0.0252
 20
0.1742
 30
0.1807
 70
192
 0
VERTEX
 8
CAP_1
 10
-0.0252
 20
0.1699
 30
0.1355
 70
192
 0
VERTEX
 8
CAP_1
 10
-0.0253
 20
0.1578
 30
0.0716
 70
192
 0
VERTEX
 8
CAP_1
 10
-0.0253
 20
0.1302
 30
-0.0243
 70
192
 0
VERTEX
 8
CAP_1
 10
-0.0255
 20
0.09
 30
-0.1287
 70
192
 0
VERTEX
 8
CAP_1
 10
-0.0256
 20
0.0313
 30
-0.2524
 70
192
 0
VERTEX
 8
CAP_1
 10
-0.0257
 20
0.0151
 30
-0.253
 70
192
 0
VERTEX
 8
CAP_1
 10
-0.0257
 20
-0.0011
 30
-0.2536
 70
192
 0
VERTEX
 8
CAP_1
 10
-0.0256
 20
0.0551
 30
-0.1326
 70
192
 0
VERTEX
 8
CAP_1
 10
-0.0254
 20
0.1061
 30
0.0063
 70
192
 0
VERTEX
 8
CAP_1
 10
-0.0253
 20
0.1293
 30
0.0949
 70
192
 0
VERTEX
 8
CAP_1
 10
-0.0253
 20
0.1395
 30
0.1574
 70
192
 0
VERTEX
 8
CAP_1
 10
-0.0253
 20
0.1416
 30
0.1816
 70
192
 0
VERTEX
 8
CAP_1
 10
-0.0253
 20
0.1423
 30
0.2167
 70
192
 0
VERTEX
 8
CAP_1
 10
-0.0253
 20
0.1579
 30
0.2167
 70
192
 0
VERTEX
 8
CAP_1
 10
-0.0257
 20
0.0189
 30
0.2107
 70
192
 0
VERTEX
 8
CAP_1
 10
-0.0258
 20
-0.0125
 30
0.2107
 70
192
 0
VERTEX
 8
CAP_1
 10
-0.0258
 20
-0.0126
 30
0.2052
 70
192
 0
VERTEX
 8
CAP_1
 10
-0.0258
 20
-0.0112
 30
0.1841
 70
192
 0
VERTEX
 8
CAP_1
 10
-0.0257
 20
-0.0041
 30
0.1385
 70
192
 0
VERTEX
 8
CAP_1
 10
-0.0257
 20
0.0164
 30
0.057
 70
192
 0
VERTEX
 8
CAP_1
 10
-0.0255
 20
0.062
 30
-0.0752
 70
192
 0
VERTEX
 8
CAP_1
 10
-0.0253
 20
0.1401
 30
-0.2559
 70
192
 0
VERTEX
 8
CAP_1
 10
-0.0252
 20
0.1788
 30
-0.2571
 70
192
 0
VERTEX
 8
CAP_1
 10
-0.0254
 20
0.1248
 30
-0.1516
 70
192
 0
VERTEX
 8
CAP_1
 10
-0.0255
 20
0.0723
 30
-0.0253
 70
192
 0
VERTEX
 8
CAP_1
 10
-0.0256
 20
0.0419
 30
0.0714
 70
192
 0
VERTEX
 8
CAP_1
 10
-0.0256
 20
0.0305
 30
0.1209
 70
192
 0
VERTEX
 8
CAP_1
 10
-0.0257
 20
0.0213
 30
0.1823
 70
192
 0
VERTEX
 8
CAP_1
 10
-0.0257
 20
0.0212
 30
0.1823
 70
192
 0
VERTEX
 8
CAP_1
 10
-0.0257
 20
0.0212
 30
0.1825
 70
192
 0
VERTEX
 8
CAP_1
 10
-0.0257
 20
0.0211
 30
0.1827
 70
192
 0
VERTEX
 8
CAP_1
 10
-0.0257
 20
0.0209
 30
0.1832
 70
192
 0
VERTEX
 8
CAP_1
 10
-0.0257
 20
0.0205
 30
0.1855
 70
192
 0
VERTEX
 8
CAP_1
 10
-0.0257
 20
0.0193
 30
0.2009
 70
192
 0
VERTEX
 8
CAP_1
 10
0
 20
0
 30
0
 70
128
 71
17
 72
16
 73
15
 74
15
 0
VERTEX
 8
CAP_1
 10
0
 20
0
 30
0
 70
128
 71
2
 72
17
 73
15
 74
3
 0
VERTEX
 8
CAP_1
 10
0
 20
0
 30
0
 70
128
 71
17
 72
2
 73
1
 74
1
 0
VERTEX
 8
CAP_1
 10
0
 20
0
 30
0
 70
128
 71
3
 72
15
 73
14
 74
4
 0
VERTEX
 8
CAP_1
 10
0
 20
0
 30
0
 70
128
 71
4
 72
14
 73
13
 74
5
 0
VERTEX
 8
CAP_1
 10
0
 20
0
 30
0
 70
128
 71
5
 72
13
 73
12
 74
6
 0
VERTEX
 8
CAP_1
 10
0
 20
0
 30
0
 70
128
 71
6
 72
12
 73
11
 74
7
 0
VERTEX
 8
CAP_1
 10
0
 20
0
 30
0
 70
128
 71
11
 72
10
 73
9
 74
9
 0
VERTEX
 8
CAP_1
 10
0
 20
0
 30
0
 70
128
 71
11
 72
9
 73
8
 74
7
 0
VERTEX
 8
CAP_1
 10
0
 20
0
 30
0
 70
128
 71
18
 72
19
 73
20
 74
37
 0
VERTEX
 8
CAP_1
 10
0
 20
0
 30
0
 70
128
 71
37
 72
20
 73
21
 74
36
 0
VERTEX
 8
CAP_1
 10
0
 20
0
 30
0
 70
128
 71
31
 72
21
 73
22
 74
30
 0
VERTEX
 8
CAP_1
 10
0
 20
0
 30
0
 70
128
 71
21
 72
31
 73
32
 74
32
 0
VERTEX
 8
CAP_1
 10
0
 20
0
 30
0
 70
128
 71
21
 72
32
 73
33
 74
33
 0
VERTEX
 8
CAP_1
 10
0
 20
0
 30
0
 70
128
 71
21
 72
33
 73
34
 74
34
 0
VERTEX
 8
CAP_1
 10
0
 20
0
 30
0
 70
128
 71
21
 72
34
 73
35
 74
35
 0
VERTEX
 8
CAP_1
 10
0
 20
0
 30
0
 70
128
 71
21
 72
35
 73
36
 74
36
 0
VERTEX
 8
CAP_1
 10
0
 20
0
 30
0
 70
128
 71
30
 72
22
 73
23
 74
29
 0
VERTEX
 8
CAP_1
 10
0
 20
0
 30
0
 70
128
 71
23
 72
24
 73
28
 74
29
 0
VERTEX
 8
CAP_1
 10
0
 20
0
 30
0
 70
128
 71
27
 72
24
 73
25
 74
26
 0
VERTEX
 8
CAP_1
 10
0
 20
0
 30
0
 70
128
 71
24
 72
27
 73
28
 74
28
 0
SEQEND
 0
POLYLINE
 8
CAP_2
 66
1
 10
0.0
 20
0.0
 30
0.0
 70
64
 71
37
 72
21
 0
VERTEX
 8
CAP_2
 10
0.0048
 20
0.1734
 30
0.2167
 70
192
 0
VERTEX
 8
CAP_2
 10
0.0048
 20
0.1742
 30
0.2077
 70
192
 0
VERTEX
 8
CAP_2
 10
0.0048
 20
0.1741
 30
0.1807
 70
192
 0
VERTEX
 8
CAP_2
 10
0.0048
 20
0.1698
 30
0.1355
 70
192
 0
VERTEX
 8
CAP_2
 10
0.0047
 20
0.1577
 30
0.0716
 70
192
 0
VERTEX
 8
CAP_2
 10
0.0047
 20
0.1301
 30
-0.0243
 70
192
 0
VERTEX
 8
CAP_2
 10
0.0045
 20
0.0899
 30
-0.1287
 70
192
 0
VERTEX
 8
CAP_2
 10
0.0044
 20
0.0312
 30
-0.2524
 70
192
 0
VERTEX
 8
CAP_2
 10
0.0043
 20
0.015
 30
-0.253
 70
192
 0
VERTEX
 8
CAP_2
 10
0.0043
 20
-0.0012
 30
-0.2536
 70
192
 0
VERTEX
 8
CAP_2
 10
0.0044
 20
0.055
 30
-0.1326
 70
192
 0
VERTEX
 8
CAP_2
 10
0.0046
 20
0.106
 30
0.0063
 70
192
 0
VERTEX
 8
CAP_2
 10
0.0047
 20
0.1292
 30
0.0949
 70
192
 0
VERTEX
 8
CAP_2
 10
0.0047
 20
0.1394
 30
0.1574
 70
192
 0
VERTEX
 8
CAP_2
 10
0.0047
 20
0.1415
 30
0.1816
 70
192
 0
VERTEX
 8
CAP_2
 10
0.0047
 20
0.1422
 30
0.2167
 70
192
 0
VERTEX
 8
CAP_2
 10
0.0047
 20
0.1578
 30
0.2167
 70
192
 0
VERTEX
 8
CAP_2
 10
0.0043
 20
0.0188
 30
0.2107
 70
192
 0
VERTEX
 8
CAP_2
 10
0.0042
 20
-0.0126
 30
0.2107
 70
192
 0
VERTEX
 8
CAP_2
 10
0.0042
 20
-0.0127
 30
0.2052
 70
192
 0
VERTEX
 8
CAP_2
 10
0.0042
 20
-0.0113
 30
0.1841
 70
192
 0
VERTEX
 8
CAP_2
 10
0.0043
 20
-0.0042
 30
0.1385
 70
192
 0
VERTEX
 8
CAP_2
 10
0.0043
 20
0.0163
 30
0.057
 70
192
 0
VERTEX
 8
CAP_2
 10
0.0045
 20
0.0619
 30
-0.0752
 70
192
 0
VERTEX
 8
CAP_2
 10
0.0047
 20
0.14
 30
-0.2559
 70
192
 0
VERTEX
 8
CAP_2
 10
0.0048
 20
0.1787
 30
-0.2571
 70
192
 0
VERTEX
 8
CAP_2
 10
0.0046
 20
0.1247
 30
-0.1516
 70
192
 0
VERTEX
 8
CAP_2
 10
0.0045
 20
0.0722
 30
-0.0253
 70
192
 0
VERTEX
 8
CAP_2
 10
0.0044
 20
0.0418
 30
0.0714
 70
192
 0
VERTEX
 8
CAP_2
 10
0.0044
 20
0.0304
 30
0.1209
 70
192
 0
VERTEX
 8
CAP_2
 10
0.0043
 20
0.0212
 30
0.1823
 70
192
 0
VERTEX
 8
CAP_2
 10
0.0043
 20
0.0211
 30
0.1823
 70
192
 0
VERTEX
 8
CAP_2
 10
0.0043
 20
0.0211
 30
0.1825
 70
192
 0
VERTEX
 8
CAP_2
 10
0.0043
 20
0.021
 30
0.1827
 70
192
 0
VERTEX
 8
CAP_2
 10
0.0043
 20
0.0208
 30
0.1832
 70
192
 0
VERTEX
 8
CAP_2
 10
0.0043
 20
0.0205
 30
0.1855
 70
192
 0
VERTEX
 8
CAP_2
 10
0.0043
 20
0.0192
 30
0.2009
 70
192
 0
VERTEX
 8
CAP_2
 10
0
 20
0
 30
0
 70
128
 71
1
 72
2
 73
17
 74
17
 0
VERTEX
 8
CAP_2
 10
0
 20
0
 30
0
 70
128
 71
2
 72
3
 73
15
 74
17
 0
VERTEX
 8
CAP_2
 10
0
 20
0
 30
0
 70
128
 71
3
 72
4
 73
14
 74
15
 0
VERTEX
 8
CAP_2
 10
0
 20
0
 30
0
 70
128
 71
4
 72
5
 73
13
 74
14
 0
VERTEX
 8
CAP_2
 10
0
 20
0
 30
0
 70
128
 71
5
 72
6
 73
12
 74
13
 0
VERTEX
 8
CAP_2
 10
0
 20
0
 30
0
 70
128
 71
6
 72
7
 73
11
 74
12
 0
VERTEX
 8
CAP_2
 10
0
 20
0
 30
0
 70
128
 71
11
 72
7
 73
8
 74
9
 0
VERTEX
 8
CAP_2
 10
0
 20
0
 30
0
 70
128
 71
9
 72
10
 73
11
 74
11
 0
VERTEX
 8
CAP_2
 10
0
 20
0
 30
0
 70
128
 71
15
 72
16
 73
17
 74
17
 0
VERTEX
 8
CAP_2
 10
0
 20
0
 30
0
 70
128
 71
21
 72
20
 73
37
 74
36
 0
VERTEX
 8
CAP_2
 10
0
 20
0
 30
0
 70
128
 71
18
 72
37
 73
20
 74
19
 0
VERTEX
 8
CAP_2
 10
0
 20
0
 30
0
 70
128
 71
36
 72
35
 73
21
 74
21
 0
VERTEX
 8
CAP_2
 10
0
 20
0
 30
0
 70
128
 71
35
 72
34
 73
21
 74
21
 0
VERTEX
 8
CAP_2
 10
0
 20
0
 30
0
 70
128
 71
34
 72
33
 73
21
 74
21
 0
VERTEX
 8
CAP_2
 10
0
 20
0
 30
0
 70
128
 71
33
 72
32
 73
21
 74
21
 0
VERTEX
 8
CAP_2
 10
0
 20
0
 30
0
 70
128
 71
32
 72
31
 73
21
 74
21
 0
VERTEX
 8
CAP_2
 10
0
 20
0
 30
0
 70
128
 71
22
 72
21
 73
31
 74
30
 0
VERTEX
 8
CAP_2
 10
0
 20
0
 30
0
 70
128
 71
23
 72
22
 73
30
 74
29
 0
VERTEX
 8
CAP_2
 10
0
 20
0
 30
0
 70
128
 71
23
 72
29
 73
28
 74
24
 0
VERTEX
 8
CAP_2
 10
0
 20
0
 30
0
 70
128
 71
28
 72
27
 73
24
 74
24
 0
VERTEX
 8
CAP_2
 10
0
 20
0
 30
0
 70
128
 71
27
 72
26
 73
25
 74
24
 0
SEQEND
 0
POLYLINE
 8
EXTRUDE
 66
1
 10
0.0
 20
0.0
 30
0.0
 70
64
 71
50
 72
25
 0
VERTEX
 8
EXTRUDE
 10
-0.0257
 20
-0.0009
 30
-0.2512
 70
192
 0
VERTEX
 8
EXTRUDE
 10
-0.0252
 20
0.1788
 30
-0.2563
 70
192
 0
VERTEX
 8
EXTRUDE
 10
-0.0252
 20
0.1788
 30
-0.2955
 70
192
 0
VERTEX
 8
EXTRUDE
 10
-0.0252
 20
0.1703
 30
-0.3019
 70
192
 0
VERTEX
 8
EXTRUDE
 10
-0.0253
 20
0.1299
 30
-0.3012
 70
192
 0
VERTEX
 8
EXTRUDE
 10
-0.0253
 20
0.1278
 30
-0.2989
 70
192
 0
VERTEX
 8
EXTRUDE
 10
-0.0254
 20
0.1264
 30
-0.2974
 70
192
 0
VERTEX
 8
EXTRUDE
 10
-0.0254
 20
0.1256
 30
-0.2968
 70
192
 0
VERTEX
 8
EXTRUDE
 10
-0.0254
 20
0.1251
 30
-0.2964
 70
192
 0
VERTEX
 8
EXTRUDE
 10
-0.0254
 20
0.1248
 30
-0.2963
 70
192
 0
VERTEX
 8
EXTRUDE
 10
-0.0254
 20
0.1246
 30
-0.2962
 70
192
 0
VERTEX
 8
EXTRUDE
 10
-0.0254
 20
0.1244
 30
-0.2962
 70
192
 0
VERTEX
 8
EXTRUDE
 10
-0.0254
 20
0.1242
 30
-0.2962
 70
192
 0
VERTEX
 8
EXTRUDE
 10
-0.0257
 20
0.0193
 30
-0.293
 70
192
 0
VERTEX
 8
EXTRUDE
 10
-0.0257
 20
0.0153
 30
-0.2973
 70
192
 0
VERTEX
 8
EXTRUDE
 10
-0.0257
 20
0.0143
 30
-0.2981
 70
192
 0
VERTEX
 8
EXTRUDE
 10
-0.0257
 20
0.014
 30
-0.2983
 70
192
 0
VERTEX
 8
EXTRUDE
 10
-0.0257
 20
0.0138
 30
-0.2984
 70
192
 0
VERTEX
 8
EXTRUDE
 10
-0.0257
 20
0.0138
 30
-0.2984
 70
192
 0
VERTEX
 8
EXTRUDE
 10
-0.0257
 20
0.0137
 30
-0.2984
 70
192
 0
VERTEX
 8
EXTRUDE
 10
-0.0257
 20
0.0137
 30
-0.2984
 70
192
 0
VERTEX
 8
EXTRUDE
 10
-0.0257
 20
-0.0002
 30
-0.2991
 70
192
 0
VERTEX
 8
EXTRUDE
 10
-0.0257
 20
-0.001
 30
-0.2521
 70
192
 0
VERTEX
 8
EXTRUDE
 10
-0.0257
 20
-0.001
 30
-0.2514
 70
192
 0
VERTEX
 8
EXTRUDE
 10
-0.0257
 20
-0.0009
 30
-0.2513
 70
192
 0
VERTEX
 8
EXTRUDE
 10
0.0043
 20
-0.001
 30
-0.2512
 70
192
 0
VERTEX
 8
EXTRUDE
 10
0.0048
 20
0.1787
 30
-0.2563
 70
192
 0
VERTEX
 8
EXTRUDE
 10
0.0048
 20
0.1787
 30
-0.2955
 70
192
 0
VERTEX
 8
EXTRUDE
 10
0.0048
 20
0.1702
 30
-0.3019
 70
192
 0
VERTEX
 8
EXTRUDE
 10
0.0047
 20
0.1298
 30
-0.3012
 70
192
 0
VERTEX
 8
EXTRUDE
 10
0.0047
 20
0.1278
 30
-0.2989
 70
192
 0
VERTEX
 8
EXTRUDE
 10
0.0046
 20
0.1263
 30
-0.2974
 70
192
 0
VERTEX
 8
EXTRUDE
 10
0.0046
 20
0.1255
 30
-0.2968
 70
192
 0
VERTEX
 8
EXTRUDE
 10
0.0046
 20
0.125
 30
-0.2964
 70
192
 0
VERTEX
 8
EXTRUDE
 10
0.0046
 20
0.1247
 30
-0.2963
 70
192
 0
VERTEX
 8
EXTRUDE
 10
0.0046
 20
0.1245
 30
-0.2962
 70
192
 0
VERTEX
 8
EXTRUDE
 10
0.0046
 20
0.1244
 30
-0.2962
 70
192
 0
VERTEX
 8
EXTRUDE
 10
0.0046
 20
0.1241
 30
-0.2962
 70
192
 0
VERTEX
 8
EXTRUDE
 10
0.0043
 20
0.0192
 30
-0.293
 70
192
 0
VERTEX
 8
EXTRUDE
 10
0.0043
 20
0.0152
 30
-0.2973
 70
192
 0
VERTEX
 8
EXTRUDE
 10
0.0043
 20
0.0142
 30
-0.2981
 70
192
 0
VERTEX
 8
EXTRUDE
 10
0.0043
 20
0.0139
 30
-0.2983
 70
192
 0
VERTEX
 8
EXTRUDE
 10
0.0043
 20
0.0138
 30
-0.2984
 70
192
 0
VERTEX
 8
EXTRUDE
 10
0.0043
 20
0.0137
 30
-0.2984
 70
192
 0
VERTEX
 8
EXTRUDE
 10
0.0043
 20
0.0136
 30
-0.2984
 70
192
 0
VERTEX
 8
EXTRUDE
 10
0.0043
 20
0.0136
 30
-0.2984
 70
192
 0
VERTEX
 8
EXTRUDE
 10
0.0043
 20
-0.0003
 30
-0.2991
 70
192
 0
VERTEX
 8
EXTRUDE
 10
0.0043
 20
-0.0011
 30
-0.2521
 70
192
 0
VERTEX
 8
EXTRUDE
 10
0.0043
 20
-0.0011
 30
-0.2514
 70
192
 0
VERTEX
 8
EXTRUDE
 10
0.0043
 20
-0.001
 30
-0.2513
 70
192
 0
VERTEX
 8
EXTRUDE
 10
0
 20
0
 30
0
 70
128
 71
1
 72
2
 73
27
 74
26
 0
VERTEX
 8
EXTRUDE
 10
0
 20
0
 30
0
 70
128
 71
2
 72
3
 73
28
 74
27
 0
VERTEX
 8
EXTRUDE
 10
0
 20
0
 30
0
 70
128
 71
3
 72
4
 73
29
 74
28
 0
VERTEX
 8
EXTRUDE
 10
0
 20
0
 30
0
 70
128
 71
4
 72
5
 73
30
 74
29
 0
VERTEX
 8
EXTRUDE
 10
0
 20
0
 30
0
 70
128
 71
5
 72
6
 73
31
 74
30
 0
VERTEX
 8
EXTRUDE
 10
0
 20
0
 30
0
 70
128
 71
6
 72
7
 73
32
 74
31
 0
VERTEX
 8
EXTRUDE
 10
0
 20
0
 30
0
 70
128
 71
7
 72
8
 73
33
 74
32
 0
VERTEX
 8
EXTRUDE
 10
0
 20
0
 30
0
 70
128
 71
8
 72
9
 73
34
 74
33
 0
VERTEX
 8
EXTRUDE
 10
0
 20
0
 30
0
 70
128
 71
9
 72
10
 73
35
 74
34
 0
VERTEX
 8
EXTRUDE
 10
0
 20
0
 30
0
 70
128
 71
10
 72
11
 73
36
 74
35
 0
VERTEX
 8
EXTRUDE
 10
0
 20
0
 30
0
 70
128
 71
11
 72
12
 73
37
 74
36
 0
VERTEX
 8
EXTRUDE
 10
0
 20
0
 30
0
 70
128
 71
12
 72
13
 73
38
 74
37
 0
VERTEX
 8
EXTRUDE
 10
0
 20
0
 30
0
 70
128
 71
13
 72
14
 73
39
 74
38
 0
VERTEX
 8
EXTRUDE
 10
0
 20
0
 30
0
 70
128
 71
14
 72
15
 73
40
 74
39
 0
VERTEX
 8
EXTRUDE
 10
0
 20
0
 30
0
 70
128
 71
15
 72
16
 73
41
 74
40
 0
VERTEX
 8
EXTRUDE
 10
0
 20
0
 30
0
 70
128
 71
16
 72
17
 73
42
 74
41
 0
VERTEX
 8
EXTRUDE
 10
0
 20
0
 30
0
 70
128
 71
17
 72
18
 73
43
 74
42
 0
VERTEX
 8
EXTRUDE
 10
0
 20
0
 30
0
 70
128
 71
18
 72
19
 73
44
 74
43
 0
VERTEX
 8
EXTRUDE
 10
0
 20
0
 30
0
 70
128
 71
19
 72
20
 73
45
 74
44
 0
VERTEX
 8
EXTRUDE
 10
0
 20
0
 30
0
 70
128
 71
20
 72
21
 73
46
 74
45
 0
VERTEX
 8
EXTRUDE
 10
0
 20
0
 30
0
 70
128
 71
21
 72
22
 73
47
 74
46
 0
VERTEX
 8
EXTRUDE
 10
0
 20
0
 30
0
 70
128
 71
22
 72
23
 73
48
 74
47
 0
VERTEX
 8
EXTRUDE
 10
0
 20
0
 30
0
 70
128
 71
23
 72
24
 73
49
 74
48
 0
VERTEX
 8
EXTRUDE
 10
0
 20
0
 30
0
 70
128
 71
24
 72
25
 73
50
 74
49
 0
VERTEX
 8
EXTRUDE
 10
0
 20
0
 30
0
 70
128
 71
25
 72
1
 73
26
 74
50
 0
SEQEND
 0
POLYLINE
 8
CAP_1_1
 66
1
 10
0.0
 20
0.0
 30
0.0
 70
64
 71
25
 72
16
 0
VERTEX
 8
CAP_1_1
 10
-0.0257
 20
-0.0009
 30
-0.2512
 70
192
 0
VERTEX
 8
CAP_1_1
 10
-0.0252
 20
0.1788
 30
-0.2563
 70
192
 0
VERTEX
 8
CAP_1_1
 10
-0.0252
 20
0.1788
 30
-0.2955
 70
192
 0
VERTEX
 8
CAP_1_1
 10
-0.0252
 20
0.1703
 30
-0.3019
 70
192
 0
VERTEX
 8
CAP_1_1
 10
-0.0253
 20
0.1299
 30
-0.3012
 70
192
 0
VERTEX
 8
CAP_1_1
 10
-0.0253
 20
0.1278
 30
-0.2989
 70
192
 0
VERTEX
 8
CAP_1_1
 10
-0.0254
 20
0.1264
 30
-0.2974
 70
192
 0
VERTEX
 8
CAP_1_1
 10
-0.0254
 20
0.1256
 30
-0.2968
 70
192
 0
VERTEX
 8
CAP_1_1
 10
-0.0254
 20
0.1251
 30
-0.2964
 70
192
 0
VERTEX
 8
CAP_1_1
 10
-0.0254
 20
0.1248
 30
-0.2963
 70
192
 0
VERTEX
 8
CAP_1_1
 10
-0.0254
 20
0.1246
 30
-0.2962
 70
192
 0
VERTEX
 8
CAP_1_1
 10
-0.0254
 20
0.1244
 30
-0.2962
 70
192
 0
VERTEX
 8
CAP_1_1
 10
-0.0254
 20
0.1242
 30
-0.2962
 70
192
 0
VERTEX
 8
CAP_1_1
 10
-0.0257
 20
0.0193
 30
-0.293
 70
192
 0
VERTEX
 8
CAP_1_1
 10
-0.0257
 20
0.0153
 30
-0.2973
 70
192
 0
VERTEX
 8
CAP_1_1
 10
-0.0257
 20
0.0143
 30
-0.2981
 70
192
 0
VERTEX
 8
CAP_1_1
 10
-0.0257
 20
0.014
 30
-0.2983
 70
192
 0
VERTEX
 8
CAP_1_1
 10
-0.0257
 20
0.0138
 30
-0.2984
 70
192
 0
VERTEX
 8
CAP_1_1
 10
-0.0257
 20
0.0138
 30
-0.2984
 70
192
 0
VERTEX
 8
CAP_1_1
 10
-0.0257
 20
0.0137
 30
-0.2984
 70
192
 0
VERTEX
 8
CAP_1_1
 10
-0.0257
 20
0.0137
 30
-0.2984
 70
192
 0
VERTEX
 8
CAP_1_1
 10
-0.0257
 20
-0.0002
 30
-0.2991
 70
192
 0
VERTEX
 8
CAP_1_1
 10
-0.0257
 20
-0.001
 30
-0.2521
 70
192
 0
VERTEX
 8
CAP_1_1
 10
-0.0257
 20
-0.001
 30
-0.2514
 70
192
 0
VERTEX
 8
CAP_1_1
 10
-0.0257
 20
-0.0009
 30
-0.2513
 70
192
 0
VERTEX
 8
CAP_1_1
 10
0
 20
0
 30
0
 70
128
 71
1
 72
25
 73
24
 74
23
 0
VERTEX
 8
CAP_1_1
 10
0
 20
0
 30
0
 70
128
 71
14
 72
23
 73
22
 74
15
 0
VERTEX
 8
CAP_1_1
 10
0
 20
0
 30
0
 70
128
 71
23
 72
14
 73
1
 74
1
 0
VERTEX
 8
CAP_1_1
 10
0
 20
0
 30
0
 70
128
 71
15
 72
22
 73
21
 74
16
 0
VERTEX
 8
CAP_1_1
 10
0
 20
0
 30
0
 70
128
 71
21
 72
20
 73
19
 74
18
 0
VERTEX
 8
CAP_1_1
 10
0
 20
0
 30
0
 70
128
 71
21
 72
18
 73
17
 74
16
 0
VERTEX
 8
CAP_1_1
 10
0
 20
0
 30
0
 70
128
 71
1
 72
14
 73
13
 74
2
 0
VERTEX
 8
CAP_1_1
 10
0
 20
0
 30
0
 70
128
 71
13
 72
12
 73
2
 74
2
 0
VERTEX
 8
CAP_1_1
 10
0
 20
0
 30
0
 70
128
 71
12
 72
11
 73
2
 74
2
 0
VERTEX
 8
CAP_1_1
 10
0
 20
0
 30
0
 70
128
 71
11
 72
10
 73
2
 74
2
 0
VERTEX
 8
CAP_1_1
 10
0
 20
0
 30
0
 70
128
 71
10
 72
9
 73
2
 74
2
 0
VERTEX
 8
CAP_1_1
 10
0
 20
0
 30
0
 70
128
 71
9
 72
8
 73
2
 74
2
 0
VERTEX
 8
CAP_1_1
 10
0
 20
0
 30
0
 70
128
 71
8
 72
7
 73
2
 74
2
 0
VERTEX
 8
CAP_1_1
 10
0
 20
0
 30
0
 70
128
 71
2
 72
7
 73
6
 74
4
 0
VERTEX
 8
CAP_1_1
 10
0
 20
0
 30
0
 70
128
 71
6
 72
5
 73
4
 74
4
 0
VERTEX
 8
CAP_1_1
 10
0
 20
0
 30
0
 70
128
 71
4
 72
3
 73
2
 74
2
 0
SEQEND
 0
POLYLINE
 8
CAP_2_1
 66
1
 10
0.0
 20
0.0
 30
0.0
 70
64
 71
25
 72
16
 0
VERTEX
 8
CAP_2_1
 10
0.0043
 20
-0.001
 30
-0.2512
 70
192
 0
VERTEX
 8
CAP_2_1
 10
0.0048
 20
0.1787
 30
-0.2563
 70
192
 0
VERTEX
 8
CAP_2_1
 10
0.0048
 20
0.1787
 30
-0.2955
 70
192
 0
VERTEX
 8
CAP_2_1
 10
0.0048
 20
0.1702
 30
-0.3019
 70
192
 0
VERTEX
 8
CAP_2_1
 10
0.0047
 20
0.1298
 30
-0.3012
 70
192
 0
VERTEX
 8
CAP_2_1
 10
0.0047
 20
0.1278
 30
-0.2989
 70
192
 0
VERTEX
 8
CAP_2_1
 10
0.0046
 20
0.1263
 30
-0.2974
 70
192
 0
VERTEX
 8
CAP_2_1
 10
0.0046
 20
0.1255
 30
-0.2968
 70
192
 0
VERTEX
 8
CAP_2_1
 10
0.0046
 20
0.125
 30
-0.2964
 70
192
 0
VERTEX
 8
CAP_2_1
 10
0.0046
 20
0.1247
 30
-0.2963
 70
192
 0
VERTEX
 8
CAP_2_1
 10
0.0046
 20
0.1245
 30
-0.2962
 70
192
 0
VERTEX
 8
CAP_2_1
 10
0.0046
 20
0.1244
 30
-0.2962
 70
192
 0
VERTEX
 8
CAP_2_1
 10
0.0046
 20
0.1241
 30
-0.2962
 70
192
 0
VERTEX
 8
CAP_2_1
 10
0.0043
 20
0.0192
 30
-0.293
 70
192
 0
VERTEX
 8
CAP_2_1
 10
0.0043
 20
0.0152
 30
-0.2973
 70
192
 0
VERTEX
 8
CAP_2_1
 10
0.0043
 20
0.0142
 30
-0.2981
 70
192
 0
VERTEX
 8
CAP_2_1
 10
0.0043
 20
0.0139
 30
-0.2983
 70
192
 0
VERTEX
 8
CAP_2_1
 10
0.0043
 20
0.0138
 30
-0.2984
 70
192
 0
VERTEX
 8
CAP_2_1
 10
0.0043
 20
0.0137
 30
-0.2984
 70
192
 0
VERTEX
 8
CAP_2_1
 10
0.0043
 20
0.0136
 30
-0.2984
 70
192
 0
VERTEX
 8
CAP_2_1
 10
0.0043
 20
0.0136
 30
-0.2984
 70
192
 0
VERTEX
 8
CAP_2_1
 10
0.0043
 20
-0.0003
 30
-0.2991
 70
192
 0
VERTEX
 8
CAP_2_1
 10
0.0043
 20
-0.0011
 30
-0.2521
 70
192
 0
VERTEX
 8
CAP_2_1
 10
0.0043
 20
-0.0011
 30
-0.2514
 70
192
 0
VERTEX
 8
CAP_2_1
 10
0.0043
 20
-0.001
 30
-0.2513
 70
192
 0
VERTEX
 8
CAP_2_1
 10
0
 20
0
 30
0
 70
128
 71
1
 72
23
 73
24
 74
25
 0
VERTEX
 8
CAP_2_1
 10
0
 20
0
 30
0
 70
128
 71
1
 72
2
 73
13
 74
14
 0
VERTEX
 8
CAP_2_1
 10
0
 20
0
 30
0
 70
128
 71
1
 72
14
 73
23
 74
23
 0
VERTEX
 8
CAP_2_1
 10
0
 20
0
 30
0
 70
128
 71
2
 72
3
 73
4
 74
4
 0
VERTEX
 8
CAP_2_1
 10
0
 20
0
 30
0
 70
128
 71
2
 72
4
 73
6
 74
7
 0
VERTEX
 8
CAP_2_1
 10
0
 20
0
 30
0
 70
128
 71
2
 72
7
 73
8
 74
8
 0
VERTEX
 8
CAP_2_1
 10
0
 20
0
 30
0
 70
128
 71
2
 72
8
 73
9
 74
9
 0
VERTEX
 8
CAP_2_1
 10
0
 20
0
 30
0
 70
128
 71
2
 72
9
 73
10
 74
10
 0
VERTEX
 8
CAP_2_1
 10
0
 20
0
 30
0
 70
128
 71
2
 72
10
 73
11
 74
11
 0
VERTEX
 8
CAP_2_1
 10
0
 20
0
 30
0
 70
128
 71
2
 72
11
 73
12
 74
12
 0
VERTEX
 8
CAP_2_1
 10
0
 20
0
 30
0
 70
128
 71
2
 72
12
 73
13
 74
13
 0
VERTEX
 8
CAP_2_1
 10
0
 20
0
 30
0
 70
128
 71
4
 72
5
 73
6
 74
6
 0
VERTEX
 8
CAP_2_1
 10
0
 20
0
 30
0
 70
128
 71
14
 72
15
 73
22
 74
23
 0
VERTEX
 8
CAP_2_1
 10
0
 20
0
 30
0
 70
128
 71
15
 72
16
 73
21
 74
22
 0
VERTEX
 8
CAP_2_1
 10
0
 20
0
 30
0
 70
128
 71
21
 72
16
 73
17
 74
18
 0
VERTEX
 8
CAP_2_1
 10
0
 20
0
 30
0
 70
128
 71
21
 72
18
 73
19
 74
20
 0
SEQEND
 0
POLYLINE
 8
EXTRUDE_1_1
 66
1
 10
0.0
 20
0.0
 30
0.0
 70
64
 71
74
 72
37
 0
VERTEX
 8
EXTRUDE_1_1
 10
0.1646
 20
-0.0766
 30
0.2167
 70
192
 0
VERTEX
 8
EXTRUDE_1_1
 10
0.1653
 20
-0.077
 30
0.2077
 70
192
 0
VERTEX
 8
EXTRUDE_1_1
 10
0.1652
 20
-0.0769
 30
0.1807
 70
192
 0
VERTEX
 8
EXTRUDE_1_1
 10
0.1615
 20
-0.0748
 30
0.1355
 70
192
 0
VERTEX
 8
EXTRUDE_1_1
 10
0.1511
 20
-0.0687
 30
0.0716
 70
192
 0
VERTEX
 8
EXTRUDE_1_1
 10
0.1272
 20
-0.0549
 30
-0.0243
 70
192
 0
VERTEX
 8
EXTRUDE_1_1
 10
0.0924
 20
-0.0348
 30
-0.1287
 70
192
 0
VERTEX
 8
EXTRUDE_1_1
 10
0.0415
 20
-0.0054
 30
-0.2524
 70
192
 0
VERTEX
 8
EXTRUDE_1_1
 10
0.0275
 20
0.0027
 30
-0.253
 70
192
 0
VERTEX
 8
EXTRUDE_1_1
 10
0.0135
 20
0.0108
 30
-0.2536
 70
192
 0
VERTEX
 8
EXTRUDE_1_1
 10
0.0621
 20
-0.0173
 30
-0.1326
 70
192
 0
VERTEX
 8
EXTRUDE_1_1
 10
0.1063
 20
-0.0428
 30
0.0063
 70
192
 0
VERTEX
 8
EXTRUDE_1_1
 10
0.1264
 20
-0.0545
 30
0.0949
 70
192
 0
VERTEX
 8
EXTRUDE_1_1
 10
0.1352
 20
-0.0596
 30
0.1574
 70
192
 0
VERTEX
 8
EXTRUDE_1_1
 10
0.137
 20
-0.0606
 30
0.1816
 70
192
 0
VERTEX
 8
EXTRUDE_1_1
 10
0.1376
 20
-0.061
 30
0.2167
 70
192
 0
VERTEX
 8
EXTRUDE_1_1
 10
0.1511
 20
-0.0688
 30
0.2167
 70
192
 0
VERTEX
 8
EXTRUDE_1_1
 10
0.0308
 20
0.0008
 30
0.2107
 70
192
 0
VERTEX
 8
EXTRUDE_1_1
 10
0.0036
 20
0.0165
 30
0.2107
 70
192
 0
VERTEX
 8
EXTRUDE_1_1
 10
0.0035
 20
0.0166
 30
0.2052
 70
192
 0
VERTEX
 8
EXTRUDE_1_1
 10
0.0047
 20
0.0159
 30
0.1841
 70
192
 0
VERTEX
 8
EXTRUDE_1_1
 10
0.0109
 20
0.0123
 30
0.1385
 70
192
 0
VERTEX
 8
EXTRUDE_1_1
 10
0.0287
 20
0.0021
 30
0.057
 70
192
 0
VERTEX
 8
EXTRUDE_1_1
 10
0.0681
 20
-0.0208
 30
-0.0752
 70
192
 0
VERTEX
 8
EXTRUDE_1_1
 10
0.1357
 20
-0.0598
 30
-0.2559
 70
192
 0
VERTEX
 8
EXTRUDE_1_1
 10
0.1692
 20
-0.0792
 30
-0.2571
 70
192
 0
VERTEX
 8
EXTRUDE_1_1
 10
0.1225
 20
-0.0522
 30
-0.1516
 70
192
 0
VERTEX
 8
EXTRUDE_1_1
 10
0.077
 20
-0.0259
 30
-0.0253
 70
192
 0
VERTEX
 8
EXTRUDE_1_1
 10
0.0507
 20
-0.0107
 30
0.0714
 70
192
 0
VERTEX
 8
EXTRUDE_1_1
 10
0.0408
 20
-0.005
 30
0.1209
 70
192
 0
VERTEX
 8
EXTRUDE_1_1
 10
0.0329
 20
-0.0004
 30
0.1823
 70
192
 0
VERTEX
 8
EXTRUDE_1_1
 10
0.0328
 20
-0.0004
 30
0.1823
 70
192
 0
VERTEX
 8
EXTRUDE_1_1
 10
0.0328
 20
-0.0003
 30
0.1825
 70
192
 0
VERTEX
 8
EXTRUDE_1_1
 10
0.0327
 20
-0.0003
 30
0.1827
 70
192
 0
VERTEX
 8
EXTRUDE_1_1
 10
0.0326
 20
-0.0002
 30
0.1832
 70
192
 0
VERTEX
 8
EXTRUDE_1_1
 10
0.0322
 20
0
 30
0.1855
 70
192
 0
VERTEX
 8
EXTRUDE_1_1
 10
0.0312
 20
0.0006
 30
0.2009
 70
192
 0
VERTEX
 8
EXTRUDE_1_1
 10
0.1496
 20
-0.1026
 30
0.2167
 70
192
 0
VERTEX
 8
EXTRUDE_1_1
 10
0.1503
 20
-0.1029
 30
0.2077
 70
192
 0
VERTEX
 8
EXTRUDE_1_1
 10
0.1502
 20
-0.1029
 30
0.1807
 70
192
 0
VERTEX
 8
EXTRUDE_1_1
 10
0.1465
 20
-0.1007
 30
0.1355
 70
192
 0
VERTEX
 8
EXTRUDE_1_1
 10
0.136
 20
-0.0947
 30
0.0716
 70
192
 0
VERTEX
 8
EXTRUDE_1_1
 10
0.1121
 20
-0.0809
 30
-0.0243
 70
192
 0
VERTEX
 8
EXTRUDE_1_1
 10
0.0774
 20
-0.0608
 30
-0.1287
 70
192
 0
VERTEX
 8
EXTRUDE_1_1
 10
0.0265
 20
-0.0314
 30
-0.2524
 70
192
 0
VERTEX
 8
EXTRUDE_1_1
 10
0.0125
 20
-0.0232
 30
-0.253
 70
192
 0
VERTEX
 8
EXTRUDE_1_1
 10
-0.0016
 20
-0.0151
 30
-0.2536
 70
192
 0
VERTEX
 8
EXTRUDE_1_1
 10
0.0471
 20
-0.0433
 30
-0.1326
 70
192
 0
VERTEX
 8
EXTRUDE_1_1
 10
0.0912
 20
-0.0688
 30
0.0063
 70
192
 0
VERTEX
 8
EXTRUDE_1_1
 10
0.1114
 20
-0.0804
 30
0.0949
 70
192
 0
VERTEX
 8
EXTRUDE_1_1
 10
0.1202
 20
-0.0855
 30
0.1574
 70
192
 0
VERTEX
 8
EXTRUDE_1_1
 10
0.122
 20
-0.0866
 30
0.1816
 70
192
 0
VERTEX
 8
EXTRUDE_1_1
 10
0.1226
 20
-0.0869
 30
0.2167
 70
192
 0
VERTEX
 8
EXTRUDE_1_1
 10
0.1361
 20
-0.0948
 30
0.2167
 70
192
 0
VERTEX
 8
EXTRUDE_1_1
 10
0.0157
 20
-0.0251
 30
0.2107
 70
192
 0
VERTEX
 8
EXTRUDE_1_1
 10
-0.0114
 20
-0.0094
 30
0.2107
 70
192
 0
VERTEX
 8
EXTRUDE_1_1
 10
-0.0115
 20
-0.0094
 30
0.2052
 70
192
 0
VERTEX
 8
EXTRUDE_1_1
 10
-0.0103
 20
-0.0101
 30
0.1841
 70
192
 0
VERTEX
 8
EXTRUDE_1_1
 10
-0.0041
 20
-0.0136
 30
0.1385
 70
192
 0
VERTEX
 8
EXTRUDE_1_1
 10
0.0136
 20
-0.0239
 30
0.057
 70
192
 0
VERTEX
 8
EXTRUDE_1_1
 10
0.0531
 20
-0.0467
 30
-0.0752
 70
192
 0
VERTEX
 8
EXTRUDE_1_1
 10
0.1207
 20
-0.0858
 30
-0.2559
 70
192
 0
VERTEX
 8
EXTRUDE_1_1
 10
0.1542
 20
-0.1052
 30
-0.2571
 70
192
 0
VERTEX
 8
EXTRUDE_1_1
 10
0.1075
 20
-0.0782
 30
-0.1516
 70
192
 0
VERTEX
 8
EXTRUDE_1_1
 10
0.062
 20
-0.0519
 30
-0.0253
 70
192
 0
VERTEX
 8
EXTRUDE_1_1
 10
0.0357
 20
-0.0367
 30
0.0714
 70
192
 0
VERTEX
 8
EXTRUDE_1_1
 10
0.0258
 20
-0.031
 30
0.1209
 70
192
 0
VERTEX
 8
EXTRUDE_1_1
 10
0.0179
 20
-0.0264
 30
0.1823
 70
192
 0
VERTEX
 8
EXTRUDE_1_1
 10
0.0178
 20
-0.0263
 30
0.1823
 70
192
 0
VERTEX
 8
EXTRUDE_1_1
 10
0.0177
 20
-0.0263
 30
0.1825
 70
192
 0
VERTEX
 8
EXTRUDE_1_1
 10
0.0177
 20
-0.0262
 30
0.1827
 70
192
 0
VERTEX
 8
EXTRUDE_1_1
 10
0.0175
 20
-0.0262
 30
0.1832
 70
192
 0
VERTEX
 8
EXTRUDE_1_1
 10
0.0172
 20
-0.026
 30
0.1855
 70
192
 0
VERTEX
 8
EXTRUDE_1_1
 10
0.0162
 20
-0.0254
 30
0.2009
 70
192
 0
VERTEX
 8
EXTRUDE_1_1
 10
0
 20
0
 30
0
 70
128
 71
1
 72
2
 73
39
 74
38
 0
VERTEX
 8
EXTRUDE_1_1
 10
0
 20
0
 30
0
 70
128
 71
2
 72
3
 73
40
 74
39
 0
VERTEX
 8
EXTRUDE_1_1
 10
0
 20
0
 30
0
 70
128
 71
3
 72
4
 73
41
 74
40
 0
VERTEX
 8
EXTRUDE_1_1
 10
0
 20
0
 30
0
 70
128
 71
4
 72
5
 73
42
 74
41
 0
VERTEX
 8
EXTRUDE_1_1
 10
0
 20
0
 30
0
 70
128
 71
5
 72
6
 73
43
 74
42
 0
VERTEX
 8
EXTRUDE_1_1
 10
0
 20
0
 30
0
 70
128
 71
6
 72
7
 73
44
 74
43
 0
VERTEX
 8
EXTRUDE_1_1
 10
0
 20
0
 30
0
 70
128
 71
7
 72
8
 73
45
 74
44
 0
VERTEX
 8
EXTRUDE_1_1
 10
0
 20
0
 30
0
 70
128
 71
8
 72
9
 73
46
 74
45
 0
VERTEX
 8
EXTRUDE_1_1
 10
0
 20
0
 30
0
 70
128
 71
9
 72
10
 73
47
 74
46
 0
VERTEX
 8
EXTRUDE_1_1
 10
0
 20
0
 30
0
 70
128
 71
10
 72
11
 73
48
 74
47
 0
VERTEX
 8
EXTRUDE_1_1
 10
0
 20
0
 30
0
 70
128
 71
11
 72
12
 73
49
 74
48
 0
VERTEX
 8
EXTRUDE_1_1
 10
0
 20
0
 30
0
 70
128
 71
12
 72
13
 73
50
 74
49
 0
VERTEX
 8
EXTRUDE_1_1
 10
0
 20
0
 30
0
 70
128
 71
13
 72
14
 73
51
 74
50
 0
VERTEX
 8
EXTRUDE_1_1
 10
0
 20
0
 30
0
 70
128
 71
14
 72
15
 73
52
 74
51
 0
VERTEX
 8
EXTRUDE_1_1
 10
0
 20
0
 30
0
 70
128
 71
15
 72
16
 73
53
 74
52
 0
VERTEX
 8
EXTRUDE_1_1
 10
0
 20
0
 30
0
 70
128
 71
16
 72
17
 73
54
 74
53
 0
VERTEX
 8
EXTRUDE_1_1
 10
0
 20
0
 30
0
 70
128
 71
17
 72
1
 73
38
 74
54
 0
VERTEX
 8
EXTRUDE_1_1
 10
0
 20
0
 30
0
 70
128
 71
18
 72
55
 73
56
 74
19
 0
VERTEX
 8
EXTRUDE_1_1
 10
0
 20
0
 30
0
 70
128
 71
19
 72
56
 73
57
 74
20
 0
VERTEX
 8
EXTRUDE_1_1
 10
0
 20
0
 30
0
 70
128
 71
20
 72
57
 73
58
 74
21
 0
VERTEX
 8
EXTRUDE_1_1
 10
0
 20
0
 30
0
 70
128
 71
21
 72
58
 73
59
 74
22
 0
VERTEX
 8
EXTRUDE_1_1
 10
0
 20
0
 30
0
 70
128
 71
22
 72
59
 73
60
 74
23
 0
VERTEX
 8
EXTRUDE_1_1
 10
0
 20
0
 30
0
 70
128
 71
23
 72
60
 73
61
 74
24
 0
VERTEX
 8
EXTRUDE_1_1
 10
0
 20
0
 30
0
 70
128
 71
24
 72
61
 73
62
 74
25
 0
VERTEX
 8
EXTRUDE_1_1
 10
0
 20
0
 30
0
 70
128
 71
25
 72
62
 73
63
 74
26
 0
VERTEX
 8
EXTRUDE_1_1
 10
0
 20
0
 30
0
 70
128
 71
26
 72
63
 73
64
 74
27
 0
VERTEX
 8
EXTRUDE_1_1
 10
0
 20
0
 30
0
 70
128
 71
27
 72
64
 73
65
 74
28
 0
VERTEX
 8
EXTRUDE_1_1
 10
0
 20
0
 30
0
 70
128
 71
28
 72
65
 73
66
 74
29
 0
VERTEX
 8
EXTRUDE_1_1
 10
0
 20
0
 30
0
 70
128
 71
29
 72
66
 73
67
 74
30
 0
VERTEX
 8
EXTRUDE_1_1
 10
0
 20
0
 30
0
 70
128
 71
30
 72
67
 73
68
 74
31
 0
VERTEX
 8
EXTRUDE_1_1
 10
0
 20
0
 30
0
 70
128
 71
31
 72
68
 73
69
 74
32
 0
VERTEX
 8
EXTRUDE_1_1
 10
0
 20
0
 30
0
 70
128
 71
32
 72
69
 73
70
 74
33
 0
VERTEX
 8
EXTRUDE_1_1
 10
0
 20
0
 30
0
 70
128
 71
33
 72
70
 73
71
 74
34
 0
VERTEX
 8
EXTRUDE_1_1
 10
0
 20
0
 30
0
 70
128
 71
34
 72
71
 73
72
 74
35
 0
VERTEX
 8
EXTRUDE_1_1
 10
0
 20
0
 30
0
 70
128
 71
35
 72
72
 73
73
 74
36
 0
VERTEX
 8
EXTRUDE_1_1
 10
0
 20
0
 30
0
 70
128
 71
36
 72
73
 73
74
 74
37
 0
VERTEX
 8
EXTRUDE_1_1
 10
0
 20
0
 30
0
 70
128
 71
37
 72
74
 73
55
 74
18
 0
SEQEND
 0
POLYLINE
 8
CAP_1_2
 66
1
 10
0.0
 20
0.0
 30
0.0
 70
64
 71
37
 72
21
 0
VERTEX
 8
CAP_1_2
 10
0.1646
 20
-0.0766
 30
0.2167
 70
192
 0
VERTEX
 8
CAP_1_2
 10
0.1653
 20
-0.077
 30
0.2077
 70
192
 0
VERTEX
 8
CAP_1_2
 10
0.1652
 20
-0.0769
 30
0.1807
 70
192
 0
VERTEX
 8
CAP_1_2
 10
0.1615
 20
-0.0748
 30
0.1355
 70
192
 0
VERTEX
 8
CAP_1_2
 10
0.1511
 20
-0.0687
 30
0.0716
 70
192
 0
VERTEX
 8
CAP_1_2
 10
0.1272
 20
-0.0549
 30
-0.0243
 70
192
 0
VERTEX
 8
CAP_1_2
 10
0.0924
 20
-0.0348
 30
-0.1287
 70
192
 0
VERTEX
 8
CAP_1_2
 10
0.0415
 20
-0.0054
 30
-0.2524
 70
192
 0
VERTEX
 8
CAP_1_2
 10
0.0275
 20
0.0027
 30
-0.253
 70
192
 0
VERTEX
 8
CAP_1_2
 10
0.0135
 20
0.0108
 30
-0.2536
 70
192
 0
VERTEX
 8
CAP_1_2
 10
0.0621
 20
-0.0173
 30
-0.1326
 70
192
 0
VERTEX
 8
CAP_1_2
 10
0.1063
 20
-0.0428
 30
0.0063
 70
192
 0
VERTEX
 8
CAP_1_2
 10
0.1264
 20
-0.0545
 30
0.0949
 70
192
 0
VERTEX
 8
CAP_1_2
 10
0.1352
 20
-0.0596
 30
0.1574
 70
192
 0
VERTEX
 8
CAP_1_2
 10
0.137
 20
-0.0606
 30
0.1816
 70
192
 0
VERTEX
 8
CAP_1_2
 10
0.1376
 20
-0.061
 30
0.2167
 70
192
 0
VERTEX
 8
CAP_1_2
 10
0.1511
 20
-0.0688
 30
0.2167
 70
192
 0
VERTEX
 8
CAP_1_2
 10
0.0308
 20
0.0008
 30
0.2107
 70
192
 0
VERTEX
 8
CAP_1_2
 10
0.0036
 20
0.0165
 30
0.2107
 70
192
 0
VERTEX
 8
CAP_1_2
 10
0.0035
 20
0.0166
 30
0.2052
 70
192
 0
VERTEX
 8
CAP_1_2
 10
0.0047
 20
0.0159
 30
0.1841
 70
192
 0
VERTEX
 8
CAP_1_2
 10
0.0109
 20
0.0123
 30
0.1385
 70
192
 0
VERTEX
 8
CAP_1_2
 10
0.0287
 20
0.0021
 30
0.057
 70
192
 0
VERTEX
 8
CAP_1_2
 10
0.0681
 20
-0.0208
 30
-0.0752
 70
192
 0
VERTEX
 8
CAP_1_2
 10
0.1357
 20
-0.0598
 30
-0.2559
 70
192
 0
VERTEX
 8
CAP_1_2
 10
0.1692
 20
-0.0792
 30
-0.2571
 70
192
 0
VERTEX
 8
CAP_1_2
 10
0.1225
 20
-0.0522
 30
-0.1516
 70
192
 0
VERTEX
 8
CAP_1_2
 10
0.077
 20
-0.0259
 30
-0.0253
 70
192
 0
VERTEX
 8
CAP_1_2
 10
0.0507
 20
-0.0107
 30
0.0714
 70
192
 0
VERTEX
 8
CAP_1_2
 10
0.0408
 20
-0.005
 30
0.1209
 70
192
 0
VERTEX
 8
CAP_1_2
 10
0.0329
 20
-0.0004
 30
0.1823
 70
192
 0
VERTEX
 8
CAP_1_2
 10
0.0328
 20
-0.0004
 30
0.1823
 70
192
 0
VERTEX
 8
CAP_1_2
 10
0.0328
 20
-0.0003
 30
0.1825
 70
192
 0
VERTEX
 8
CAP_1_2
 10
0.0327
 20
-0.0003
 30
0.1827
 70
192
 0
VERTEX
 8
CAP_1_2
 10
0.0326
 20
-0.0002
 30
0.1832
 70
192
 0
VERTEX
 8
CAP_1_2
 10
0.0322
 20
0
 30
0.1855
 70
192
 0
VERTEX
 8
CAP_1_2
 10
0.0312
 20
0.0006
 30
0.2009
 70
192
 0
VERTEX
 8
CAP_1_2
 10
0
 20
0
 30
0
 70
128
 71
17
 72
16
 73
15
 74
15
 0
VERTEX
 8
CAP_1_2
 10
0
 20
0
 30
0
 70
128
 71
2
 72
17
 73
15
 74
3
 0
VERTEX
 8
CAP_1_2
 10
0
 20
0
 30
0
 70
128
 71
17
 72
2
 73
1
 74
1
 0
VERTEX
 8
CAP_1_2
 10
0
 20
0
 30
0
 70
128
 71
3
 72
15
 73
14
 74
4
 0
VERTEX
 8
CAP_1_2
 10
0
 20
0
 30
0
 70
128
 71
4
 72
14
 73
13
 74
5
 0
VERTEX
 8
CAP_1_2
 10
0
 20
0
 30
0
 70
128
 71
5
 72
13
 73
12
 74
6
 0
VERTEX
 8
CAP_1_2
 10
0
 20
0
 30
0
 70
128
 71
6
 72
12
 73
11
 74
7
 0
VERTEX
 8
CAP_1_2
 10
0
 20
0
 30
0
 70
128
 71
11
 72
10
 73
9
 74
9
 0
VERTEX
 8
CAP_1_2
 10
0
 20
0
 30
0
 70
128
 71
11
 72
9
 73
8
 74
7
 0
VERTEX
 8
CAP_1_2
 10
0
 20
0
 30
0
 70
128
 71
18
 72
19
 73
20
 74
37
 0
VERTEX
 8
CAP_1_2
 10
0
 20
0
 30
0
 70
128
 71
37
 72
20
 73
21
 74
36
 0
VERTEX
 8
CAP_1_2
 10
0
 20
0
 30
0
 70
128
 71
31
 72
21
 73
22
 74
30
 0
VERTEX
 8
CAP_1_2
 10
0
 20
0
 30
0
 70
128
 71
21
 72
31
 73
32
 74
32
 0
VERTEX
 8
CAP_1_2
 10
0
 20
0
 30
0
 70
128
 71
21
 72
32
 73
33
 74
33
 0
VERTEX
 8
CAP_1_2
 10
0
 20
0
 30
0
 70
128
 71
21
 72
33
 73
34
 74
34
 0
VERTEX
 8
CAP_1_2
 10
0
 20
0
 30
0
 70
128
 71
21
 72
34
 73
35
 74
35
 0
VERTEX
 8
CAP_1_2
 10
0
 20
0
 30
0
 70
128
 71
21
 72
35
 73
36
 74
36
 0
VERTEX
 8
CAP_1_2
 10
0
 20
0
 30
0
 70
128
 71
30
 72
22
 73
23
 74
29
 0
VERTEX
 8
CAP_1_2
 10
0
 20
0
 30
0
 70
128
 71
23
 72
24
 73
28
 74
29
 0
VERTEX
 8
CAP_1_2
 10
0
 20
0
 30
0
 70
128
 71
27
 72
24
 73
25
 74
26
 0
VERTEX
 8
CAP_1_2
 10
0
 20
0
 30
0
 70
128
 71
24
 72
27
 73
28
 74
28
 0
SEQEND
 0
POLYLINE
 8
CAP_2_2
 66
1
 10
0.0
 20
0.0
 30
0.0
 70
64
 71
37
 72
21
 0
VERTEX
 8
CAP_2_2
 10
0.1496
 20
-0.1026
 30
0.2167
 70
192
 0
VERTEX
 8
CAP_2_2
 10
0.1503
 20
-0.1029
 30
0.2077
 70
192
 0
VERTEX
 8
CAP_2_2
 10
0.1502
 20
-0.1029
 30
0.1807
 70
192
 0
VERTEX
 8
CAP_2_2
 10
0.1465
 20
-0.1007
 30
0.1355
 70
192
 0
VERTEX
 8
CAP_2_2
 10
0.136
 20
-0.0947
 30
0.0716
 70
192
 0
VERTEX
 8
CAP_2_2
 10
0.1121
 20
-0.0809
 30
-0.0243
 70
192
 0
VERTEX
 8
CAP_2_2
 10
0.0774
 20
-0.0608
 30
-0.1287
 70
192
 0
VERTEX
 8
CAP_2_2
 10
0.0265
 20
-0.0314
 30
-0.2524
 70
192
 0
VERTEX
 8
CAP_2_2
 10
0.0125
 20
-0.0232
 30
-0.253
 70
192
 0
VERTEX
 8
CAP_2_2
 10
-0.0016
 20
-0.0151
 30
-0.2536
 70
192
 0
VERTEX
 8
CAP_2_2
 10
0.0471
 20
-0.0433
 30
-0.1326
 70
192
 0
VERTEX
 8
CAP_2_2
 10
0.0912
 20
-0.0688
 30
0.0063
 70
192
 0
VERTEX
 8
CAP_2_2
 10
0.1114
 20
-0.0804
 30
0.0949
 70
192
 0
VERTEX
 8
CAP_2_2
 10
0.1202
 20
-0.0855
 30
0.1574
 70
192
 0
VERTEX
 8
CAP_2_2
 10
0.122
 20
-0.0866
 30
0.1816
 70
192
 0
VERTEX
 8
CAP_2_2
 10
0.1226
 20
-0.0869
 30
0.2167
 70
192
 0
VERTEX
 8
CAP_2_2
 10
0.1361
 20
-0.0948
 30
0.2167
 70
192
 0
VERTEX
 8
CAP_2_2
 10
0.0157
 20
-0.0251
 30
0.2107
 70
192
 0
VERTEX
 8
CAP_2_2
 10
-0.0114
 20
-0.0094
 30
0.2107
 70
192
 0
VERTEX
 8
CAP_2_2
 10
-0.0115
 20
-0.0094
 30
0.2052
 70
192
 0
VERTEX
 8
CAP_2_2
 10
-0.0103
 20
-0.0101
 30
0.1841
 70
192
 0
VERTEX
 8
CAP_2_2
 10
-0.0041
 20
-0.0136
 30
0.1385
 70
192
 0
VERTEX
 8
CAP_2_2
 10
0.0136
 20
-0.0239
 30
0.057
 70
192
 0
VERTEX
 8
CAP_2_2
 10
0.0531
 20
-0.0467
 30
-0.0752
 70
192
 0
VERTEX
 8
CAP_2_2
 10
0.1207
 20
-0.0858
 30
-0.2559
 70
192
 0
VERTEX
 8
CAP_2_2
 10
0.1542
 20
-0.1052
 30
-0.2571
 70
192
 0
VERTEX
 8
CAP_2_2
 10
0.1075
 20
-0.0782
 30
-0.1516
 70
192
 0
VERTEX
 8
CAP_2_2
 10
0.062
 20
-0.0519
 30
-0.0253
 70
192
 0
VERTEX
 8
CAP_2_2
 10
0.0357
 20
-0.0367
 30
0.0714
 70
192
 0
VERTEX
 8
CAP_2_2
 10
0.0258
 20
-0.031
 30
0.1209
 70
192
 0
VERTEX
 8
CAP_2_2
 10
0.0179
 20
-0.0264
 30
0.1823
 70
192
 0
VERTEX
 8
CAP_2_2
 10
0.0178
 20
-0.0263
 30
0.1823
 70
192
 0
VERTEX
 8
CAP_2_2
 10
0.0177
 20
-0.0263
 30
0.1825
 70
192
 0
VERTEX
 8
CAP_2_2
 10
0.0177
 20
-0.0262
 30
0.1827
 70
192
 0
VERTEX
 8
CAP_2_2
 10
0.0175
 20
-0.0262
 30
0.1832
 70
192
 0
VERTEX
 8
CAP_2_2
 10
0.0172
 20
-0.026
 30
0.1855
 70
192
 0
VERTEX
 8
CAP_2_2
 10
0.0162
 20
-0.0254
 30
0.2009
 70
192
 0
VERTEX
 8
CAP_2_2
 10
0
 20
0
 30
0
 70
128
 71
1
 72
2
 73
17
 74
17
 0
VERTEX
 8
CAP_2_2
 10
0
 20
0
 30
0
 70
128
 71
2
 72
3
 73
15
 74
17
 0
VERTEX
 8
CAP_2_2
 10
0
 20
0
 30
0
 70
128
 71
3
 72
4
 73
14
 74
15
 0
VERTEX
 8
CAP_2_2
 10
0
 20
0
 30
0
 70
128
 71
4
 72
5
 73
13
 74
14
 0
VERTEX
 8
CAP_2_2
 10
0
 20
0
 30
0
 70
128
 71
5
 72
6
 73
12
 74
13
 0
VERTEX
 8
CAP_2_2
 10
0
 20
0
 30
0
 70
128
 71
6
 72
7
 73
11
 74
12
 0
VERTEX
 8
CAP_2_2
 10
0
 20
0
 30
0
 70
128
 71
11
 72
7
 73
8
 74
9
 0
VERTEX
 8
CAP_2_2
 10
0
 20
0
 30
0
 70
128
 71
9
 72
10
 73
11
 74
11
 0
VERTEX
 8
CAP_2_2
 10
0
 20
0
 30
0
 70
128
 71
15
 72
16
 73
17
 74
17
 0
VERTEX
 8
CAP_2_2
 10
0
 20
0
 30
0
 70
128
 71
21
 72
20
 73
37
 74
36
 0
VERTEX
 8
CAP_2_2
 10
0
 20
0
 30
0
 70
128
 71
18
 72
37
 73
20
 74
19
 0
VERTEX
 8
CAP_2_2
 10
0
 20
0
 30
0
 70
128
 71
36
 72
35
 73
21
 74
21
 0
VERTEX
 8
CAP_2_2
 10
0
 20
0
 30
0
 70
128
 71
35
 72
34
 73
21
 74
21
 0
VERTEX
 8
CAP_2_2
 10
0
 20
0
 30
0
 70
128
 71
34
 72
33
 73
21
 74
21
 0
VERTEX
 8
CAP_2_2
 10
0
 20
0
 30
0
 70
128
 71
33
 72
32
 73
21
 74
21
 0
VERTEX
 8
CAP_2_2
 10
0
 20
0
 30
0
 70
128
 71
32
 72
31
 73
21
 74
21
 0
VERTEX
 8
CAP_2_2
 10
0
 20
0
 30
0
 70
128
 71
22
 72
21
 73
31
 74
30
 0
VERTEX
 8
CAP_2_2
 10
0
 20
0
 30
0
 70
128
 71
23
 72
22
 73
30
 74
29
 0
VERTEX
 8
CAP_2_2
 10
0
 20
0
 30
0
 70
128
 71
23
 72
29
 73
28
 74
24
 0
VERTEX
 8
CAP_2_2
 10
0
 20
0
 30
0
 70
128
 71
28
 72
27
 73
24
 74
24
 0
VERTEX
 8
CAP_2_2
 10
0
 20
0
 30
0
 70
128
 71
27
 72
26
 73
25
 74
24
 0
SEQEND
 0
POLYLINE
 8
EXTRUDE_2
 66
1
 10
0.0
 20
0.0
 30
0.0
 70
64
 71
50
 72
25
 0
VERTEX
 8
EXTRUDE_2
 10
0.0137
 20
0.0107
 30
-0.2512
 70
192
 0
VERTEX
 8
EXTRUDE_2
 10
0.1693
 20
-0.0793
 30
-0.2563
 70
192
 0
VERTEX
 8
EXTRUDE_2
 10
0.1693
 20
-0.0793
 30
-0.2955
 70
192
 0
VERTEX
 8
EXTRUDE_2
 10
0.1618
 20
-0.075
 30
-0.3019
 70
192
 0
VERTEX
 8
EXTRUDE_2
 10
0.1269
 20
-0.0548
 30
-0.3012
 70
192
 0
VERTEX
 8
EXTRUDE_2
 10
0.1251
 20
-0.0537
 30
-0.2989
 70
192
 0
VERTEX
 8
EXTRUDE_2
 10
0.1238
 20
-0.053
 30
-0.2974
 70
192
 0
VERTEX
 8
EXTRUDE_2
 10
0.1232
 20
-0.0526
 30
-0.2968
 70
192
 0
VERTEX
 8
EXTRUDE_2
 10
0.1227
 20
-0.0523
 30
-0.2964
 70
192
 0
VERTEX
 8
EXTRUDE_2
 10
0.1225
 20
-0.0522
 30
-0.2963
 70
192
 0
VERTEX
 8
EXTRUDE_2
 10
0.1223
 20
-0.0521
 30
-0.2962
 70
192
 0
VERTEX
 8
EXTRUDE_2
 10
0.1222
 20
-0.052
 30
-0.2962
 70
192
 0
VERTEX
 8
EXTRUDE_2
 10
0.122
 20
-0.0519
 30
-0.2962
 70
192
 0
VERTEX
 8
EXTRUDE_2
 10
0.0312
 20
0.0006
 30
-0.293
 70
192
 0
VERTEX
 8
EXTRUDE_2
 10
0.0276
 20
0.0026
 30
-0.2973
 70
192
 0
VERTEX
 8
EXTRUDE_2
 10
0.0268
 20
0.0031
 30
-0.2981
 70
192
 0
VERTEX
 8
EXTRUDE_2
 10
0.0266
 20
0.0033
 30
-0.2983
 70
192
 0
VERTEX
 8
EXTRUDE_2
 10
0.0264
 20
0.0033
 30
-0.2984
 70
192
 0
VERTEX
 8
EXTRUDE_2
 10
0.0264
 20
0.0034
 30
-0.2984
 70
192
 0
VERTEX
 8
EXTRUDE_2
 10
0.0263
 20
0.0034
 30
-0.2984
 70
192
 0
VERTEX
 8
EXTRUDE_2
 10
0.0263
 20
0.0034
 30
-0.2984
 70
192
 0
VERTEX
 8
EXTRUDE_2
 10
0.0142
 20
0.0104
 30
-0.2991
 70
192
 0
VERTEX
 8
EXTRUDE_2
 10
0.0135
 20
0.0108
 30
-0.2521
 70
192
 0
VERTEX
 8
EXTRUDE_2
 10
0.0136
 20
0.0108
 30
-0.2514
 70
192
 0
VERTEX
 8
EXTRUDE_2
 10
0.0136
 20
0.0107
 30
-0.2513
 70
192
 0
VERTEX
 8
EXTRUDE_2
 10
-0.0013
 20
-0.0152
 30
-0.2512
 70
192
 0
VERTEX
 8
EXTRUDE_2
 10
0.1542
 20
-0.1052
 30
-0.2563
 70
192
 0
VERTEX
 8
EXTRUDE_2
 10
0.1542
 20
-0.1052
 30
-0.2955
 70
192
 0
VERTEX
 8
EXTRUDE_2
 10
0.1468
 20
-0.1009
 30
-0.3019
 70
192
 0
VERTEX
 8
EXTRUDE_2
 10
0.1119
 20
-0.0807
 30
-0.3012
 70
192
 0
VERTEX
 8
EXTRUDE_2
 10
0.1101
 20
-0.0797
 30
-0.2989
 70
192
 0
VERTEX
 8
EXTRUDE_2
 10
0.1088
 20
-0.0789
 30
-0.2974
 70
192
 0
VERTEX
 8
EXTRUDE_2
 10
0.1082
 20
-0.0786
 30
-0.2968
 70
192
 0
VERTEX
 8
EXTRUDE_2
 10
0.1077
 20
-0.0783
 30
-0.2964
 70
192
 0
VERTEX
 8
EXTRUDE_2
 10
0.1075
 20
-0.0782
 30
-0.2963
 70
192
 0
VERTEX
 8
EXTRUDE_2
 10
0.1072
 20
-0.0781
 30
-0.2962
 70
192
 0
VERTEX
 8
EXTRUDE_2
 10
0.1071
 20
-0.078
 30
-0.2962
 70
192
 0
VERTEX
 8
EXTRUDE_2
 10
0.107
 20
-0.0779
 30
-0.2962
 70
192
 0
VERTEX
 8
EXTRUDE_2
 10
0.0162
 20
-0.0254
 30
-0.293
 70
192
 0
VERTEX
 8
EXTRUDE_2
 10
0.0126
 20
-0.0233
 30
-0.2973
 70
192
 0
VERTEX
 8
EXTRUDE_2
 10
0.0118
 20
-0.0229
 30
-0.2981
 70
192
 0
VERTEX
 8
EXTRUDE_2
 10
0.0116
 20
-0.0227
 30
-0.2983
 70
192
 0
VERTEX
 8
EXTRUDE_2
 10
0.0114
 20
-0.0226
 30
-0.2984
 70
192
 0
VERTEX
 8
EXTRUDE_2
 10
0.0113
 20
-0.0226
 30
-0.2984
 70
192
 0
VERTEX
 8
EXTRUDE_2
 10
0.0113
 20
-0.0226
 30
-0.2984
 70
192
 0
VERTEX
 8
EXTRUDE_2
 10
0.0112
 20
-0.0225
 30
-0.2984
 70
192
 0
VERTEX
 8
EXTRUDE_2
 10
-0.0008
 20
-0.0156
 30
-0.2991
 70
192
 0
VERTEX
 8
EXTRUDE_2
 10
-0.0015
 20
-0.0152
 30
-0.2521
 70
192
 0
VERTEX
 8
EXTRUDE_2
 10
-0.0014
 20
-0.0152
 30
-0.2514
 70
192
 0
VERTEX
 8
EXTRUDE_2
 10
-0.0014
 20
-0.0152
 30
-0.2513
 70
192
 0
VERTEX
 8
EXTRUDE_2
 10
0
 20
0
 30
0
 70
128
 71
1
 72
2
 73
27
 74
26
 0
VERTEX
 8
EXTRUDE_2
 10
0
 20
0
 30
0
 70
128
 71
2
 72
3
 73
28
 74
27
 0
VERTEX
 8
EXTRUDE_2
 10
0
 20
0
 30
0
 70
128
 71
3
 72
4
 73
29
 74
28
 0
VERTEX
 8
EXTRUDE_2
 10
0
 20
0
 30
0
 70
128
 71
4
 72
5
 73
30
 74
29
 0
VERTEX
 8
EXTRUDE_2
 10
0
 20
0
 30
0
 70
128
 71
5
 72
6
 73
31
 74
30
 0
VERTEX
 8
EXTRUDE_2
 10
0
 20
0
 30
0
 70
128
 71
6
 72
7
 73
32
 74
31
 0
VERTEX
 8
EXTRUDE_2
 10
0
 20
0
 30
0
 70
128
 71
7
 72
8
 73
33
 74
32
 0
VERTEX
 8
EXTRUDE_2
 10
0
 20
0
 30
0
 70
128
 71
8
 72
9
 73
34
 74
33
 0
VERTEX
 8
EXTRUDE_2
 10
0
 20
0
 30
0
 70
128
 71
9
 72
10
 73
35
 74
34
 0
VERTEX
 8
EXTRUDE_2
 10
0
 20
0
 30
0
 70
128
 71
10
 72
11
 73
36
 74
35
 0
VERTEX
 8
EXTRUDE_2
 10
0
 20
0
 30
0
 70
128
 71
11
 72
12
 73
37
 74
36
 0
VERTEX
 8
EXTRUDE_2
 10
0
 20
0
 30
0
 70
128
 71
12
 72
13
 73
38
 74
37
 0
VERTEX
 8
EXTRUDE_2
 10
0
 20
0
 30
0
 70
128
 71
13
 72
14
 73
39
 74
38
 0
VERTEX
 8
EXTRUDE_2
 10
0
 20
0
 30
0
 70
128
 71
14
 72
15
 73
40
 74
39
 0
VERTEX
 8
EXTRUDE_2
 10
0
 20
0
 30
0
 70
128
 71
15
 72
16
 73
41
 74
40
 0
VERTEX
 8
EXTRUDE_2
 10
0
 20
0
 30
0
 70
128
 71
16
 72
17
 73
42
 74
41
 0
VERTEX
 8
EXTRUDE_2
 10
0
 20
0
 30
0
 70
128
 71
17
 72
18
 73
43
 74
42
 0
VERTEX
 8
EXTRUDE_2
 10
0
 20
0
 30
0
 70
128
 71
18
 72
19
 73
44
 74
43
 0
VERTEX
 8
EXTRUDE_2
 10
0
 20
0
 30
0
 70
128
 71
19
 72
20
 73
45
 74
44
 0
VERTEX
 8
EXTRUDE_2
 10
0
 20
0
 30
0
 70
128
 71
20
 72
21
 73
46
 74
45
 0
VERTEX
 8
EXTRUDE_2
 10
0
 20
0
 30
0
 70
128
 71
21
 72
22
 73
47
 74
46
 0
VERTEX
 8
EXTRUDE_2
 10
0
 20
0
 30
0
 70
128
 71
22
 72
23
 73
48
 74
47
 0
VERTEX
 8
EXTRUDE_2
 10
0
 20
0
 30
0
 70
128
 71
23
 72
24
 73
49
 74
48
 0
VERTEX
 8
EXTRUDE_2
 10
0
 20
0
 30
0
 70
128
 71
24
 72
25
 73
50
 74
49
 0
VERTEX
 8
EXTRUDE_2
 10
0
 20
0
 30
0
 70
128
 71
25
 72
1
 73
26
 74
50
 0
SEQEND
 0
POLYLINE
 8
CAP_1_3
 66
1
 10
0.0
 20
0.0
 30
0.0
 70
64
 71
25
 72
16
 0
VERTEX
 8
CAP_1_3
 10
0.0137
 20
0.0107
 30
-0.2512
 70
192
 0
VERTEX
 8
CAP_1_3
 10
0.1693
 20
-0.0793
 30
-0.2563
 70
192
 0
VERTEX
 8
CAP_1_3
 10
0.1693
 20
-0.0793
 30
-0.2955
 70
192
 0
VERTEX
 8
CAP_1_3
 10
0.1618
 20
-0.075
 30
-0.3019
 70
192
 0
VERTEX
 8
CAP_1_3
 10
0.1269
 20
-0.0548
 30
-0.3012
 70
192
 0
VERTEX
 8
CAP_1_3
 10
0.1251
 20
-0.0537
 30
-0.2989
 70
192
 0
VERTEX
 8
CAP_1_3
 10
0.1238
 20
-0.053
 30
-0.2974
 70
192
 0
VERTEX
 8
CAP_1_3
 10
0.1232
 20
-0.0526
 30
-0.2968
 70
192
 0
VERTEX
 8
CAP_1_3
 10
0.1227
 20
-0.0523
 30
-0.2964
 70
192
 0
VERTEX
 8
CAP_1_3
 10
0.1225
 20
-0.0522
 30
-0.2963
 70
192
 0
VERTEX
 8
CAP_1_3
 10
0.1223
 20
-0.0521
 30
-0.2962
 70
192
 0
VERTEX
 8
CAP_1_3
 10
0.1222
 20
-0.052
 30
-0.2962
 70
192
 0
VERTEX
 8
CAP_1_3
 10
0.122
 20
-0.0519
 30
-0.2962
 70
192
 0
VERTEX
 8
CAP_1_3
 10
0.0312
 20
0.0006
 30
-0.293
 70
192
 0
VERTEX
 8
CAP_1_3
 10
0.0276
 20
0.0026
 30
-0.2973
 70
192
 0
VERTEX
 8
CAP_1_3
 10
0.0268
 20
0.0031
 30
-0.2981
 70
192
 0
VERTEX
 8
CAP_1_3
 10
0.0266
 20
0.0033
 30
-0.2983
 70
192
 0
VERTEX
 8
CAP_1_3
 10
0.0264
 20
0.0033
 30
-0.2984
 70
192
 0
VERTEX
 8
CAP_1_3
 10
0.0264
 20
0.0034
 30
-0.2984
 70
192
 0
VERTEX
 8
CAP_1_3
 10
0.0263
 20
0.0034
 30
-0.2984
 70
192
 0
VERTEX
 8
CAP_1_3
 10
0.0263
 20
0.0034
 30
-0.2984
 70
192
 0
VERTEX
 8
CAP_1_3
 10
0.0142
 20
0.0104
 30
-0.2991
 70
192
 0
VERTEX
 8
CAP_1_3
 10
0.0135
 20
0.0108
 30
-0.2521
 70
192
 0
VERTEX
 8
CAP_1_3
 10
0.0136
 20
0.0108
 30
-0.2514
 70
192
 0
VERTEX
 8
CAP_1_3
 10
0.0136
 20
0.0107
 30
-0.2513
 70
192
 0
VERTEX
 8
CAP_1_3
 10
0
 20
0
 30
0
 70
128
 71
1
 72
25
 73
24
 74
23
 0
VERTEX
 8
CAP_1_3
 10
0
 20
0
 30
0
 70
128
 71
14
 72
23
 73
22
 74
15
 0
VERTEX
 8
CAP_1_3
 10
0
 20
0
 30
0
 70
128
 71
23
 72
14
 73
1
 74
1
 0
VERTEX
 8
CAP_1_3
 10
0
 20
0
 30
0
 70
128
 71
15
 72
22
 73
21
 74
16
 0
VERTEX
 8
CAP_1_3
 10
0
 20
0
 30
0
 70
128
 71
21
 72
20
 73
19
 74
18
 0
VERTEX
 8
CAP_1_3
 10
0
 20
0
 30
0
 70
128
 71
21
 72
18
 73
17
 74
16
 0
VERTEX
 8
CAP_1_3
 10
0
 20
0
 30
0
 70
128
 71
1
 72
14
 73
13
 74
2
 0
VERTEX
 8
CAP_1_3
 10
0
 20
0
 30
0
 70
128
 71
13
 72
12
 73
2
 74
2
 0
VERTEX
 8
CAP_1_3
 10
0
 20
0
 30
0
 70
128
 71
12
 72
11
 73
2
 74
2
 0
VERTEX
 8
CAP_1_3
 10
0
 20
0
 30
0
 70
128
 71
11
 72
10
 73
2
 74
2
 0
VERTEX
 8
CAP_1_3
 10
0
 20
0
 30
0
 70
128
 71
10
 72
9
 73
2
 74
2
 0
VERTEX
 8
CAP_1_3
 10
0
 20
0
 30
0
 70
128
 71
9
 72
8
 73
2
 74
2
 0
VERTEX
 8
CAP_1_3
 10
0
 20
0
 30
0
 70
128
 71
8
 72
7
 73
2
 74
2
 0
VERTEX
 8
CAP_1_3
 10
0
 20
0
 30
0
 70
128
 71
2
 72
7
 73
6
 74
4
 0
VERTEX
 8
CAP_1_3
 10
0
 20
0
 30
0
 70
128
 71
6
 72
5
 73
4
 74
4
 0
VERTEX
 8
CAP_1_3
 10
0
 20
0
 30
0
 70
128
 71
4
 72
3
 73
2
 74
2
 0
SEQEND
 0
POLYLINE
 8
CAP_2_3
 66
1
 10
0.0
 20
0.0
 30
0.0
 70
64
 71
25
 72
16
 0
VERTEX
 8
CAP_2_3
 10
-0.0013
 20
-0.0152
 30
-0.2512
 70
192
 0
VERTEX
 8
CAP_2_3
 10
0.1542
 20
-0.1052
 30
-0.2563
 70
192
 0
VERTEX
 8
CAP_2_3
 10
0.1542
 20
-0.1052
 30
-0.2955
 70
192
 0
VERTEX
 8
CAP_2_3
 10
0.1468
 20
-0.1009
 30
-0.3019
 70
192
 0
VERTEX
 8
CAP_2_3
 10
0.1119
 20
-0.0807
 30
-0.3012
 70
192
 0
VERTEX
 8
CAP_2_3
 10
0.1101
 20
-0.0797
 30
-0.2989
 70
192
 0
VERTEX
 8
CAP_2_3
 10
0.1088
 20
-0.0789
 30
-0.2974
 70
192
 0
VERTEX
 8
CAP_2_3
 10
0.1082
 20
-0.0786
 30
-0.2968
 70
192
 0
VERTEX
 8
CAP_2_3
 10
0.1077
 20
-0.0783
 30
-0.2964
 70
192
 0
VERTEX
 8
CAP_2_3
 10
0.1075
 20
-0.0782
 30
-0.2963
 70
192
 0
VERTEX
 8
CAP_2_3
 10
0.1072
 20
-0.0781
 30
-0.2962
 70
192
 0
VERTEX
 8
CAP_2_3
 10
0.1071
 20
-0.078
 30
-0.2962
 70
192
 0
VERTEX
 8
CAP_2_3
 10
0.107
 20
-0.0779
 30
-0.2962
 70
192
 0
VERTEX
 8
CAP_2_3
 10
0.0162
 20
-0.0254
 30
-0.293
 70
192
 0
VERTEX
 8
CAP_2_3
 10
0.0126
 20
-0.0233
 30
-0.2973
 70
192
 0
VERTEX
 8
CAP_2_3
 10
0.0118
 20
-0.0229
 30
-0.2981
 70
192
 0
VERTEX
 8
CAP_2_3
 10
0.0116
 20
-0.0227
 30
-0.2983
 70
192
 0
VERTEX
 8
CAP_2_3
 10
0.0114
 20
-0.0226
 30
-0.2984
 70
192
 0
VERTEX
 8
CAP_2_3
 10
0.0113
 20
-0.0226
 30
-0.2984
 70
192
 0
VERTEX
 8
CAP_2_3
 10
0.0113
 20
-0.0226
 30
-0.2984
 70
192
 0
VERTEX
 8
CAP_2_3
 10
0.0112
 20
-0.0225
 30
-0.2984
 70
192
 0
VERTEX
 8
CAP_2_3
 10
-0.0008
 20
-0.0156
 30
-0.2991
 70
192
 0
VERTEX
 8
CAP_2_3
 10
-0.0015
 20
-0.0152
 30
-0.2521
 70
192
 0
VERTEX
 8
CAP_2_3
 10
-0.0014
 20
-0.0152
 30
-0.2514
 70
192
 0
VERTEX
 8
CAP_2_3
 10
-0.0014
 20
-0.0152
 30
-0.2513
 70
192
 0
VERTEX
 8
CAP_2_3
 10
0
 20
0
 30
0
 70
128
 71
1
 72
23
 73
24
 74
25
 0
VERTEX
 8
CAP_2_3
 10
0
 20
0
 30
0
 70
128
 71
1
 72
2
 73
13
 74
14
 0
VERTEX
 8
CAP_2_3
 10
0
 20
0
 30
0
 70
128
 71
1
 72
14
 73
23
 74
23
 0
VERTEX
 8
CAP_2_3
 10
0
 20
0
 30
0
 70
128
 71
2
 72
3
 73
4
 74
4
 0
VERTEX
 8
CAP_2_3
 10
0
 20
0
 30
0
 70
128
 71
2
 72
4
 73
6
 74
7
 0
VERTEX
 8
CAP_2_3
 10
0
 20
0
 30
0
 70
128
 71
2
 72
7
 73
8
 74
8
 0
VERTEX
 8
CAP_2_3
 10
0
 20
0
 30
0
 70
128
 71
2
 72
8
 73
9
 74
9
 0
VERTEX
 8
CAP_2_3
 10
0
 20
0
 30
0
 70
128
 71
2
 72
9
 73
10
 74
10
 0
VERTEX
 8
CAP_2_3
 10
0
 20
0
 30
0
 70
128
 71
2
 72
10
 73
11
 74
11
 0
VERTEX
 8
CAP_2_3
 10
0
 20
0
 30
0
 70
128
 71
2
 72
11
 73
12
 74
12
 0
VERTEX
 8
CAP_2_3
 10
0
 20
0
 30
0
 70
128
 71
2
 72
12
 73
13
 74
13
 0
VERTEX
 8
CAP_2_3
 10
0
 20
0
 30
0
 70
128
 71
4
 72
5
 73
6
 74
6
 0
VERTEX
 8
CAP_2_3
 10
0
 20
0
 30
0
 70
128
 71
14
 72
15
 73
22
 74
23
 0
VERTEX
 8
CAP_2_3
 10
0
 20
0
 30
0
 70
128
 71
15
 72
16
 73
21
 74
22
 0
VERTEX
 8
CAP_2_3
 10
0
 20
0
 30
0
 70
128
 71
21
 72
16
 73
17
 74
18
 0
VERTEX
 8
CAP_2_3
 10
0
 20
0
 30
0
 70
128
 71
21
 72
18
 73
19
 74
20
 0
SEQEND
 0
POLYLINE
 8
EXTRUDE_1_2
 66
1
 10
0.0
 20
0.0
 30
0.0
 70
64
 71
74
 72
37
 0
VERTEX
 8
EXTRUDE_1_2
 10
-0.1543
 20
-0.0936
 30
0.2167
 70
192
 0
VERTEX
 8
EXTRUDE_1_2
 10
-0.155
 20
-0.0939
 30
0.2077
 70
192
 0
VERTEX
 8
EXTRUDE_1_2
 10
-0.155
 20
-0.0938
 30
0.1807
 70
192
 0
VERTEX
 8
EXTRUDE_1_2
 10
-0.151
 20
-0.0922
 30
0.1355
 70
192
 0
VERTEX
 8
EXTRUDE_1_2
 10
-0.1398
 20
-0.0876
 30
0.0716
 70
192
 0
VERTEX
 8
EXTRUDE_1_2
 10
-0.1143
 20
-0.0771
 30
-0.0243
 70
192
 0
VERTEX
 8
EXTRUDE_1_2
 10
-0.0771
 20
-0.0618
 30
-0.1287
 70
192
 0
VERTEX
 8
EXTRUDE_1_2
 10
-0.0228
 20
-0.0394
 30
-0.2524
 70
192
 0
VERTEX
 8
EXTRUDE_1_2
 10
-0.0078
 20
-0.0333
 30
-0.253
 70
192
 0
VERTEX
 8
EXTRUDE_1_2
 10
0.0072
 20
-0.0271
 30
-0.2536
 70
192
 0
VERTEX
 8
EXTRUDE_1_2
 10
-0.0448
 20
-0.0485
 30
-0.1326
 70
192
 0
VERTEX
 8
EXTRUDE_1_2
 10
-0.092
 20
-0.0679
 30
0.0063
 70
192
 0
VERTEX
 8
EXTRUDE_1_2
 10
-0.1135
 20
-0.0768
 30
0.0949
 70
192
 0
VERTEX
 8
EXTRUDE_1_2
 10
-0.1229
 20
-0.0806
 30
0.1574
 70
192
 0
VERTEX
 8
EXTRUDE_1_2
 10
-0.1248
 20
-0.0814
 30
0.1816
 70
192
 0
VERTEX
 8
EXTRUDE_1_2
 10
-0.1255
 20
-0.0817
 30
0.2167
 70
192
 0
VERTEX
 8
EXTRUDE_1_2
 10
-0.1399
 20
-0.0876
 30
0.2167
 70
192
 0
VERTEX
 8
EXTRUDE_1_2
 10
-0.0113
 20
-0.0347
 30
0.2107
 70
192
 0
VERTEX
 8
EXTRUDE_1_2
 10
0.0177
 20
-0.0228
 30
0.2107
 70
192
 0
VERTEX
 8
EXTRUDE_1_2
 10
0.0178
 20
-0.0227
 30
0.2052
 70
192
 0
VERTEX
 8
EXTRUDE_1_2
 10
0.0165
 20
-0.0232
 30
0.1841
 70
192
 0
VERTEX
 8
EXTRUDE_1_2
 10
0.0099
 20
-0.026
 30
0.1385
 70
192
 0
VERTEX
 8
EXTRUDE_1_2
 10
-0.0091
 20
-0.0338
 30
0.057
 70
192
 0
VERTEX
 8
EXTRUDE_1_2
 10
-0.0512
 20
-0.0511
 30
-0.0752
 70
192
 0
VERTEX
 8
EXTRUDE_1_2
 10
-0.1234
 20
-0.0808
 30
-0.2559
 70
192
 0
VERTEX
 8
EXTRUDE_1_2
 10
-0.1592
 20
-0.0956
 30
-0.2571
 70
192
 0
VERTEX
 8
EXTRUDE_1_2
 10
-0.1093
 20
-0.075
 30
-0.1516
 70
192
 0
VERTEX
 8
EXTRUDE_1_2
 10
-0.0607
 20
-0.055
 30
-0.0253
 70
192
 0
VERTEX
 8
EXTRUDE_1_2
 10
-0.0326
 20
-0.0435
 30
0.0714
 70
192
 0
VERTEX
 8
EXTRUDE_1_2
 10
-0.0221
 20
-0.0391
 30
0.1209
 70
192
 0
VERTEX
 8
EXTRUDE_1_2
 10
-0.0136
 20
-0.0356
 30
0.1823
 70
192
 0
VERTEX
 8
EXTRUDE_1_2
 10
-0.0135
 20
-0.0356
 30
0.1823
 70
192
 0
VERTEX
 8
EXTRUDE_1_2
 10
-0.0134
 20
-0.0356
 30
0.1825
 70
192
 0
VERTEX
 8
EXTRUDE_1_2
 10
-0.0134
 20
-0.0355
 30
0.1827
 70
192
 0
VERTEX
 8
EXTRUDE_1_2
 10
-0.0132
 20
-0.0355
 30
0.1832
 70
192
 0
VERTEX
 8
EXTRUDE_1_2
 10
-0.0129
 20
-0.0353
 30
0.1855
 70
192
 0
VERTEX
 8
EXTRUDE_1_2
 10
-0.0118
 20
-0.0349
 30
0.2009
 70
192
 0
VERTEX
 8
EXTRUDE_1_2
 10
-0.1657
 20
-0.0658
 30
0.2167
 70
192
 0
VERTEX
 8
EXTRUDE_1_2
 10
-0.1664
 20
-0.0661
 30
0.2077
 70
192
 0
VERTEX
 8
EXTRUDE_1_2
 10
-0.1664
 20
-0.0661
 30
0.1807
 70
192
 0
VERTEX
 8
EXTRUDE_1_2
 10
-0.1624
 20
-0.0645
 30
0.1355
 70
192
 0
VERTEX
 8
EXTRUDE_1_2
 10
-0.1512
 20
-0.0599
 30
0.0716
 70
192
 0
VERTEX
 8
EXTRUDE_1_2
 10
-0.1257
 20
-0.0494
 30
-0.0243
 70
192
 0
VERTEX
 8
EXTRUDE_1_2
 10
-0.0886
 20
-0.0341
 30
-0.1287
 70
192
 0
VERTEX
 8
EXTRUDE_1_2
 10
-0.0342
 20
-0.0117
 30
-0.2524
 70
192
 0
VERTEX
 8
EXTRUDE_1_2
 10
-0.0192
 20
-0.0055
 30
-0.253
 70
192
 0
VERTEX
 8
EXTRUDE_1_2
 10
-0.0043
 20
0.0006
 30
-0.2536
 70
192
 0
VERTEX
 8
EXTRUDE_1_2
 10
-0.0562
 20
-0.0207
 30
-0.1326
 70
192
 0
VERTEX
 8
EXTRUDE_1_2
 10
-0.1034
 20
-0.0402
 30
0.0063
 70
192
 0
VERTEX
 8
EXTRUDE_1_2
 10
-0.1249
 20
-0.049
 30
0.0949
 70
192
 0
VERTEX
 8
EXTRUDE_1_2
 10
-0.1343
 20
-0.0529
 30
0.1574
 70
192
 0
VERTEX
 8
EXTRUDE_1_2
 10
-0.1363
 20
-0.0537
 30
0.1816
 70
192
 0
VERTEX
 8
EXTRUDE_1_2
 10
-0.1369
 20
-0.054
 30
0.2167
 70
192
 0
VERTEX
 8
EXTRUDE_1_2
 10
-0.1513
 20
-0.0599
 30
0.2167
 70
192
 0
VERTEX
 8
EXTRUDE_1_2
 10
-0.0227
 20
-0.007
 30
0.2107
 70
192
 0
VERTEX
 8
EXTRUDE_1_2
 10
0.0063
 20
0.005
 30
0.2107
 70
192
 0
VERTEX
 8
EXTRUDE_1_2
 10
0.0064
 20
0.005
 30
0.2052
 70
192
 0
VERTEX
 8
EXTRUDE_1_2
 10
0.0051
 20
0.0045
 30
0.1841
 70
192
 0
VERTEX
 8
EXTRUDE_1_2
 10
-0.0015
 20
0.0018
 30
0.1385
 70
192
 0
VERTEX
 8
EXTRUDE_1_2
 10
-0.0205
 20
-0.006
 30
0.057
 70
192
 0
VERTEX
 8
EXTRUDE_1_2
 10
-0.0627
 20
-0.0234
 30
-0.0752
 70
192
 0
VERTEX
 8
EXTRUDE_1_2
 10
-0.1348
 20
-0.0531
 30
-0.2559
 70
192
 0
VERTEX
 8
EXTRUDE_1_2
 10
-0.1706
 20
-0.0679
 30
-0.2571
 70
192
 0
VERTEX
 8
EXTRUDE_1_2
 10
-0.1207
 20
-0.0473
 30
-0.1516
 70
192
 0
VERTEX
 8
EXTRUDE_1_2
 10
-0.0721
 20
-0.0273
 30
-0.0253
 70
192
 0
VERTEX
 8
EXTRUDE_1_2
 10
-0.0441
 20
-0.0157
 30
0.0714
 70
192
 0
VERTEX
 8
EXTRUDE_1_2
 10
-0.0335
 20
-0.0114
 30
0.1209
 70
192
 0
VERTEX
 8
EXTRUDE_1_2
 10
-0.025
 20
-0.0079
 30
0.1823
 70
192
 0
VERTEX
 8
EXTRUDE_1_2
 10
-0.0249
 20
-0.0079
 30
0.1823
 70
192
 0
VERTEX
 8
EXTRUDE_1_2
 10
-0.0249
 20
-0.0078
 30
0.1825
 70
192
 0
VERTEX
 8
EXTRUDE_1_2
 10
-0.0248
 20
-0.0078
 30
0.1827
 70
192
 0
VERTEX
 8
EXTRUDE_1_2
 10
-0.0246
 20
-0.0077
 30
0.1832
 70
192
 0
VERTEX
 8
EXTRUDE_1_2
 10
-0.0243
 20
-0.0076
 30
0.1855
 70
192
 0
VERTEX
 8
EXTRUDE_1_2
 10
-0.0232
 20
-0.0071
 30
0.2009
 70
192
 0
VERTEX
 8
EXTRUDE_1_2
 10
0
 20
0
 30
0
 70
128
 71
1
 72
2
 73
39
 74
38
 0
VERTEX
 8
EXTRUDE_1_2
 10
0
 20
0
 30
0
 70
128
 71
2
 72
3
 73
40
 74
39
 0
VERTEX
 8
EXTRUDE_1_2
 10
0
 20
0
 30
0
 70
128
 71
3
 72
4
 73
41
 74
40
 0
VERTEX
 8
EXTRUDE_1_2
 10
0
 20
0
 30
0
 70
128
 71
4
 72
5
 73
42
 74
41
 0
VERTEX
 8
EXTRUDE_1_2
 10
0
 20
0
 30
0
 70
128
 71
5
 72
6
 73
43
 74
42
 0
VERTEX
 8
EXTRUDE_1_2
 10
0
 20
0
 30
0
 70
128
 71
6
 72
7
 73
44
 74
43
 0
VERTEX
 8
EXTRUDE_1_2
 10
0
 20
0
 30
0
 70
128
 71
7
 72
8
 73
45
 74
44
 0
VERTEX
 8
EXTRUDE_1_2
 10
0
 20
0
 30
0
 70
128
 71
8
 72
9
 73
46
 74
45
 0
VERTEX
 8
EXTRUDE_1_2
 10
0
 20
0
 30
0
 70
128
 71
9
 72
10
 73
47
 74
46
 0
VERTEX
 8
EXTRUDE_1_2
 10
0
 20
0
 30
0
 70
128
 71
10
 72
11
 73
48
 74
47
 0
VERTEX
 8
EXTRUDE_1_2
 10
0
 20
0
 30
0
 70
128
 71
11
 72
12
 73
49
 74
48
 0
VERTEX
 8
EXTRUDE_1_2
 10
0
 20
0
 30
0
 70
128
 71
12
 72
13
 73
50
 74
49
 0
VERTEX
 8
EXTRUDE_1_2
 10
0
 20
0
 30
0
 70
128
 71
13
 72
14
 73
51
 74
50
 0
VERTEX
 8
EXTRUDE_1_2
 10
0
 20
0
 30
0
 70
128
 71
14
 72
15
 73
52
 74
51
 0
VERTEX
 8
EXTRUDE_1_2
 10
0
 20
0
 30
0
 70
128
 71
15
 72
16
 73
53
 74
52
 0
VERTEX
 8
EXTRUDE_1_2
 10
0
 20
0
 30
0
 70
128
 71
16
 72
17
 73
54
 74
53
 0
VERTEX
 8
EXTRUDE_1_2
 10
0
 20
0
 30
0
 70
128
 71
17
 72
1
 73
38
 74
54
 0
VERTEX
 8
EXTRUDE_1_2
 10
0
 20
0
 30
0
 70
128
 71
18
 72
55
 73
56
 74
19
 0
VERTEX
 8
EXTRUDE_1_2
 10
0
 20
0
 30
0
 70
128
 71
19
 72
56
 73
57
 74
20
 0
VERTEX
 8
EXTRUDE_1_2
 10
0
 20
0
 30
0
 70
128
 71
20
 72
57
 73
58
 74
21
 0
VERTEX
 8
EXTRUDE_1_2
 10
0
 20
0
 30
0
 70
128
 71
21
 72
58
 73
59
 74
22
 0
VERTEX
 8
EXTRUDE_1_2
 10
0
 20
0
 30
0
 70
128
 71
22
 72
59
 73
60
 74
23
 0
VERTEX
 8
EXTRUDE_1_2
 10
0
 20
0
 30
0
 70
128
 71
23
 72
60
 73
61
 74
24
 0
VERTEX
 8
EXTRUDE_1_2
 10
0
 20
0
 30
0
 70
128
 71
24
 72
61
 73
62
 74
25
 0
VERTEX
 8
EXTRUDE_1_2
 10
0
 20
0
 30
0
 70
128
 71
25
 72
62
 73
63
 74
26
 0
VERTEX
 8
EXTRUDE_1_2
 10
0
 20
0
 30
0
 70
128
 71
26
 72
63
 73
64
 74
27
 0
VERTEX
 8
EXTRUDE_1_2
 10
0
 20
0
 30
0
 70
128
 71
27
 72
64
 73
65
 74
28
 0
VERTEX
 8
EXTRUDE_1_2
 10
0
 20
0
 30
0
 70
128
 71
28
 72
65
 73
66
 74
29
 0
VERTEX
 8
EXTRUDE_1_2
 10
0
 20
0
 30
0
 70
128
 71
29
 72
66
 73
67
 74
30
 0
VERTEX
 8
EXTRUDE_1_2
 10
0
 20
0
 30
0
 70
128
 71
30
 72
67
 73
68
 74
31
 0
VERTEX
 8
EXTRUDE_1_2
 10
0
 20
0
 30
0
 70
128
 71
31
 72
68
 73
69
 74
32
 0
VERTEX
 8
EXTRUDE_1_2
 10
0
 20
0
 30
0
 70
128
 71
32
 72
69
 73
70
 74
33
 0
VERTEX
 8
EXTRUDE_1_2
 10
0
 20
0
 30
0
 70
128
 71
33
 72
70
 73
71
 74
34
 0
VERTEX
 8
EXTRUDE_1_2
 10
0
 20
0
 30
0
 70
128
 71
34
 72
71
 73
72
 74
35
 0
VERTEX
 8
EXTRUDE_1_2
 10
0
 20
0
 30
0
 70
128
 71
35
 72
72
 73
73
 74
36
 0
VERTEX
 8
EXTRUDE_1_2
 10
0
 20
0
 30
0
 70
128
 71
36
 72
73
 73
74
 74
37
 0
VERTEX
 8
EXTRUDE_1_2
 10
0
 20
0
 30
0
 70
128
 71
37
 72
74
 73
55
 74
18
 0
SEQEND
 0
POLYLINE
 8
CAP_1_4
 66
1
 10
0.0
 20
0.0
 30
0.0
 70
64
 71
37
 72
21
 0
VERTEX
 8
CAP_1_4
 10
-0.1543
 20
-0.0936
 30
0.2167
 70
192
 0
VERTEX
 8
CAP_1_4
 10
-0.155
 20
-0.0939
 30
0.2077
 70
192
 0
VERTEX
 8
CAP_1_4
 10
-0.155
 20
-0.0938
 30
0.1807
 70
192
 0
VERTEX
 8
CAP_1_4
 10
-0.151
 20
-0.0922
 30
0.1355
 70
192
 0
VERTEX
 8
CAP_1_4
 10
-0.1398
 20
-0.0876
 30
0.0716
 70
192
 0
VERTEX
 8
CAP_1_4
 10
-0.1143
 20
-0.0771
 30
-0.0243
 70
192
 0
VERTEX
 8
CAP_1_4
 10
-0.0771
 20
-0.0618
 30
-0.1287
 70
192
 0
VERTEX
 8
CAP_1_4
 10
-0.0228
 20
-0.0394
 30
-0.2524
 70
192
 0
VERTEX
 8
CAP_1_4
 10
-0.0078
 20
-0.0333
 30
-0.253
 70
192
 0
VERTEX
 8
CAP_1_4
 10
0.0072
 20
-0.0271
 30
-0.2536
 70
192
 0
VERTEX
 8
CAP_1_4
 10
-0.0448
 20
-0.0485
 30
-0.1326
 70
192
 0
VERTEX
 8
CAP_1_4
 10
-0.092
 20
-0.0679
 30
0.0063
 70
192
 0
VERTEX
 8
CAP_1_4
 10
-0.1135
 20
-0.0768
 30
0.0949
 70
192
 0
VERTEX
 8
CAP_1_4
 10
-0.1229
 20
-0.0806
 30
0.1574
 70
192
 0
VERTEX
 8
CAP_1_4
 10
-0.1248
 20
-0.0814
 30
0.1816
 70
192
 0
VERTEX
 8
CAP_1_4
 10
-0.1255
 20
-0.0817
 30
0.2167
 70
192
 0
VERTEX
 8
CAP_1_4
 10
-0.1399
 20
-0.0876
 30
0.2167
 70
192
 0
VERTEX
 8
CAP_1_4
 10
-0.0113
 20
-0.0347
 30
0.2107
 70
192
 0
VERTEX
 8
CAP_1_4
 10
0.0177
 20
-0.0228
 30
0.2107
 70
192
 0
VERTEX
 8
CAP_1_4
 10
0.0178
 20
-0.0227
 30
0.2052
 70
192
 0
VERTEX
 8
CAP_1_4
 10
0.0165
 20
-0.0232
 30
0.1841
 70
192
 0
VERTEX
 8
CAP_1_4
 10
0.0099
 20
-0.026
 30
0.1385
 70
192
 0
VERTEX
 8
CAP_1_4
 10
-0.0091
 20
-0.0338
 30
0.057
 70
192
 0
VERTEX
 8
CAP_1_4
 10
-0.0512
 20
-0.0511
 30
-0.0752
 70
192
 0
VERTEX
 8
CAP_1_4
 10
-0.1234
 20
-0.0808
 30
-0.2559
 70
192
 0
VERTEX
 8
CAP_1_4
 10
-0.1592
 20
-0.0956
 30
-0.2571
 70
192
 0
VERTEX
 8
CAP_1_4
 10
-0.1093
 20
-0.075
 30
-0.1516
 70
192
 0
VERTEX
 8
CAP_1_4
 10
-0.0607
 20
-0.055
 30
-0.0253
 70
192
 0
VERTEX
 8
CAP_1_4
 10
-0.0326
 20
-0.0435
 30
0.0714
 70
192
 0
VERTEX
 8
CAP_1_4
 10
-0.0221
 20
-0.0391
 30
0.1209
 70
192
 0
VERTEX
 8
CAP_1_4
 10
-0.0136
 20
-0.0356
 30
0.1823
 70
192
 0
VERTEX
 8
CAP_1_4
 10
-0.0135
 20
-0.0356
 30
0.1823
 70
192
 0
VERTEX
 8
CAP_1_4
 10
-0.0134
 20
-0.0356
 30
0.1825
 70
192
 0
VERTEX
 8
CAP_1_4
 10
-0.0134
 20
-0.0355
 30
0.1827
 70
192
 0
VERTEX
 8
CAP_1_4
 10
-0.0132
 20
-0.0355
 30
0.1832
 70
192
 0
VERTEX
 8
CAP_1_4
 10
-0.0129
 20
-0.0353
 30
0.1855
 70
192
 0
VERTEX
 8
CAP_1_4
 10
-0.0118
 20
-0.0349
 30
0.2009
 70
192
 0
VERTEX
 8
CAP_1_4
 10
0
 20
0
 30
0
 70
128
 71
17
 72
16
 73
15
 74
15
 0
VERTEX
 8
CAP_1_4
 10
0
 20
0
 30
0
 70
128
 71
2
 72
17
 73
15
 74
3
 0
VERTEX
 8
CAP_1_4
 10
0
 20
0
 30
0
 70
128
 71
17
 72
2
 73
1
 74
1
 0
VERTEX
 8
CAP_1_4
 10
0
 20
0
 30
0
 70
128
 71
3
 72
15
 73
14
 74
4
 0
VERTEX
 8
CAP_1_4
 10
0
 20
0
 30
0
 70
128
 71
4
 72
14
 73
13
 74
5
 0
VERTEX
 8
CAP_1_4
 10
0
 20
0
 30
0
 70
128
 71
5
 72
13
 73
12
 74
6
 0
VERTEX
 8
CAP_1_4
 10
0
 20
0
 30
0
 70
128
 71
6
 72
12
 73
11
 74
7
 0
VERTEX
 8
CAP_1_4
 10
0
 20
0
 30
0
 70
128
 71
11
 72
10
 73
9
 74
9
 0
VERTEX
 8
CAP_1_4
 10
0
 20
0
 30
0
 70
128
 71
11
 72
9
 73
8
 74
7
 0
VERTEX
 8
CAP_1_4
 10
0
 20
0
 30
0
 70
128
 71
18
 72
19
 73
20
 74
37
 0
VERTEX
 8
CAP_1_4
 10
0
 20
0
 30
0
 70
128
 71
37
 72
20
 73
21
 74
36
 0
VERTEX
 8
CAP_1_4
 10
0
 20
0
 30
0
 70
128
 71
31
 72
21
 73
22
 74
30
 0
VERTEX
 8
CAP_1_4
 10
0
 20
0
 30
0
 70
128
 71
21
 72
31
 73
32
 74
32
 0
VERTEX
 8
CAP_1_4
 10
0
 20
0
 30
0
 70
128
 71
21
 72
32
 73
33
 74
33
 0
VERTEX
 8
CAP_1_4
 10
0
 20
0
 30
0
 70
128
 71
21
 72
33
 73
34
 74
34
 0
VERTEX
 8
CAP_1_4
 10
0
 20
0
 30
0
 70
128
 71
21
 72
34
 73
35
 74
35
 0
VERTEX
 8
CAP_1_4
 10
0
 20
0
 30
0
 70
128
 71
21
 72
35
 73
36
 74
36
 0
VERTEX
 8
CAP_1_4
 10
0
 20
0
 30
0
 70
128
 71
30
 72
22
 73
23
 74
29
 0
VERTEX
 8
CAP_1_4
 10
0
 20
0
 30
0
 70
128
 71
23
 72
24
 73
28
 74
29
 0
VERTEX
 8
CAP_1_4
 10
0
 20
0
 30
0
 70
128
 71
27
 72
24
 73
25
 74
26
 0
VERTEX
 8
CAP_1_4
 10
0
 20
0
 30
0
 70
128
 71
24
 72
27
 73
28
 74
28
 0
SEQEND
 0
POLYLINE
 8
CAP_2_4
 66
1
 10
0.0
 20
0.0
 30
0.0
 70
64
 71
37
 72
21
 0
VERTEX
 8
CAP_2_4
 10
-0.1657
 20
-0.0658
 30
0.2167
 70
192
 0
VERTEX
 8
CAP_2_4
 10
-0.1664
 20
-0.0661
 30
0.2077
 70
192
 0
VERTEX
 8
CAP_2_4
 10
-0.1664
 20
-0.0661
 30
0.1807
 70
192
 0
VERTEX
 8
CAP_2_4
 10
-0.1624
 20
-0.0645
 30
0.1355
 70
192
 0
VERTEX
 8
CAP_2_4
 10
-0.1512
 20
-0.0599
 30
0.0716
 70
192
 0
VERTEX
 8
CAP_2_4
 10
-0.1257
 20
-0.0494
 30
-0.0243
 70
192
 0
VERTEX
 8
CAP_2_4
 10
-0.0886
 20
-0.0341
 30
-0.1287
 70
192
 0
VERTEX
 8
CAP_2_4
 10
-0.0342
 20
-0.0117
 30
-0.2524
 70
192
 0
VERTEX
 8
CAP_2_4
 10
-0.0192
 20
-0.0055
 30
-0.253
 70
192
 0
VERTEX
 8
CAP_2_4
 10
-0.0043
 20
0.0006
 30
-0.2536
 70
192
 0
VERTEX
 8
CAP_2_4
 10
-0.0562
 20
-0.0207
 30
-0.1326
 70
192
 0
VERTEX
 8
CAP_2_4
 10
-0.1034
 20
-0.0402
 30
0.0063
 70
192
 0
VERTEX
 8
CAP_2_4
 10
-0.1249
 20
-0.049
 30
0.0949
 70
192
 0
VERTEX
 8
CAP_2_4
 10
-0.1343
 20
-0.0529
 30
0.1574
 70
192
 0
VERTEX
 8
CAP_2_4
 10
-0.1363
 20
-0.0537
 30
0.1816
 70
192
 0
VERTEX
 8
CAP_2_4
 10
-0.1369
 20
-0.054
 30
0.2167
 70
192
 0
VERTEX
 8
CAP_2_4
 10
-0.1513
 20
-0.0599
 30
0.2167
 70
192
 0
VERTEX
 8
CAP_2_4
 10
-0.0227
 20
-0.007
 30
0.2107
 70
192
 0
VERTEX
 8
CAP_2_4
 10
0.0063
 20
0.005
 30
0.2107
 70
192
 0
VERTEX
 8
CAP_2_4
 10
0.0064
 20
0.005
 30
0.2052
 70
192
 0
VERTEX
 8
CAP_2_4
 10
0.0051
 20
0.0045
 30
0.1841
 70
192
 0
VERTEX
 8
CAP_2_4
 10
-0.0015
 20
0.0018
 30
0.1385
 70
192
 0
VERTEX
 8
CAP_2_4
 10
-0.0205
 20
-0.006
 30
0.057
 70
192
 0
VERTEX
 8
CAP_2_4
 10
-0.0627
 20
-0.0234
 30
-0.0752
 70
192
 0
VERTEX
 8
CAP_2_4
 10
-0.1348
 20
-0.0531
 30
-0.2559
 70
192
 0
VERTEX
 8
CAP_2_4
 10
-0.1706
 20
-0.0679
 30
-0.2571
 70
192
 0
VERTEX
 8
CAP_2_4
 10
-0.1207
 20
-0.0473
 30
-0.1516
 70
192
 0
VERTEX
 8
CAP_2_4
 10
-0.0721
 20
-0.0273
 30
-0.0253
 70
192
 0
VERTEX
 8
CAP_2_4
 10
-0.0441
 20
-0.0157
 30
0.0714
 70
192
 0
VERTEX
 8
CAP_2_4
 10
-0.0335
 20
-0.0114
 30
0.1209
 70
192
 0
VERTEX
 8
CAP_2_4
 10
-0.025
 20
-0.0079
 30
0.1823
 70
192
 0
VERTEX
 8
CAP_2_4
 10
-0.0249
 20
-0.0079
 30
0.1823
 70
192
 0
VERTEX
 8
CAP_2_4
 10
-0.0249
 20
-0.0078
 30
0.1825
 70
192
 0
VERTEX
 8
CAP_2_4
 10
-0.0248
 20
-0.0078
 30
0.1827
 70
192
 0
VERTEX
 8
CAP_2_4
 10
-0.0246
 20
-0.0077
 30
0.1832
 70
192
 0
VERTEX
 8
CAP_2_4
 10
-0.0243
 20
-0.0076
 30
0.1855
 70
192
 0
VERTEX
 8
CAP_2_4
 10
-0.0232
 20
-0.0071
 30
0.2009
 70
192
 0
VERTEX
 8
CAP_2_4
 10
0
 20
0
 30
0
 70
128
 71
1
 72
2
 73
17
 74
17
 0
VERTEX
 8
CAP_2_4
 10
0
 20
0
 30
0
 70
128
 71
2
 72
3
 73
15
 74
17
 0
VERTEX
 8
CAP_2_4
 10
0
 20
0
 30
0
 70
128
 71
3
 72
4
 73
14
 74
15
 0
VERTEX
 8
CAP_2_4
 10
0
 20
0
 30
0
 70
128
 71
4
 72
5
 73
13
 74
14
 0
VERTEX
 8
CAP_2_4
 10
0
 20
0
 30
0
 70
128
 71
5
 72
6
 73
12
 74
13
 0
VERTEX
 8
CAP_2_4
 10
0
 20
0
 30
0
 70
128
 71
6
 72
7
 73
11
 74
12
 0
VERTEX
 8
CAP_2_4
 10
0
 20
0
 30
0
 70
128
 71
11
 72
7
 73
8
 74
9
 0
VERTEX
 8
CAP_2_4
 10
0
 20
0
 30
0
 70
128
 71
9
 72
10
 73
11
 74
11
 0
VERTEX
 8
CAP_2_4
 10
0
 20
0
 30
0
 70
128
 71
15
 72
16
 73
17
 74
17
 0
VERTEX
 8
CAP_2_4
 10
0
 20
0
 30
0
 70
128
 71
21
 72
20
 73
37
 74
36
 0
VERTEX
 8
CAP_2_4
 10
0
 20
0
 30
0
 70
128
 71
18
 72
37
 73
20
 74
19
 0
VERTEX
 8
CAP_2_4
 10
0
 20
0
 30
0
 70
128
 71
36
 72
35
 73
21
 74
21
 0
VERTEX
 8
CAP_2_4
 10
0
 20
0
 30
0
 70
128
 71
35
 72
34
 73
21
 74
21
 0
VERTEX
 8
CAP_2_4
 10
0
 20
0
 30
0
 70
128
 71
34
 72
33
 73
21
 74
21
 0
VERTEX
 8
CAP_2_4
 10
0
 20
0
 30
0
 70
128
 71
33
 72
32
 73
21
 74
21
 0
VERTEX
 8
CAP_2_4
 10
0
 20
0
 30
0
 70
128
 71
32
 72
31
 73
21
 74
21
 0
VERTEX
 8
CAP_2_4
 10
0
 20
0
 30
0
 70
128
 71
22
 72
21
 73
31
 74
30
 0
VERTEX
 8
CAP_2_4
 10
0
 20
0
 30
0
 70
128
 71
23
 72
22
 73
30
 74
29
 0
VERTEX
 8
CAP_2_4
 10
0
 20
0
 30
0
 70
128
 71
23
 72
29
 73
28
 74
24
 0
VERTEX
 8
CAP_2_4
 10
0
 20
0
 30
0
 70
128
 71
28
 72
27
 73
24
 74
24
 0
VERTEX
 8
CAP_2_4
 10
0
 20
0
 30
0
 70
128
 71
27
 72
26
 73
25
 74
24
 0
SEQEND
 0
POLYLINE
 8
EXTRUDE_3
 66
1
 10
0.0
 20
0.0
 30
0.0
 70
64
 71
50
 72
25
 0
VERTEX
 8
EXTRUDE_3
 10
0.0069
 20
-0.0272
 30
-0.2512
 70
192
 0
VERTEX
 8
EXTRUDE_3
 10
-0.1593
 20
-0.0956
 30
-0.2563
 70
192
 0
VERTEX
 8
EXTRUDE_3
 10
-0.1593
 20
-0.0956
 30
-0.2955
 70
192
 0
VERTEX
 8
EXTRUDE_3
 10
-0.1513
 20
-0.0923
 30
-0.3019
 70
192
 0
VERTEX
 8
EXTRUDE_3
 10
-0.114
 20
-0.077
 30
-0.3012
 70
192
 0
VERTEX
 8
EXTRUDE_3
 10
-0.1121
 20
-0.0762
 30
-0.2989
 70
192
 0
VERTEX
 8
EXTRUDE_3
 10
-0.1107
 20
-0.0756
 30
-0.2974
 70
192
 0
VERTEX
 8
EXTRUDE_3
 10
-0.11
 20
-0.0753
 30
-0.2968
 70
192
 0
VERTEX
 8
EXTRUDE_3
 10
-0.1095
 20
-0.0751
 30
-0.2964
 70
192
 0
VERTEX
 8
EXTRUDE_3
 10
-0.1093
 20
-0.075
 30
-0.2963
 70
192
 0
VERTEX
 8
EXTRUDE_3
 10
-0.1091
 20
-0.0749
 30
-0.2962
 70
192
 0
VERTEX
 8
EXTRUDE_3
 10
-0.109
 20
-0.0749
 30
-0.2962
 70
192
 0
VERTEX
 8
EXTRUDE_3
 10
-0.1088
 20
-0.0748
 30
-0.2962
 70
192
 0
VERTEX
 8
EXTRUDE_3
 10
-0.0118
 20
-0.0349
 30
-0.293
 70
192
 0
VERTEX
 8
EXTRUDE_3
 10
-0.008
 20
-0.0333
 30
-0.2973
 70
192
 0
VERTEX
 8
EXTRUDE_3
 10
-0.0071
 20
-0.033
 30
-0.2981
 70
192
 0
VERTEX
 8
EXTRUDE_3
 10
-0.0068
 20
-0.0329
 30
-0.2983
 70
192
 0
VERTEX
 8
EXTRUDE_3
 10
-0.0067
 20
-0.0328
 30
-0.2984
 70
192
 0
VERTEX
 8
EXTRUDE_3
 10
-0.0066
 20
-0.0328
 30
-0.2984
 70
192
 0
VERTEX
 8
EXTRUDE_3
 10
-0.0066
 20
-0.0327
 30
-0.2984
 70
192
 0
VERTEX
 8
EXTRUDE_3
 10
-0.0065
 20
-0.0327
 30
-0.2984
 70
192
 0
VERTEX
 8
EXTRUDE_3
 10
0.0063
 20
-0.0274
 30
-0.2991
 70
192
 0
VERTEX
 8
EXTRUDE_3
 10
0.0071
 20
-0.0271
 30
-0.2521
 70
192
 0
VERTEX
 8
EXTRUDE_3
 10
0.007
 20
-0.0272
 30
-0.2514
 70
192
 0
VERTEX
 8
EXTRUDE_3
 10
0.007
 20
-0.0272
 30
-0.2513
 70
192
 0
VERTEX
 8
EXTRUDE_3
 10
-0.0045
 20
0.0006
 30
-0.2512
 70
192
 0
VERTEX
 8
EXTRUDE_3
 10
-0.1707
 20
-0.0679
 30
-0.2563
 70
192
 0
VERTEX
 8
EXTRUDE_3
 10
-0.1707
 20
-0.0679
 30
-0.2955
 70
192
 0
VERTEX
 8
EXTRUDE_3
 10
-0.1627
 20
-0.0646
 30
-0.3019
 70
192
 0
VERTEX
 8
EXTRUDE_3
 10
-0.1254
 20
-0.0492
 30
-0.3012
 70
192
 0
VERTEX
 8
EXTRUDE_3
 10
-0.1235
 20
-0.0485
 30
-0.2989
 70
192
 0
VERTEX
 8
EXTRUDE_3
 10
-0.1221
 20
-0.0479
 30
-0.2974
 70
192
 0
VERTEX
 8
EXTRUDE_3
 10
-0.1215
 20
-0.0476
 30
-0.2968
 70
192
 0
VERTEX
 8
EXTRUDE_3
 10
-0.1209
 20
-0.0474
 30
-0.2964
 70
192
 0
VERTEX
 8
EXTRUDE_3
 10
-0.1207
 20
-0.0473
 30
-0.2963
 70
192
 0
VERTEX
 8
EXTRUDE_3
 10
-0.1205
 20
-0.0472
 30
-0.2962
 70
192
 0
VERTEX
 8
EXTRUDE_3
 10
-0.1204
 20
-0.0472
 30
-0.2962
 70
192
 0
VERTEX
 8
EXTRUDE_3
 10
-0.1202
 20
-0.0471
 30
-0.2962
 70
192
 0
VERTEX
 8
EXTRUDE_3
 10
-0.0232
 20
-0.0071
 30
-0.293
 70
192
 0
VERTEX
 8
EXTRUDE_3
 10
-0.0194
 20
-0.0056
 30
-0.2973
 70
192
 0
VERTEX
 8
EXTRUDE_3
 10
-0.0186
 20
-0.0052
 30
-0.2981
 70
192
 0
VERTEX
 8
EXTRUDE_3
 10
-0.0183
 20
-0.0051
 30
-0.2983
 70
192
 0
VERTEX
 8
EXTRUDE_3
 10
-0.0181
 20
-0.0051
 30
-0.2984
 70
192
 0
VERTEX
 8
EXTRUDE_3
 10
-0.018
 20
-0.005
 30
-0.2984
 70
192
 0
VERTEX
 8
EXTRUDE_3
 10
-0.018
 20
-0.005
 30
-0.2984
 70
192
 0
VERTEX
 8
EXTRUDE_3
 10
-0.0179
 20
-0.005
 30
-0.2984
 70
192
 0
VERTEX
 8
EXTRUDE_3
 10
-0.0051
 20
0.0003
 30
-0.2991
 70
192
 0
VERTEX
 8
EXTRUDE_3
 10
-0.0043
 20
0.0006
 30
-0.2521
 70
192
 0
VERTEX
 8
EXTRUDE_3
 10
-0.0044
 20
0.0006
 30
-0.2514
 70
192
 0
VERTEX
 8
EXTRUDE_3
 10
-0.0044
 20
0.0006
 30
-0.2513
 70
192
 0
VERTEX
 8
EXTRUDE_3
 10
0
 20
0
 30
0
 70
128
 71
1
 72
2
 73
27
 74
26
 0
VERTEX
 8
EXTRUDE_3
 10
0
 20
0
 30
0
 70
128
 71
2
 72
3
 73
28
 74
27
 0
VERTEX
 8
EXTRUDE_3
 10
0
 20
0
 30
0
 70
128
 71
3
 72
4
 73
29
 74
28
 0
VERTEX
 8
EXTRUDE_3
 10
0
 20
0
 30
0
 70
128
 71
4
 72
5
 73
30
 74
29
 0
VERTEX
 8
EXTRUDE_3
 10
0
 20
0
 30
0
 70
128
 71
5
 72
6
 73
31
 74
30
 0
VERTEX
 8
EXTRUDE_3
 10
0
 20
0
 30
0
 70
128
 71
6
 72
7
 73
32
 74
31
 0
VERTEX
 8
EXTRUDE_3
 10
0
 20
0
 30
0
 70
128
 71
7
 72
8
 73
33
 74
32
 0
VERTEX
 8
EXTRUDE_3
 10
0
 20
0
 30
0
 70
128
 71
8
 72
9
 73
34
 74
33
 0
VERTEX
 8
EXTRUDE_3
 10
0
 20
0
 30
0
 70
128
 71
9
 72
10
 73
35
 74
34
 0
VERTEX
 8
EXTRUDE_3
 10
0
 20
0
 30
0
 70
128
 71
10
 72
11
 73
36
 74
35
 0
VERTEX
 8
EXTRUDE_3
 10
0
 20
0
 30
0
 70
128
 71
11
 72
12
 73
37
 74
36
 0
VERTEX
 8
EXTRUDE_3
 10
0
 20
0
 30
0
 70
128
 71
12
 72
13
 73
38
 74
37
 0
VERTEX
 8
EXTRUDE_3
 10
0
 20
0
 30
0
 70
128
 71
13
 72
14
 73
39
 74
38
 0
VERTEX
 8
EXTRUDE_3
 10
0
 20
0
 30
0
 70
128
 71
14
 72
15
 73
40
 74
39
 0
VERTEX
 8
EXTRUDE_3
 10
0
 20
0
 30
0
 70
128
 71
15
 72
16
 73
41
 74
40
 0
VERTEX
 8
EXTRUDE_3
 10
0
 20
0
 30
0
 70
128
 71
16
 72
17
 73
42
 74
41
 0
VERTEX
 8
EXTRUDE_3
 10
0
 20
0
 30
0
 70
128
 71
17
 72
18
 73
43
 74
42
 0
VERTEX
 8
EXTRUDE_3
 10
0
 20
0
 30
0
 70
128
 71
18
 72
19
 73
44
 74
43
 0
VERTEX
 8
EXTRUDE_3
 10
0
 20
0
 30
0
 70
128
 71
19
 72
20
 73
45
 74
44
 0
VERTEX
 8
EXTRUDE_3
 10
0
 20
0
 30
0
 70
128
 71
20
 72
21
 73
46
 74
45
 0
VERTEX
 8
EXTRUDE_3
 10
0
 20
0
 30
0
 70
128
 71
21
 72
22
 73
47
 74
46
 0
VERTEX
 8
EXTRUDE_3
 10
0
 20
0
 30
0
 70
128
 71
22
 72
23
 73
48
 74
47
 0
VERTEX
 8
EXTRUDE_3
 10
0
 20
0
 30
0
 70
128
 71
23
 72
24
 73
49
 74
48
 0
VERTEX
 8
EXTRUDE_3
 10
0
 20
0
 30
0
 70
128
 71
24
 72
25
 73
50
 74
49
 0
VERTEX
 8
EXTRUDE_3
 10
0
 20
0
 30
0
 70
128
 71
25
 72
1
 73
26
 74
50
 0
SEQEND
 0
POLYLINE
 8
CAP_1_5
 66
1
 10
0.0
 20
0.0
 30
0.0
 70
64
 71
25
 72
16
 0
VERTEX
 8
CAP_1_5
 10
0.0069
 20
-0.0272
 30
-0.2512
 70
192
 0
VERTEX
 8
CAP_1_5
 10
-0.1593
 20
-0.0956
 30
-0.2563
 70
192
 0
VERTEX
 8
CAP_1_5
 10
-0.1593
 20
-0.0956
 30
-0.2955
 70
192
 0
VERTEX
 8
CAP_1_5
 10
-0.1513
 20
-0.0923
 30
-0.3019
 70
192
 0
VERTEX
 8
CAP_1_5
 10
-0.114
 20
-0.077
 30
-0.3012
 70
192
 0
VERTEX
 8
CAP_1_5
 10
-0.1121
 20
-0.0762
 30
-0.2989
 70
192
 0
VERTEX
 8
CAP_1_5
 10
-0.1107
 20
-0.0756
 30
-0.2974
 70
192
 0
VERTEX
 8
CAP_1_5
 10
-0.11
 20
-0.0753
 30
-0.2968
 70
192
 0
VERTEX
 8
CAP_1_5
 10
-0.1095
 20
-0.0751
 30
-0.2964
 70
192
 0
VERTEX
 8
CAP_1_5
 10
-0.1093
 20
-0.075
 30
-0.2963
 70
192
 0
VERTEX
 8
CAP_1_5
 10
-0.1091
 20
-0.0749
 30
-0.2962
 70
192
 0
VERTEX
 8
CAP_1_5
 10
-0.109
 20
-0.0749
 30
-0.2962
 70
192
 0
VERTEX
 8
CAP_1_5
 10
-0.1088
 20
-0.0748
 30
-0.2962
 70
192
 0
VERTEX
 8
CAP_1_5
 10
-0.0118
 20
-0.0349
 30
-0.293
 70
192
 0
VERTEX
 8
CAP_1_5
 10
-0.008
 20
-0.0333
 30
-0.2973
 70
192
 0
VERTEX
 8
CAP_1_5
 10
-0.0071
 20
-0.033
 30
-0.2981
 70
192
 0
VERTEX
 8
CAP_1_5
 10
-0.0068
 20
-0.0329
 30
-0.2983
 70
192
 0
VERTEX
 8
CAP_1_5
 10
-0.0067
 20
-0.0328
 30
-0.2984
 70
192
 0
VERTEX
 8
CAP_1_5
 10
-0.0066
 20
-0.0328
 30
-0.2984
 70
192
 0
VERTEX
 8
CAP_1_5
 10
-0.0066
 20
-0.0327
 30
-0.2984
 70
192
 0
VERTEX
 8
CAP_1_5
 10
-0.0065
 20
-0.0327
 30
-0.2984
 70
192
 0
VERTEX
 8
CAP_1_5
 10
0.0063
 20
-0.0274
 30
-0.2991
 70
192
 0
VERTEX
 8
CAP_1_5
 10
0.0071
 20
-0.0271
 30
-0.2521
 70
192
 0
VERTEX
 8
CAP_1_5
 10
0.007
 20
-0.0272
 30
-0.2514
 70
192
 0
VERTEX
 8
CAP_1_5
 10
0.007
 20
-0.0272
 30
-0.2513
 70
192
 0
VERTEX
 8
CAP_1_5
 10
0
 20
0
 30
0
 70
128
 71
1
 72
25
 73
24
 74
23
 0
VERTEX
 8
CAP_1_5
 10
0
 20
0
 30
0
 70
128
 71
14
 72
23
 73
22
 74
15
 0
VERTEX
 8
CAP_1_5
 10
0
 20
0
 30
0
 70
128
 71
23
 72
14
 73
1
 74
1
 0
VERTEX
 8
CAP_1_5
 10
0
 20
0
 30
0
 70
128
 71
15
 72
22
 73
21
 74
16
 0
VERTEX
 8
CAP_1_5
 10
0
 20
0
 30
0
 70
128
 71
21
 72
20
 73
19
 74
18
 0
VERTEX
 8
CAP_1_5
 10
0
 20
0
 30
0
 70
128
 71
21
 72
18
 73
17
 74
16
 0
VERTEX
 8
CAP_1_5
 10
0
 20
0
 30
0
 70
128
 71
1
 72
14
 73
13
 74
2
 0
VERTEX
 8
CAP_1_5
 10
0
 20
0
 30
0
 70
128
 71
13
 72
12
 73
2
 74
2
 0
VERTEX
 8
CAP_1_5
 10
0
 20
0
 30
0
 70
128
 71
12
 72
11
 73
2
 74
2
 0
VERTEX
 8
CAP_1_5
 10
0
 20
0
 30
0
 70
128
 71
11
 72
10
 73
2
 74
2
 0
VERTEX
 8
CAP_1_5
 10
0
 20
0
 30
0
 70
128
 71
10
 72
9
 73
2
 74
2
 0
VERTEX
 8
CAP_1_5
 10
0
 20
0
 30
0
 70
128
 71
9
 72
8
 73
2
 74
2
 0
VERTEX
 8
CAP_1_5
 10
0
 20
0
 30
0
 70
128
 71
8
 72
7
 73
2
 74
2
 0
VERTEX
 8
CAP_1_5
 10
0
 20
0
 30
0
 70
128
 71
2
 72
7
 73
6
 74
4
 0
VERTEX
 8
CAP_1_5
 10
0
 20
0
 30
0
 70
128
 71
6
 72
5
 73
4
 74
4
 0
VERTEX
 8
CAP_1_5
 10
0
 20
0
 30
0
 70
128
 71
4
 72
3
 73
2
 74
2
 0
SEQEND
 0
POLYLINE
 8
CAP_2_5
 66
1
 10
0.0
 20
0.0
 30
0.0
 70
64
 71
25
 72
16
 0
VERTEX
 8
CAP_2_5
 10
-0.0045
 20
0.0006
 30
-0.2512
 70
192
 0
VERTEX
 8
CAP_2_5
 10
-0.1707
 20
-0.0679
 30
-0.2563
 70
192
 0
VERTEX
 8
CAP_2_5
 10
-0.1707
 20
-0.0679
 30
-0.2955
 70
192
 0
VERTEX
 8
CAP_2_5
 10
-0.1627
 20
-0.0646
 30
-0.3019
 70
192
 0
VERTEX
 8
CAP_2_5
 10
-0.1254
 20
-0.0492
 30
-0.3012
 70
192
 0
VERTEX
 8
CAP_2_5
 10
-0.1235
 20
-0.0485
 30
-0.2989
 70
192
 0
VERTEX
 8
CAP_2_5
 10
-0.1221
 20
-0.0479
 30
-0.2974
 70
192
 0
VERTEX
 8
CAP_2_5
 10
-0.1215
 20
-0.0476
 30
-0.2968
 70
192
 0
VERTEX
 8
CAP_2_5
 10
-0.1209
 20
-0.0474
 30
-0.2964
 70
192
 0
VERTEX
 8
CAP_2_5
 10
-0.1207
 20
-0.0473
 30
-0.2963
 70
192
 0
VERTEX
 8
CAP_2_5
 10
-0.1205
 20
-0.0472
 30
-0.2962
 70
192
 0
VERTEX
 8
CAP_2_5
 10
-0.1204
 20
-0.0472
 30
-0.2962
 70
192
 0
VERTEX
 8
CAP_2_5
 10
-0.1202
 20
-0.0471
 30
-0.2962
 70
192
 0
VERTEX
 8
CAP_2_5
 10
-0.0232
 20
-0.0071
 30
-0.293
 70
192
 0
VERTEX
 8
CAP_2_5
 10
-0.0194
 20
-0.0056
 30
-0.2973
 70
192
 0
VERTEX
 8
CAP_2_5
 10
-0.0186
 20
-0.0052
 30
-0.2981
 70
192
 0
VERTEX
 8
CAP_2_5
 10
-0.0183
 20
-0.0051
 30
-0.2983
 70
192
 0
VERTEX
 8
CAP_2_5
 10
-0.0181
 20
-0.0051
 30
-0.2984
 70
192
 0
VERTEX
 8
CAP_2_5
 10
-0.018
 20
-0.005
 30
-0.2984
 70
192
 0
VERTEX
 8
CAP_2_5
 10
-0.018
 20
-0.005
 30
-0.2984
 70
192
 0
VERTEX
 8
CAP_2_5
 10
-0.0179
 20
-0.005
 30
-0.2984
 70
192
 0
VERTEX
 8
CAP_2_5
 10
-0.0051
 20
0.0003
 30
-0.2991
 70
192
 0
VERTEX
 8
CAP_2_5
 10
-0.0043
 20
0.0006
 30
-0.2521
 70
192
 0
VERTEX
 8
CAP_2_5
 10
-0.0044
 20
0.0006
 30
-0.2514
 70
192
 0
VERTEX
 8
CAP_2_5
 10
-0.0044
 20
0.0006
 30
-0.2513
 70
192
 0
VERTEX
 8
CAP_2_5
 10
0
 20
0
 30
0
 70
128
 71
1
 72
23
 73
24
 74
25
 0
VERTEX
 8
CAP_2_5
 10
0
 20
0
 30
0
 70
128
 71
1
 72
2
 73
13
 74
14
 0
VERTEX
 8
CAP_2_5
 10
0
 20
0
 30
0
 70
128
 71
1
 72
14
 73
23
 74
23
 0
VERTEX
 8
CAP_2_5
 10
0
 20
0
 30
0
 70
128
 71
2
 72
3
 73
4
 74
4
 0
VERTEX
 8
CAP_2_5
 10
0
 20
0
 30
0
 70
128
 71
2
 72
4
 73
6
 74
7
 0
VERTEX
 8
CAP_2_5
 10
0
 20
0
 30
0
 70
128
 71
2
 72
7
 73
8
 74
8
 0
VERTEX
 8
CAP_2_5
 10
0
 20
0
 30
0
 70
128
 71
2
 72
8
 73
9
 74
9
 0
VERTEX
 8
CAP_2_5
 10
0
 20
0
 30
0
 70
128
 71
2
 72
9
 73
10
 74
10
 0
VERTEX
 8
CAP_2_5
 10
0
 20
0
 30
0
 70
128
 71
2
 72
10
 73
11
 74
11
 0
VERTEX
 8
CAP_2_5
 10
0
 20
0
 30
0
 70
128
 71
2
 72
11
 73
12
 74
12
 0
VERTEX
 8
CAP_2_5
 10
0
 20
0
 30
0
 70
128
 71
2
 72
12
 73
13
 74
13
 0
VERTEX
 8
CAP_2_5
 10
0
 20
0
 30
0
 70
128
 71
4
 72
5
 73
6
 74
6
 0
VERTEX
 8
CAP_2_5
 10
0
 20
0
 30
0
 70
128
 71
14
 72
15
 73
22
 74
23
 0
VERTEX
 8
CAP_2_5
 10
0
 20
0
 30
0
 70
128
 71
15
 72
16
 73
21
 74
22
 0
VERTEX
 8
CAP_2_5
 10
0
 20
0
 30
0
 70
128
 71
21
 72
16
 73
17
 74
18
 0
VERTEX
 8
CAP_2_5
 10
0
 20
0
 30
0
 70
128
 71
21
 72
18
 73
19
 74
20
 0
SEQEND
 0
POLYLINE
 8
CYLINDER_1
 66
1
 10
0.0
 20
0.0
 30
0.0
 70
64
 71
146
 72
108
 0
VERTEX
 8
CYLINDER_1
 10
0
 20
0
 30
0.2089
 70
192
 0
VERTEX
 8
CYLINDER_1
 10
0
 20
0
 30
0.2389
 70
192
 0
VERTEX
 8
CYLINDER_1
 10
0.2035
 20
0
 30
0.2089
 70
192
 0
VERTEX
 8
CYLINDER_1
 10
0.2035
 20
0
 30
0.2089
 70
192
 0
VERTEX
 8
CYLINDER_1
 10
0.2035
 20
0
 30
0.2389
 70
192
 0
VERTEX
 8
CYLINDER_1
 10
0.2035
 20
0
 30
0.2389
 70
192
 0
VERTEX
 8
CYLINDER_1
 10
0.2004
 20
0.0353
 30
0.2089
 70
192
 0
VERTEX
 8
CYLINDER_1
 10
0.2004
 20
0.0353
 30
0.2089
 70
192
 0
VERTEX
 8
CYLINDER_1
 10
0.2004
 20
0.0353
 30
0.2389
 70
192
 0
VERTEX
 8
CYLINDER_1
 10
0.2004
 20
0.0353
 30
0.2389
 70
192
 0
VERTEX
 8
CYLINDER_1
 10
0.1912
 20
0.0696
 30
0.2089
 70
192
 0
VERTEX
 8
CYLINDER_1
 10
0.1912
 20
0.0696
 30
0.2089
 70
192
 0
VERTEX
 8
CYLINDER_1
 10
0.1912
 20
0.0696
 30
0.2389
 70
192
 0
VERTEX
 8
CYLINDER_1
 10
0.1912
 20
0.0696
 30
0.2389
 70
192
 0
VERTEX
 8
CYLINDER_1
 10
0.1762
 20
0.1017
 30
0.2089
 70
192
 0
VERTEX
 8
CYLINDER_1
 10
0.1762
 20
0.1017
 30
0.2089
 70
192
 0
VERTEX
 8
CYLINDER_1
 10
0.1762
 20
0.1017
 30
0.2389
 70
192
 0
VERTEX
 8
CYLINDER_1
 10
0.1762
 20
0.1017
 30
0.2389
 70
192
 0
VERTEX
 8
CYLINDER_1
 10
0.1559
 20
0.1308
 30
0.2089
 70
192
 0
VERTEX
 8
CYLINDER_1
 10
0.1559
 20
0.1308
 30
0.2089
 70
192
 0
VERTEX
 8
CYLINDER_1
 10
0.1559
 20
0.1308
 30
0.2389
 70
192
 0
VERTEX
 8
CYLINDER_1
 10
0.1559
 20
0.1308
 30
0.2389
 70
192
 0
VERTEX
 8
CYLINDER_1
 10
0.1308
 20
0.1559
 30
0.2089
 70
192
 0
VERTEX
 8
CYLINDER_1
 10
0.1308
 20
0.1559
 30
0.2089
 70
192
 0
VERTEX
 8
CYLINDER_1
 10
0.1308
 20
0.1559
 30
0.2389
 70
192
 0
VERTEX
 8
CYLINDER_1
 10
0.1308
 20
0.1559
 30
0.2389
 70
192
 0
VERTEX
 8
CYLINDER_1
 10
0.1017
 20
0.1762
 30
0.2089
 70
192
 0
VERTEX
 8
CYLINDER_1
 10
0.1017
 20
0.1762
 30
0.2089
 70
192
 0
VERTEX
 8
CYLINDER_1
 10
0.1017
 20
0.1762
 30
0.2389
 70
192
 0
VERTEX
 8
CYLINDER_1
 10
0.1017
 20
0.1762
 30
0.2389
 70
192
 0
VERTEX
 8
CYLINDER_1
 10
0.0696
 20
0.1912
 30
0.2089
 70
192
 0
VERTEX
 8
CYLINDER_1
 10
0.0696
 20
0.1912
 30
0.2089
 70
192
 0
VERTEX
 8
CYLINDER_1
 10
0.0696
 20
0.1912
 30
0.2389
 70
192
 0
VERTEX
 8
CYLINDER_1
 10
0.0696
 20
0.1912
 30
0.2389
 70
192
 0
VERTEX
 8
CYLINDER_1
 10
0.0353
 20
0.2004
 30
0.2089
 70
192
 0
VERTEX
 8
CYLINDER_1
 10
0.0353
 20
0.2004
 30
0.2089
 70
192
 0
VERTEX
 8
CYLINDER_1
 10
0.0353
 20
0.2004
 30
0.2389
 70
192
 0
VERTEX
 8
CYLINDER_1
 10
0.0353
 20
0.2004
 30
0.2389
 70
192
 0
VERTEX
 8
CYLINDER_1
 10
0
 20
0.2035
 30
0.2089
 70
192
 0
VERTEX
 8
CYLINDER_1
 10
0
 20
0.2035
 30
0.2089
 70
192
 0
VERTEX
 8
CYLINDER_1
 10
0
 20
0.2035
 30
0.2389
 70
192
 0
VERTEX
 8
CYLINDER_1
 10
0
 20
0.2035
 30
0.2389
 70
192
 0
VERTEX
 8
CYLINDER_1
 10
-0.0353
 20
0.2004
 30
0.2089
 70
192
 0
VERTEX
 8
CYLINDER_1
 10
-0.0353
 20
0.2004
 30
0.2089
 70
192
 0
VERTEX
 8
CYLINDER_1
 10
-0.0353
 20
0.2004
 30
0.2389
 70
192
 0
VERTEX
 8
CYLINDER_1
 10
-0.0353
 20
0.2004
 30
0.2389
 70
192
 0
VERTEX
 8
CYLINDER_1
 10
-0.0696
 20
0.1912
 30
0.2089
 70
192
 0
VERTEX
 8
CYLINDER_1
 10
-0.0696
 20
0.1912
 30
0.2089
 70
192
 0
VERTEX
 8
CYLINDER_1
 10
-0.0696
 20
0.1912
 30
0.2389
 70
192
 0
VERTEX
 8
CYLINDER_1
 10
-0.0696
 20
0.1912
 30
0.2389
 70
192
 0
VERTEX
 8
CYLINDER_1
 10
-0.1017
 20
0.1762
 30
0.2089
 70
192
 0
VERTEX
 8
CYLINDER_1
 10
-0.1017
 20
0.1762
 30
0.2089
 70
192
 0
VERTEX
 8
CYLINDER_1
 10
-0.1017
 20
0.1762
 30
0.2389
 70
192
 0
VERTEX
 8
CYLINDER_1
 10
-0.1017
 20
0.1762
 30
0.2389
 70
192
 0
VERTEX
 8
CYLINDER_1
 10
-0.1308
 20
0.1559
 30
0.2089
 70
192
 0
VERTEX
 8
CYLINDER_1
 10
-0.1308
 20
0.1559
 30
0.2089
 70
192
 0
VERTEX
 8
CYLINDER_1
 10
-0.1308
 20
0.1559
 30
0.2389
 70
192
 0
VERTEX
 8
CYLINDER_1
 10
-0.1308
 20
0.1559
 30
0.2389
 70
192
 0
VERTEX
 8
CYLINDER_1
 10
-0.1559
 20
0.1308
 30
0.2089
 70
192
 0
VERTEX
 8
CYLINDER_1
 10
-0.1559
 20
0.1308
 30
0.2089
 70
192
 0
VERTEX
 8
CYLINDER_1
 10
-0.1559
 20
0.1308
 30
0.2389
 70
192
 0
VERTEX
 8
CYLINDER_1
 10
-0.1559
 20
0.1308
 30
0.2389
 70
192
 0
VERTEX
 8
CYLINDER_1
 10
-0.1762
 20
0.1017
 30
0.2089
 70
192
 0
VERTEX
 8
CYLINDER_1
 10
-0.1762
 20
0.1017
 30
0.2089
 70
192
 0
VERTEX
 8
CYLINDER_1
 10
-0.1762
 20
0.1017
 30
0.2389
 70
192
 0
VERTEX
 8
CYLINDER_1
 10
-0.1762
 20
0.1017
 30
0.2389
 70
192
 0
VERTEX
 8
CYLINDER_1
 10
-0.1912
 20
0.0696
 30
0.2089
 70
192
 0
VERTEX
 8
CYLINDER_1
 10
-0.1912
 20
0.0696
 30
0.2089
 70
192
 0
VERTEX
 8
CYLINDER_1
 10
-0.1912
 20
0.0696
 30
0.2389
 70
192
 0
VERTEX
 8
CYLINDER_1
 10
-0.1912
 20
0.0696
 30
0.2389
 70
192
 0
VERTEX
 8
CYLINDER_1
 10
-0.2004
 20
0.0353
 30
0.2089
 70
192
 0
VERTEX
 8
CYLINDER_1
 10
-0.2004
 20
0.0353
 30
0.2089
 70
192
 0
VERTEX
 8
CYLINDER_1
 10
-0.2004
 20
0.0353
 30
0.2389
 70
192
 0
VERTEX
 8
CYLINDER_1
 10
-0.2004
 20
0.0353
 30
0.2389
 70
192
 0
VERTEX
 8
CYLINDER_1
 10
-0.2035
 20
0
 30
0.2089
 70
192
 0
VERTEX
 8
CYLINDER_1
 10
-0.2035
 20
0
 30
0.2089
 70
192
 0
VERTEX
 8
CYLINDER_1
 10
-0.2035
 20
0
 30
0.2389
 70
192
 0
VERTEX
 8
CYLINDER_1
 10
-0.2035
 20
0
 30
0.2389
 70
192
 0
VERTEX
 8
CYLINDER_1
 10
-0.2004
 20
-0.0353
 30
0.2089
 70
192
 0
VERTEX
 8
CYLINDER_1
 10
-0.2004
 20
-0.0353
 30
0.2089
 70
192
 0
VERTEX
 8
CYLINDER_1
 10
-0.2004
 20
-0.0353
 30
0.2389
 70
192
 0
VERTEX
 8
CYLINDER_1
 10
-0.2004
 20
-0.0353
 30
0.2389
 70
192
 0
VERTEX
 8
CYLINDER_1
 10
-0.1912
 20
-0.0696
 30
0.2089
 70
192
 0
VERTEX
 8
CYLINDER_1
 10
-0.1912
 20
-0.0696
 30
0.2089
 70
192
 0
VERTEX
 8
CYLINDER_1
 10
-0.1912
 20
-0.0696
 30
0.2389
 70
192
 0
VERTEX
 8
CYLINDER_1
 10
-0.1912
 20
-0.0696
 30
0.2389
 70
192
 0
VERTEX
 8
CYLINDER_1
 10
-0.1762
 20
-0.1017
 30
0.2089
 70
192
 0
VERTEX
 8
CYLINDER_1
 10
-0.1762
 20
-0.1017
 30
0.2089
 70
192
 0
VERTEX
 8
CYLINDER_1
 10
-0.1762
 20
-0.1017
 30
0.2389
 70
192
 0
VERTEX
 8
CYLINDER_1
 10
-0.1762
 20
-0.1017
 30
0.2389
 70
192
 0
VERTEX
 8
CYLINDER_1
 10
-0.1559
 20
-0.1308
 30
0.2089
 70
192
 0
VERTEX
 8
CYLINDER_1
 10
-0.1559
 20
-0.1308
 30
0.2089
 70
192
 0
VERTEX
 8
CYLINDER_1
 10
-0.1559
 20
-0.1308
 30
0.2389
 70
192
 0
VERTEX
 8
CYLINDER_1
 10
-0.1559
 20
-0.1308
 30
0.2389
 70
192
 0
VERTEX
 8
CYLINDER_1
 10
-0.1308
 20
-0.1559
 30
0.2089
 70
192
 0
VERTEX
 8
CYLINDER_1
 10
-0.1308
 20
-0.1559
 30
0.2089
 70
192
 0
VERTEX
 8
CYLINDER_1
 10
-0.1308
 20
-0.1559
 30
0.2389
 70
192
 0
VERTEX
 8
CYLINDER_1
 10
-0.1308
 20
-0.1559
 30
0.2389
 70
192
 0
VERTEX
 8
CYLINDER_1
 10
-0.1017
 20
-0.1762
 30
0.2089
 70
192
 0
VERTEX
 8
CYLINDER_1
 10
-0.1017
 20
-0.1762
 30
0.2089
 70
192
 0
VERTEX
 8
CYLINDER_1
 10
-0.1017
 20
-0.1762
 30
0.2389
 70
192
 0
VERTEX
 8
CYLINDER_1
 10
-0.1017
 20
-0.1762
 30
0.2389
 70
192
 0
VERTEX
 8
CYLINDER_1
 10
-0.0696
 20
-0.1912
 30
0.2089
 70
192
 0
VERTEX
 8
CYLINDER_1
 10
-0.0696
 20
-0.1912
 30
0.2089
 70
192
 0
VERTEX
 8
CYLINDER_1
 10
-0.0696
 20
-0.1912
 30
0.2389
 70
192
 0
VERTEX
 8
CYLINDER_1
 10
-0.0696
 20
-0.1912
 30
0.2389
 70
192
 0
VERTEX
 8
CYLINDER_1
 10
-0.0353
 20
-0.2004
 30
0.2089
 70
192
 0
VERTEX
 8
CYLINDER_1
 10
-0.0353
 20
-0.2004
 30
0.2089
 70
192
 0
VERTEX
 8
CYLINDER_1
 10
-0.0353
 20
-0.2004
 30
0.2389
 70
192
 0
VERTEX
 8
CYLINDER_1
 10
-0.0353
 20
-0.2004
 30
0.2389
 70
192
 0
VERTEX
 8
CYLINDER_1
 10
0
 20
-0.2035
 30
0.2089
 70
192
 0
VERTEX
 8
CYLINDER_1
 10
0
 20
-0.2035
 30
0.2089
 70
192
 0
VERTEX
 8
CYLINDER_1
 10
0
 20
-0.2035
 30
0.2389
 70
192
 0
VERTEX
 8
CYLINDER_1
 10
0
 20
-0.2035
 30
0.2389
 70
192
 0
VERTEX
 8
CYLINDER_1
 10
0.0353
 20
-0.2004
 30
0.2089
 70
192
 0
VERTEX
 8
CYLINDER_1
 10
0.0353
 20
-0.2004
 30
0.2089
 70
192
 0
VERTEX
 8
CYLINDER_1
 10
0.0353
 20
-0.2004
 30
0.2389
 70
192
 0
VERTEX
 8
CYLINDER_1
 10
0.0353
 20
-0.2004
 30
0.2389
 70
192
 0
VERTEX
 8
CYLINDER_1
 10
0.0696
 20
-0.1912
 30
0.2089
 70
192
 0
VERTEX
 8
CYLINDER_1
 10
0.0696
 20
-0.1912
 30
0.2089
 70
192
 0
VERTEX
 8
CYLINDER_1
 10
0.0696
 20
-0.1912
 30
0.2389
 70
192
 0
VERTEX
 8
CYLINDER_1
 10
0.0696
 20
-0.1912
 30
0.2389
 70
192
 0
VERTEX
 8
CYLINDER_1
 10
0.1017
 20
-0.1762
 30
0.2089
 70
192
 0
VERTEX
 8
CYLINDER_1
 10
0.1017
 20
-0.1762
 30
0.2089
 70
192
 0
VERTEX
 8
CYLINDER_1
 10
0.1017
 20
-0.1762
 30
0.2389
 70
192
 0
VERTEX
 8
CYLINDER_1
 10
0.1017
 20
-0.1762
 30
0.2389
 70
192
 0
VERTEX
 8
CYLINDER_1
 10
0.1308
 20
-0.1559
 30
0.2089
 70
192
 0
VERTEX
 8
CYLINDER_1
 10
0.1308
 20
-0.1559
 30
0.2089
 70
192
 0
VERTEX
 8
CYLINDER_1
 10
0.1308
 20
-0.1559
 30
0.2389
 70
192
 0
VERTEX
 8
CYLINDER_1
 10
0.1308
 20
-0.1559
 30
0.2389
 70
192
 0
VERTEX
 8
CYLINDER_1
 10
0.1559
 20
-0.1308
 30
0.2089
 70
192
 0
VERTEX
 8
CYLINDER_1
 10
0.1559
 20
-0.1308
 30
0.2089
 70
192
 0
VERTEX
 8
CYLINDER_1
 10
0.1559
 20
-0.1308
 30
0.2389
 70
192
 0
VERTEX
 8
CYLINDER_1
 10
0.1559
 20
-0.1308
 30
0.2389
 70
192
 0
VERTEX
 8
CYLINDER_1
 10
0.1762
 20
-0.1017
 30
0.2089
 70
192
 0
VERTEX
 8
CYLINDER_1
 10
0.1762
 20
-0.1017
 30
0.2089
 70
192
 0
VERTEX
 8
CYLINDER_1
 10
0.1762
 20
-0.1017
 30
0.2389
 70
192
 0
VERTEX
 8
CYLINDER_1
 10
0.1762
 20
-0.1017
 30
0.2389
 70
192
 0
VERTEX
 8
CYLINDER_1
 10
0.1912
 20
-0.0696
 30
0.2089
 70
192
 0
VERTEX
 8
CYLINDER_1
 10
0.1912
 20
-0.0696
 30
0.2089
 70
192
 0
VERTEX
 8
CYLINDER_1
 10
0.1912
 20
-0.0696
 30
0.2389
 70
192
 0
VERTEX
 8
CYLINDER_1
 10
0.1912
 20
-0.0696
 30
0.2389
 70
192
 0
VERTEX
 8
CYLINDER_1
 10
0.2004
 20
-0.0353
 30
0.2089
 70
192
 0
VERTEX
 8
CYLINDER_1
 10
0.2004
 20
-0.0353
 30
0.2089
 70
192
 0
VERTEX
 8
CYLINDER_1
 10
0.2004
 20
-0.0353
 30
0.2389
 70
192
 0
VERTEX
 8
CYLINDER_1
 10
0.2004
 20
-0.0353
 30
0.2389
 70
192
 0
VERTEX
 8
CYLINDER_1
 10
0
 20
0
 30
0
 70
128
 71
1
 72
3
 73
7
 74
7
 0
VERTEX
 8
CYLINDER_1
 10
0
 20
0
 30
0
 70
128
 71
4
 72
5
 73
9
 74
8
 0
VERTEX
 8
CYLINDER_1
 10
0
 20
0
 30
0
 70
128
 71
6
 72
2
 73
10
 74
10
 0
VERTEX
 8
CYLINDER_1
 10
0
 20
0
 30
0
 70
128
 71
1
 72
7
 73
11
 74
11
 0
VERTEX
 8
CYLINDER_1
 10
0
 20
0
 30
0
 70
128
 71
8
 72
9
 73
13
 74
12
 0
VERTEX
 8
CYLINDER_1
 10
0
 20
0
 30
0
 70
128
 71
10
 72
2
 73
14
 74
14
 0
VERTEX
 8
CYLINDER_1
 10
0
 20
0
 30
0
 70
128
 71
1
 72
11
 73
15
 74
15
 0
VERTEX
 8
CYLINDER_1
 10
0
 20
0
 30
0
 70
128
 71
12
 72
13
 73
17
 74
16
 0
VERTEX
 8
CYLINDER_1
 10
0
 20
0
 30
0
 70
128
 71
14
 72
2
 73
18
 74
18
 0
VERTEX
 8
CYLINDER_1
 10
0
 20
0
 30
0
 70
128
 71
1
 72
15
 73
19
 74
19
 0
VERTEX
 8
CYLINDER_1
 10
0
 20
0
 30
0
 70
128
 71
16
 72
17
 73
21
 74
20
 0
VERTEX
 8
CYLINDER_1
 10
0
 20
0
 30
0
 70
128
 71
18
 72
2
 73
22
 74
22
 0
VERTEX
 8
CYLINDER_1
 10
0
 20
0
 30
0
 70
128
 71
1
 72
19
 73
23
 74
23
 0
VERTEX
 8
CYLINDER_1
 10
0
 20
0
 30
0
 70
128
 71
20
 72
21
 73
25
 74
24
 0
VERTEX
 8
CYLINDER_1
 10
0
 20
0
 30
0
 70
128
 71
22
 72
2
 73
26
 74
26
 0
VERTEX
 8
CYLINDER_1
 10
0
 20
0
 30
0
 70
128
 71
1
 72
23
 73
27
 74
27
 0
VERTEX
 8
CYLINDER_1
 10
0
 20
0
 30
0
 70
128
 71
24
 72
25
 73
29
 74
28
 0
VERTEX
 8
CYLINDER_1
 10
0
 20
0
 30
0
 70
128
 71
26
 72
2
 73
30
 74
30
 0
VERTEX
 8
CYLINDER_1
 10
0
 20
0
 30
0
 70
128
 71
1
 72
27
 73
31
 74
31
 0
VERTEX
 8
CYLINDER_1
 10
0
 20
0
 30
0
 70
128
 71
28
 72
29
 73
33
 74
32
 0
VERTEX
 8
CYLINDER_1
 10
0
 20
0
 30
0
 70
128
 71
30
 72
2
 73
34
 74
34
 0
VERTEX
 8
CYLINDER_1
 10
0
 20
0
 30
0
 70
128
 71
1
 72
31
 73
35
 74
35
 0
VERTEX
 8
CYLINDER_1
 10
0
 20
0
 30
0
 70
128
 71
32
 72
33
 73
37
 74
36
 0
VERTEX
 8
CYLINDER_1
 10
0
 20
0
 30
0
 70
128
 71
34
 72
2
 73
38
 74
38
 0
VERTEX
 8
CYLINDER_1
 10
0
 20
0
 30
0
 70
128
 71
1
 72
35
 73
39
 74
39
 0
VERTEX
 8
CYLINDER_1
 10
0
 20
0
 30
0
 70
128
 71
36
 72
37
 73
41
 74
40
 0
VERTEX
 8
CYLINDER_1
 10
0
 20
0
 30
0
 70
128
 71
38
 72
2
 73
42
 74
42
 0
VERTEX
 8
CYLINDER_1
 10
0
 20
0
 30
0
 70
128
 71
1
 72
39
 73
43
 74
43
 0
VERTEX
 8
CYLINDER_1
 10
0
 20
0
 30
0
 70
128
 71
40
 72
41
 73
45
 74
44
 0
VERTEX
 8
CYLINDER_1
 10
0
 20
0
 30
0
 70
128
 71
42
 72
2
 73
46
 74
46
 0
VERTEX
 8
CYLINDER_1
 10
0
 20
0
 30
0
 70
128
 71
1
 72
43
 73
47
 74
47
 0
VERTEX
 8
CYLINDER_1
 10
0
 20
0
 30
0
 70
128
 71
44
 72
45
 73
49
 74
48
 0
VERTEX
 8
CYLINDER_1
 10
0
 20
0
 30
0
 70
128
 71
46
 72
2
 73
50
 74
50
 0
VERTEX
 8
CYLINDER_1
 10
0
 20
0
 30
0
 70
128
 71
1
 72
47
 73
51
 74
51
 0
VERTEX
 8
CYLINDER_1
 10
0
 20
0
 30
0
 70
128
 71
48
 72
49
 73
53
 74
52
 0
VERTEX
 8
CYLINDER_1
 10
0
 20
0
 30
0
 70
128
 71
50
 72
2
 73
54
 74
54
 0
VERTEX
 8
CYLINDER_1
 10
0
 20
0
 30
0
 70
128
 71
1
 72
51
 73
55
 74
55
 0
VERTEX
 8
CYLINDER_1
 10
0
 20
0
 30
0
 70
128
 71
52
 72
53
 73
57
 74
56
 0
VERTEX
 8
CYLINDER_1
 10
0
 20
0
 30
0
 70
128
 71
54
 72
2
 73
58
 74
58
 0
VERTEX
 8
CYLINDER_1
 10
0
 20
0
 30
0
 70
128
 71
1
 72
55
 73
59
 74
59
 0
VERTEX
 8
CYLINDER_1
 10
0
 20
0
 30
0
 70
128
 71
56
 72
57
 73
61
 74
60
 0
VERTEX
 8
CYLINDER_1
 10
0
 20
0
 30
0
 70
128
 71
58
 72
2
 73
62
 74
62
 0
VERTEX
 8
CYLINDER_1
 10
0
 20
0
 30
0
 70
128
 71
1
 72
59
 73
63
 74
63
 0
VERTEX
 8
CYLINDER_1
 10
0
 20
0
 30
0
 70
128
 71
60
 72
61
 73
65
 74
64
 0
VERTEX
 8
CYLINDER_1
 10
0
 20
0
 30
0
 70
128
 71
62
 72
2
 73
66
 74
66
 0
VERTEX
 8
CYLINDER_1
 10
0
 20
0
 30
0
 70
128
 71
1
 72
63
 73
67
 74
67
 0
VERTEX
 8
CYLINDER_1
 10
0
 20
0
 30
0
 70
128
 71
64
 72
65
 73
69
 74
68
 0
VERTEX
 8
CYLINDER_1
 10
0
 20
0
 30
0
 70
128
 71
66
 72
2
 73
70
 74
70
 0
VERTEX
 8
CYLINDER_1
 10
0
 20
0
 30
0
 70
128
 71
1
 72
67
 73
71
 74
71
 0
VERTEX
 8
CYLINDER_1
 10
0
 20
0
 30
0
 70
128
 71
68
 72
69
 73
73
 74
72
 0
VERTEX
 8
CYLINDER_1
 10
0
 20
0
 30
0
 70
128
 71
70
 72
2
 73
74
 74
74
 0
VERTEX
 8
CYLINDER_1
 10
0
 20
0
 30
0
 70
128
 71
1
 72
71
 73
75
 74
75
 0
VERTEX
 8
CYLINDER_1
 10
0
 20
0
 30
0
 70
128
 71
72
 72
73
 73
77
 74
76
 0
VERTEX
 8
CYLINDER_1
 10
0
 20
0
 30
0
 70
128
 71
74
 72
2
 73
78
 74
78
 0
VERTEX
 8
CYLINDER_1
 10
0
 20
0
 30
0
 70
128
 71
1
 72
75
 73
79
 74
79
 0
VERTEX
 8
CYLINDER_1
 10
0
 20
0
 30
0
 70
128
 71
76
 72
77
 73
81
 74
80
 0
VERTEX
 8
CYLINDER_1
 10
0
 20
0
 30
0
 70
128
 71
78
 72
2
 73
82
 74
82
 0
VERTEX
 8
CYLINDER_1
 10
0
 20
0
 30
0
 70
128
 71
1
 72
79
 73
83
 74
83
 0
VERTEX
 8
CYLINDER_1
 10
0
 20
0
 30
0
 70
128
 71
80
 72
81
 73
85
 74
84
 0
VERTEX
 8
CYLINDER_1
 10
0
 20
0
 30
0
 70
128
 71
82
 72
2
 73
86
 74
86
 0
VERTEX
 8
CYLINDER_1
 10
0
 20
0
 30
0
 70
128
 71
1
 72
83
 73
87
 74
87
 0
VERTEX
 8
CYLINDER_1
 10
0
 20
0
 30
0
 70
128
 71
84
 72
85
 73
89
 74
88
 0
VERTEX
 8
CYLINDER_1
 10
0
 20
0
 30
0
 70
128
 71
86
 72
2
 73
90
 74
90
 0
VERTEX
 8
CYLINDER_1
 10
0
 20
0
 30
0
 70
128
 71
1
 72
87
 73
91
 74
91
 0
VERTEX
 8
CYLINDER_1
 10
0
 20
0
 30
0
 70
128
 71
88
 72
89
 73
93
 74
92
 0
VERTEX
 8
CYLINDER_1
 10
0
 20
0
 30
0
 70
128
 71
90
 72
2
 73
94
 74
94
 0
VERTEX
 8
CYLINDER_1
 10
0
 20
0
 30
0
 70
128
 71
1
 72
91
 73
95
 74
95
 0
VERTEX
 8
CYLINDER_1
 10
0
 20
0
 30
0
 70
128
 71
92
 72
93
 73
97
 74
96
 0
VERTEX
 8
CYLINDER_1
 10
0
 20
0
 30
0
 70
128
 71
94
 72
2
 73
98
 74
98
 0
VERTEX
 8
CYLINDER_1
 10
0
 20
0
 30
0
 70
128
 71
1
 72
95
 73
99
 74
99
 0
VERTEX
 8
CYLINDER_1
 10
0
 20
0
 30
0
 70
128
 71
96
 72
97
 73
101
 74
100
 0
VERTEX
 8
CYLINDER_1
 10
0
 20
0
 30
0
 70
128
 71
98
 72
2
 73
102
 74
102
 0
VERTEX
 8
CYLINDER_1
 10
0
 20
0
 30
0
 70
128
 71
1
 72
99
 73
103
 74
103
 0
VERTEX
 8
CYLINDER_1
 10
0
 20
0
 30
0
 70
128
 71
100
 72
101
 73
105
 74
104
 0
VERTEX
 8
CYLINDER_1
 10
0
 20
0
 30
0
 70
128
 71
102
 72
2
 73
106
 74
106
 0
VERTEX
 8
CYLINDER_1
 10
0
 20
0
 30
0
 70
128
 71
1
 72
103
 73
107
 74
107
 0
VERTEX
 8
CYLINDER_1
 10
0
 20
0
 30
0
 70
128
 71
104
 72
105
 73
109
 74
108
 0
VERTEX
 8
CYLINDER_1
 10
0
 20
0
 30
0
 70
128
 71
106
 72
2
 73
110
 74
110
 0
VERTEX
 8
CYLINDER_1
 10
0
 20
0
 30
0
 70
128
 71
1
 72
107
 73
111
 74
111
 0
VERTEX
 8
CYLINDER_1
 10
0
 20
0
 30
0
 70
128
 71
108
 72
109
 73
113
 74
112
 0
VERTEX
 8
CYLINDER_1
 10
0
 20
0
 30
0
 70
128
 71
110
 72
2
 73
114
 74
114
 0
VERTEX
 8
CYLINDER_1
 10
0
 20
0
 30
0
 70
128
 71
1
 72
111
 73
115
 74
115
 0
VERTEX
 8
CYLINDER_1
 10
0
 20
0
 30
0
 70
128
 71
112
 72
113
 73
117
 74
116
 0
VERTEX
 8
CYLINDER_1
 10
0
 20
0
 30
0
 70
128
 71
114
 72
2
 73
118
 74
118
 0
VERTEX
 8
CYLINDER_1
 10
0
 20
0
 30
0
 70
128
 71
1
 72
115
 73
119
 74
119
 0
VERTEX
 8
CYLINDER_1
 10
0
 20
0
 30
0
 70
128
 71
116
 72
117
 73
121
 74
120
 0
VERTEX
 8
CYLINDER_1
 10
0
 20
0
 30
0
 70
128
 71
118
 72
2
 73
122
 74
122
 0
VERTEX
 8
CYLINDER_1
 10
0
 20
0
 30
0
 70
128
 71
1
 72
119
 73
123
 74
123
 0
VERTEX
 8
CYLINDER_1
 10
0
 20
0
 30
0
 70
128
 71
120
 72
121
 73
125
 74
124
 0
VERTEX
 8
CYLINDER_1
 10
0
 20
0
 30
0
 70
128
 71
122
 72
2
 73
126
 74
126
 0
VERTEX
 8
CYLINDER_1
 10
0
 20
0
 30
0
 70
128
 71
1
 72
123
 73
127
 74
127
 0
VERTEX
 8
CYLINDER_1
 10
0
 20
0
 30
0
 70
128
 71
124
 72
125
 73
129
 74
128
 0
VERTEX
 8
CYLINDER_1
 10
0
 20
0
 30
0
 70
128
 71
126
 72
2
 73
130
 74
130
 0
VERTEX
 8
CYLINDER_1
 10
0
 20
0
 30
0
 70
128
 71
1
 72
127
 73
131
 74
131
 0
VERTEX
 8
CYLINDER_1
 10
0
 20
0
 30
0
 70
128
 71
128
 72
129
 73
133
 74
132
 0
VERTEX
 8
CYLINDER_1
 10
0
 20
0
 30
0
 70
128
 71
130
 72
2
 73
134
 74
134
 0
VERTEX
 8
CYLINDER_1
 10
0
 20
0
 30
0
 70
128
 71
1
 72
131
 73
135
 74
135
 0
VERTEX
 8
CYLINDER_1
 10
0
 20
0
 30
0
 70
128
 71
132
 72
133
 73
137
 74
136
 0
VERTEX
 8
CYLINDER_1
 10
0
 20
0
 30
0
 70
128
 71
134
 72
2
 73
138
 74
138
 0
VERTEX
 8
CYLINDER_1
 10
0
 20
0
 30
0
 70
128
 71
1
 72
135
 73
139
 74
139
 0
VERTEX
 8
CYLINDER_1
 10
0
 20
0
 30
0
 70
128
 71
136
 72
137
 73
141
 74
140
 0
VERTEX
 8
CYLINDER_1
 10
0
 20
0
 30
0
 70
128
 71
138
 72
2
 73
142
 74
142
 0
VERTEX
 8
CYLINDER_1
 10
0
 20
0
 30
0
 70
128
 71
1
 72
139
 73
143
 74
143
 0
VERTEX
 8
CYLINDER_1
 10
0
 20
0
 30
0
 70
128
 71
140
 72
141
 73
145
 74
144
 0
VERTEX
 8
CYLINDER_1
 10
0
 20
0
 30
0
 70
128
 71
142
 72
2
 73
146
 74
146
 0
VERTEX
 8
CYLINDER_1
 10
0
 20
0
 30
0
 70
128
 71
1
 72
143
 73
3
 74
3
 0
VERTEX
 8
CYLINDER_1
 10
0
 20
0
 30
0
 70
128
 71
144
 72
145
 73
5
 74
4
 0
VERTEX
 8
CYLINDER_1
 10
0
 20
0
 30
0
 70
128
 71
146
 72
2
 73
6
 74
6
 0
SEQEND
 0
POLYLINE
 8
CYLINDER
 66
1
 10
0.0
 20
0.0
 30
0.0
 70
64
 71
146
 72
108
 0
VERTEX
 8
CYLINDER
 10
0
 20
0
 30
0.2385
 70
192
 0
VERTEX
 8
CYLINDER
 10
0
 20
0
 30
0.2685
 70
192
 0
VERTEX
 8
CYLINDER
 10
0.24
 20
0
 30
0.2385
 70
192
 0
VERTEX
 8
CYLINDER
 10
0.24
 20
0
 30
0.2385
 70
192
 0
VERTEX
 8
CYLINDER
 10
0.24
 20
0
 30
0.2685
 70
192
 0
VERTEX
 8
CYLINDER
 10
0.24
 20
0
 30
0.2685
 70
192
 0
VERTEX
 8
CYLINDER
 10
0.2364
 20
0.0417
 30
0.2385
 70
192
 0
VERTEX
 8
CYLINDER
 10
0.2364
 20
0.0417
 30
0.2385
 70
192
 0
VERTEX
 8
CYLINDER
 10
0.2364
 20
0.0417
 30
0.2685
 70
192
 0
VERTEX
 8
CYLINDER
 10
0.2364
 20
0.0417
 30
0.2685
 70
192
 0
VERTEX
 8
CYLINDER
 10
0.2255
 20
0.0821
 30
0.2385
 70
192
 0
VERTEX
 8
CYLINDER
 10
0.2255
 20
0.0821
 30
0.2385
 70
192
 0
VERTEX
 8
CYLINDER
 10
0.2255
 20
0.0821
 30
0.2685
 70
192
 0
VERTEX
 8
CYLINDER
 10
0.2255
 20
0.0821
 30
0.2685
 70
192
 0
VERTEX
 8
CYLINDER
 10
0.2078
 20
0.12
 30
0.2385
 70
192
 0
VERTEX
 8
CYLINDER
 10
0.2078
 20
0.12
 30
0.2385
 70
192
 0
VERTEX
 8
CYLINDER
 10
0.2078
 20
0.12
 30
0.2685
 70
192
 0
VERTEX
 8
CYLINDER
 10
0.2078
 20
0.12
 30
0.2685
 70
192
 0
VERTEX
 8
CYLINDER
 10
0.1839
 20
0.1543
 30
0.2385
 70
192
 0
VERTEX
 8
CYLINDER
 10
0.1839
 20
0.1543
 30
0.2385
 70
192
 0
VERTEX
 8
CYLINDER
 10
0.1839
 20
0.1543
 30
0.2685
 70
192
 0
VERTEX
 8
CYLINDER
 10
0.1839
 20
0.1543
 30
0.2685
 70
192
 0
VERTEX
 8
CYLINDER
 10
0.1543
 20
0.1839
 30
0.2385
 70
192
 0
VERTEX
 8
CYLINDER
 10
0.1543
 20
0.1839
 30
0.2385
 70
192
 0
VERTEX
 8
CYLINDER
 10
0.1543
 20
0.1839
 30
0.2685
 70
192
 0
VERTEX
 8
CYLINDER
 10
0.1543
 20
0.1839
 30
0.2685
 70
192
 0
VERTEX
 8
CYLINDER
 10
0.12
 20
0.2078
 30
0.2385
 70
192
 0
VERTEX
 8
CYLINDER
 10
0.12
 20
0.2078
 30
0.2385
 70
192
 0
VERTEX
 8
CYLINDER
 10
0.12
 20
0.2078
 30
0.2685
 70
192
 0
VERTEX
 8
CYLINDER
 10
0.12
 20
0.2078
 30
0.2685
 70
192
 0
VERTEX
 8
CYLINDER
 10
0.0821
 20
0.2255
 30
0.2385
 70
192
 0
VERTEX
 8
CYLINDER
 10
0.0821
 20
0.2255
 30
0.2385
 70
192
 0
VERTEX
 8
CYLINDER
 10
0.0821
 20
0.2255
 30
0.2685
 70
192
 0
VERTEX
 8
CYLINDER
 10
0.0821
 20
0.2255
 30
0.2685
 70
192
 0
VERTEX
 8
CYLINDER
 10
0.0417
 20
0.2364
 30
0.2385
 70
192
 0
VERTEX
 8
CYLINDER
 10
0.0417
 20
0.2364
 30
0.2385
 70
192
 0
VERTEX
 8
CYLINDER
 10
0.0417
 20
0.2364
 30
0.2685
 70
192
 0
VERTEX
 8
CYLINDER
 10
0.0417
 20
0.2364
 30
0.2685
 70
192
 0
VERTEX
 8
CYLINDER
 10
0
 20
0.24
 30
0.2385
 70
192
 0
VERTEX
 8
CYLINDER
 10
0
 20
0.24
 30
0.2385
 70
192
 0
VERTEX
 8
CYLINDER
 10
0
 20
0.24
 30
0.2685
 70
192
 0
VERTEX
 8
CYLINDER
 10
0
 20
0.24
 30
0.2685
 70
192
 0
VERTEX
 8
CYLINDER
 10
-0.0417
 20
0.2364
 30
0.2385
 70
192
 0
VERTEX
 8
CYLINDER
 10
-0.0417
 20
0.2364
 30
0.2385
 70
192
 0
VERTEX
 8
CYLINDER
 10
-0.0417
 20
0.2364
 30
0.2685
 70
192
 0
VERTEX
 8
CYLINDER
 10
-0.0417
 20
0.2364
 30
0.2685
 70
192
 0
VERTEX
 8
CYLINDER
 10
-0.0821
 20
0.2255
 30
0.2385
 70
192
 0
VERTEX
 8
CYLINDER
 10
-0.0821
 20
0.2255
 30
0.2385
 70
192
 0
VERTEX
 8
CYLINDER
 10
-0.0821
 20
0.2255
 30
0.2685
 70
192
 0
VERTEX
 8
CYLINDER
 10
-0.0821
 20
0.2255
 30
0.2685
 70
192
 0
VERTEX
 8
CYLINDER
 10
-0.12
 20
0.2078
 30
0.2385
 70
192
 0
VERTEX
 8
CYLINDER
 10
-0.12
 20
0.2078
 30
0.2385
 70
192
 0
VERTEX
 8
CYLINDER
 10
-0.12
 20
0.2078
 30
0.2685
 70
192
 0
VERTEX
 8
CYLINDER
 10
-0.12
 20
0.2078
 30
0.2685
 70
192
 0
VERTEX
 8
CYLINDER
 10
-0.1543
 20
0.1839
 30
0.2385
 70
192
 0
VERTEX
 8
CYLINDER
 10
-0.1543
 20
0.1839
 30
0.2385
 70
192
 0
VERTEX
 8
CYLINDER
 10
-0.1543
 20
0.1839
 30
0.2685
 70
192
 0
VERTEX
 8
CYLINDER
 10
-0.1543
 20
0.1839
 30
0.2685
 70
192
 0
VERTEX
 8
CYLINDER
 10
-0.1839
 20
0.1543
 30
0.2385
 70
192
 0
VERTEX
 8
CYLINDER
 10
-0.1839
 20
0.1543
 30
0.2385
 70
192
 0
VERTEX
 8
CYLINDER
 10
-0.1839
 20
0.1543
 30
0.2685
 70
192
 0
VERTEX
 8
CYLINDER
 10
-0.1839
 20
0.1543
 30
0.2685
 70
192
 0
VERTEX
 8
CYLINDER
 10
-0.2078
 20
0.12
 30
0.2385
 70
192
 0
VERTEX
 8
CYLINDER
 10
-0.2078
 20
0.12
 30
0.2385
 70
192
 0
VERTEX
 8
CYLINDER
 10
-0.2078
 20
0.12
 30
0.2685
 70
192
 0
VERTEX
 8
CYLINDER
 10
-0.2078
 20
0.12
 30
0.2685
 70
192
 0
VERTEX
 8
CYLINDER
 10
-0.2255
 20
0.0821
 30
0.2385
 70
192
 0
VERTEX
 8
CYLINDER
 10
-0.2255
 20
0.0821
 30
0.2385
 70
192
 0
VERTEX
 8
CYLINDER
 10
-0.2255
 20
0.0821
 30
0.2685
 70
192
 0
VERTEX
 8
CYLINDER
 10
-0.2255
 20
0.0821
 30
0.2685
 70
192
 0
VERTEX
 8
CYLINDER
 10
-0.2364
 20
0.0417
 30
0.2385
 70
192
 0
VERTEX
 8
CYLINDER
 10
-0.2364
 20
0.0417
 30
0.2385
 70
192
 0
VERTEX
 8
CYLINDER
 10
-0.2364
 20
0.0417
 30
0.2685
 70
192
 0
VERTEX
 8
CYLINDER
 10
-0.2364
 20
0.0417
 30
0.2685
 70
192
 0
VERTEX
 8
CYLINDER
 10
-0.24
 20
0
 30
0.2385
 70
192
 0
VERTEX
 8
CYLINDER
 10
-0.24
 20
0
 30
0.2385
 70
192
 0
VERTEX
 8
CYLINDER
 10
-0.24
 20
0
 30
0.2685
 70
192
 0
VERTEX
 8
CYLINDER
 10
-0.24
 20
0
 30
0.2685
 70
192
 0
VERTEX
 8
CYLINDER
 10
-0.2364
 20
-0.0417
 30
0.2385
 70
192
 0
VERTEX
 8
CYLINDER
 10
-0.2364
 20
-0.0417
 30
0.2385
 70
192
 0
VERTEX
 8
CYLINDER
 10
-0.2364
 20
-0.0417
 30
0.2685
 70
192
 0
VERTEX
 8
CYLINDER
 10
-0.2364
 20
-0.0417
 30
0.2685
 70
192
 0
VERTEX
 8
CYLINDER
 10
-0.2255
 20
-0.0821
 30
0.2385
 70
192
 0
VERTEX
 8
CYLINDER
 10
-0.2255
 20
-0.0821
 30
0.2385
 70
192
 0
VERTEX
 8
CYLINDER
 10
-0.2255
 20
-0.0821
 30
0.2685
 70
192
 0
VERTEX
 8
CYLINDER
 10
-0.2255
 20
-0.0821
 30
0.2685
 70
192
 0
VERTEX
 8
CYLINDER
 10
-0.2078
 20
-0.12
 30
0.2385
 70
192
 0
VERTEX
 8
CYLINDER
 10
-0.2078
 20
-0.12
 30
0.2385
 70
192
 0
VERTEX
 8
CYLINDER
 10
-0.2078
 20
-0.12
 30
0.2685
 70
192
 0
VERTEX
 8
CYLINDER
 10
-0.2078
 20
-0.12
 30
0.2685
 70
192
 0
VERTEX
 8
CYLINDER
 10
-0.1839
 20
-0.1543
 30
0.2385
 70
192
 0
VERTEX
 8
CYLINDER
 10
-0.1839
 20
-0.1543
 30
0.2385
 70
192
 0
VERTEX
 8
CYLINDER
 10
-0.1839
 20
-0.1543
 30
0.2685
 70
192
 0
VERTEX
 8
CYLINDER
 10
-0.1839
 20
-0.1543
 30
0.2685
 70
192
 0
VERTEX
 8
CYLINDER
 10
-0.1543
 20
-0.1839
 30
0.2385
 70
192
 0
VERTEX
 8
CYLINDER
 10
-0.1543
 20
-0.1839
 30
0.2385
 70
192
 0
VERTEX
 8
CYLINDER
 10
-0.1543
 20
-0.1839
 30
0.2685
 70
192
 0
VERTEX
 8
CYLINDER
 10
-0.1543
 20
-0.1839
 30
0.2685
 70
192
 0
VERTEX
 8
CYLINDER
 10
-0.12
 20
-0.2078
 30
0.2385
 70
192
 0
VERTEX
 8
CYLINDER
 10
-0.12
 20
-0.2078
 30
0.2385
 70
192
 0
VERTEX
 8
CYLINDER
 10
-0.12
 20
-0.2078
 30
0.2685
 70
192
 0
VERTEX
 8
CYLINDER
 10
-0.12
 20
-0.2078
 30
0.2685
 70
192
 0
VERTEX
 8
CYLINDER
 10
-0.0821
 20
-0.2255
 30
0.2385
 70
192
 0
VERTEX
 8
CYLINDER
 10
-0.0821
 20
-0.2255
 30
0.2385
 70
192
 0
VERTEX
 8
CYLINDER
 10
-0.0821
 20
-0.2255
 30
0.2685
 70
192
 0
VERTEX
 8
CYLINDER
 10
-0.0821
 20
-0.2255
 30
0.2685
 70
192
 0
VERTEX
 8
CYLINDER
 10
-0.0417
 20
-0.2364
 30
0.2385
 70
192
 0
VERTEX
 8
CYLINDER
 10
-0.0417
 20
-0.2364
 30
0.2385
 70
192
 0
VERTEX
 8
CYLINDER
 10
-0.0417
 20
-0.2364
 30
0.2685
 70
192
 0
VERTEX
 8
CYLINDER
 10
-0.0417
 20
-0.2364
 30
0.2685
 70
192
 0
VERTEX
 8
CYLINDER
 10
0
 20
-0.24
 30
0.2385
 70
192
 0
VERTEX
 8
CYLINDER
 10
0
 20
-0.24
 30
0.2385
 70
192
 0
VERTEX
 8
CYLINDER
 10
0
 20
-0.24
 30
0.2685
 70
192
 0
VERTEX
 8
CYLINDER
 10
0
 20
-0.24
 30
0.2685
 70
192
 0
VERTEX
 8
CYLINDER
 10
0.0417
 20
-0.2364
 30
0.2385
 70
192
 0
VERTEX
 8
CYLINDER
 10
0.0417
 20
-0.2364
 30
0.2385
 70
192
 0
VERTEX
 8
CYLINDER
 10
0.0417
 20
-0.2364
 30
0.2685
 70
192
 0
VERTEX
 8
CYLINDER
 10
0.0417
 20
-0.2364
 30
0.2685
 70
192
 0
VERTEX
 8
CYLINDER
 10
0.0821
 20
-0.2255
 30
0.2385
 70
192
 0
VERTEX
 8
CYLINDER
 10
0.0821
 20
-0.2255
 30
0.2385
 70
192
 0
VERTEX
 8
CYLINDER
 10
0.0821
 20
-0.2255
 30
0.2685
 70
192
 0
VERTEX
 8
CYLINDER
 10
0.0821
 20
-0.2255
 30
0.2685
 70
192
 0
VERTEX
 8
CYLINDER
 10
0.12
 20
-0.2078
 30
0.2385
 70
192
 0
VERTEX
 8
CYLINDER
 10
0.12
 20
-0.2078
 30
0.2385
 70
192
 0
VERTEX
 8
CYLINDER
 10
0.12
 20
-0.2078
 30
0.2685
 70
192
 0
VERTEX
 8
CYLINDER
 10
0.12
 20
-0.2078
 30
0.2685
 70
192
 0
VERTEX
 8
CYLINDER
 10
0.1543
 20
-0.1839
 30
0.2385
 70
192
 0
VERTEX
 8
CYLINDER
 10
0.1543
 20
-0.1839
 30
0.2385
 70
192
 0
VERTEX
 8
CYLINDER
 10
0.1543
 20
-0.1839
 30
0.2685
 70
192
 0
VERTEX
 8
CYLINDER
 10
0.1543
 20
-0.1839
 30
0.2685
 70
192
 0
VERTEX
 8
CYLINDER
 10
0.1839
 20
-0.1543
 30
0.2385
 70
192
 0
VERTEX
 8
CYLINDER
 10
0.1839
 20
-0.1543
 30
0.2385
 70
192
 0
VERTEX
 8
CYLINDER
 10
0.1839
 20
-0.1543
 30
0.2685
 70
192
 0
VERTEX
 8
CYLINDER
 10
0.1839
 20
-0.1543
 30
0.2685
 70
192
 0
VERTEX
 8
CYLINDER
 10
0.2078
 20
-0.12
 30
0.2385
 70
192
 0
VERTEX
 8
CYLINDER
 10
0.2078
 20
-0.12
 30
0.2385
 70
192
 0
VERTEX
 8
CYLINDER
 10
0.2078
 20
-0.12
 30
0.2685
 70
192
 0
VERTEX
 8
CYLINDER
 10
0.2078
 20
-0.12
 30
0.2685
 70
192
 0
VERTEX
 8
CYLINDER
 10
0.2255
 20
-0.0821
 30
0.2385
 70
192
 0
VERTEX
 8
CYLINDER
 10
0.2255
 20
-0.0821
 30
0.2385
 70
192
 0
VERTEX
 8
CYLINDER
 10
0.2255
 20
-0.0821
 30
0.2685
 70
192
 0
VERTEX
 8
CYLINDER
 10
0.2255
 20
-0.0821
 30
0.2685
 70
192
 0
VERTEX
 8
CYLINDER
 10
0.2364
 20
-0.0417
 30
0.2385
 70
192
 0
VERTEX
 8
CYLINDER
 10
0.2364
 20
-0.0417
 30
0.2385
 70
192
 0
VERTEX
 8
CYLINDER
 10
0.2364
 20
-0.0417
 30
0.2685
 70
192
 0
VERTEX
 8
CYLINDER
 10
0.2364
 20
-0.0417
 30
0.2685
 70
192
 0
VERTEX
 8
CYLINDER
 10
0
 20
0
 30
0
 70
128
 71
1
 72
3
 73
7
 74
7
 0
VERTEX
 8
CYLINDER
 10
0
 20
0
 30
0
 70
128
 71
4
 72
5
 73
9
 74
8
 0
VERTEX
 8
CYLINDER
 10
0
 20
0
 30
0
 70
128
 71
6
 72
2
 73
10
 74
10
 0
VERTEX
 8
CYLINDER
 10
0
 20
0
 30
0
 70
128
 71
1
 72
7
 73
11
 74
11
 0
VERTEX
 8
CYLINDER
 10
0
 20
0
 30
0
 70
128
 71
8
 72
9
 73
13
 74
12
 0
VERTEX
 8
CYLINDER
 10
0
 20
0
 30
0
 70
128
 71
10
 72
2
 73
14
 74
14
 0
VERTEX
 8
CYLINDER
 10
0
 20
0
 30
0
 70
128
 71
1
 72
11
 73
15
 74
15
 0
VERTEX
 8
CYLINDER
 10
0
 20
0
 30
0
 70
128
 71
12
 72
13
 73
17
 74
16
 0
VERTEX
 8
CYLINDER
 10
0
 20
0
 30
0
 70
128
 71
14
 72
2
 73
18
 74
18
 0
VERTEX
 8
CYLINDER
 10
0
 20
0
 30
0
 70
128
 71
1
 72
15
 73
19
 74
19
 0
VERTEX
 8
CYLINDER
 10
0
 20
0
 30
0
 70
128
 71
16
 72
17
 73
21
 74
20
 0
VERTEX
 8
CYLINDER
 10
0
 20
0
 30
0
 70
128
 71
18
 72
2
 73
22
 74
22
 0
VERTEX
 8
CYLINDER
 10
0
 20
0
 30
0
 70
128
 71
1
 72
19
 73
23
 74
23
 0
VERTEX
 8
CYLINDER
 10
0
 20
0
 30
0
 70
128
 71
20
 72
21
 73
25
 74
24
 0
VERTEX
 8
CYLINDER
 10
0
 20
0
 30
0
 70
128
 71
22
 72
2
 73
26
 74
26
 0
VERTEX
 8
CYLINDER
 10
0
 20
0
 30
0
 70
128
 71
1
 72
23
 73
27
 74
27
 0
VERTEX
 8
CYLINDER
 10
0
 20
0
 30
0
 70
128
 71
24
 72
25
 73
29
 74
28
 0
VERTEX
 8
CYLINDER
 10
0
 20
0
 30
0
 70
128
 71
26
 72
2
 73
30
 74
30
 0
VERTEX
 8
CYLINDER
 10
0
 20
0
 30
0
 70
128
 71
1
 72
27
 73
31
 74
31
 0
VERTEX
 8
CYLINDER
 10
0
 20
0
 30
0
 70
128
 71
28
 72
29
 73
33
 74
32
 0
VERTEX
 8
CYLINDER
 10
0
 20
0
 30
0
 70
128
 71
30
 72
2
 73
34
 74
34
 0
VERTEX
 8
CYLINDER
 10
0
 20
0
 30
0
 70
128
 71
1
 72
31
 73
35
 74
35
 0
VERTEX
 8
CYLINDER
 10
0
 20
0
 30
0
 70
128
 71
32
 72
33
 73
37
 74
36
 0
VERTEX
 8
CYLINDER
 10
0
 20
0
 30
0
 70
128
 71
34
 72
2
 73
38
 74
38
 0
VERTEX
 8
CYLINDER
 10
0
 20
0
 30
0
 70
128
 71
1
 72
35
 73
39
 74
39
 0
VERTEX
 8
CYLINDER
 10
0
 20
0
 30
0
 70
128
 71
36
 72
37
 73
41
 74
40
 0
VERTEX
 8
CYLINDER
 10
0
 20
0
 30
0
 70
128
 71
38
 72
2
 73
42
 74
42
 0
VERTEX
 8
CYLINDER
 10
0
 20
0
 30
0
 70
128
 71
1
 72
39
 73
43
 74
43
 0
VERTEX
 8
CYLINDER
 10
0
 20
0
 30
0
 70
128
 71
40
 72
41
 73
45
 74
44
 0
VERTEX
 8
CYLINDER
 10
0
 20
0
 30
0
 70
128
 71
42
 72
2
 73
46
 74
46
 0
VERTEX
 8
CYLINDER
 10
0
 20
0
 30
0
 70
128
 71
1
 72
43
 73
47
 74
47
 0
VERTEX
 8
CYLINDER
 10
0
 20
0
 30
0
 70
128
 71
44
 72
45
 73
49
 74
48
 0
VERTEX
 8
CYLINDER
 10
0
 20
0
 30
0
 70
128
 71
46
 72
2
 73
50
 74
50
 0
VERTEX
 8
CYLINDER
 10
0
 20
0
 30
0
 70
128
 71
1
 72
47
 73
51
 74
51
 0
VERTEX
 8
CYLINDER
 10
0
 20
0
 30
0
 70
128
 71
48
 72
49
 73
53
 74
52
 0
VERTEX
 8
CYLINDER
 10
0
 20
0
 30
0
 70
128
 71
50
 72
2
 73
54
 74
54
 0
VERTEX
 8
CYLINDER
 10
0
 20
0
 30
0
 70
128
 71
1
 72
51
 73
55
 74
55
 0
VERTEX
 8
CYLINDER
 10
0
 20
0
 30
0
 70
128
 71
52
 72
53
 73
57
 74
56
 0
VERTEX
 8
CYLINDER
 10
0
 20
0
 30
0
 70
128
 71
54
 72
2
 73
58
 74
58
 0
VERTEX
 8
CYLINDER
 10
0
 20
0
 30
0
 70
128
 71
1
 72
55
 73
59
 74
59
 0
VERTEX
 8
CYLINDER
 10
0
 20
0
 30
0
 70
128
 71
56
 72
57
 73
61
 74
60
 0
VERTEX
 8
CYLINDER
 10
0
 20
0
 30
0
 70
128
 71
58
 72
2
 73
62
 74
62
 0
VERTEX
 8
CYLINDER
 10
0
 20
0
 30
0
 70
128
 71
1
 72
59
 73
63
 74
63
 0
VERTEX
 8
CYLINDER
 10
0
 20
0
 30
0
 70
128
 71
60
 72
61
 73
65
 74
64
 0
VERTEX
 8
CYLINDER
 10
0
 20
0
 30
0
 70
128
 71
62
 72
2
 73
66
 74
66
 0
VERTEX
 8
CYLINDER
 10
0
 20
0
 30
0
 70
128
 71
1
 72
63
 73
67
 74
67
 0
VERTEX
 8
CYLINDER
 10
0
 20
0
 30
0
 70
128
 71
64
 72
65
 73
69
 74
68
 0
VERTEX
 8
CYLINDER
 10
0
 20
0
 30
0
 70
128
 71
66
 72
2
 73
70
 74
70
 0
VERTEX
 8
CYLINDER
 10
0
 20
0
 30
0
 70
128
 71
1
 72
67
 73
71
 74
71
 0
VERTEX
 8
CYLINDER
 10
0
 20
0
 30
0
 70
128
 71
68
 72
69
 73
73
 74
72
 0
VERTEX
 8
CYLINDER
 10
0
 20
0
 30
0
 70
128
 71
70
 72
2
 73
74
 74
74
 0
VERTEX
 8
CYLINDER
 10
0
 20
0
 30
0
 70
128
 71
1
 72
71
 73
75
 74
75
 0
VERTEX
 8
CYLINDER
 10
0
 20
0
 30
0
 70
128
 71
72
 72
73
 73
77
 74
76
 0
VERTEX
 8
CYLINDER
 10
0
 20
0
 30
0
 70
128
 71
74
 72
2
 73
78
 74
78
 0
VERTEX
 8
CYLINDER
 10
0
 20
0
 30
0
 70
128
 71
1
 72
75
 73
79
 74
79
 0
VERTEX
 8
CYLINDER
 10
0
 20
0
 30
0
 70
128
 71
76
 72
77
 73
81
 74
80
 0
VERTEX
 8
CYLINDER
 10
0
 20
0
 30
0
 70
128
 71
78
 72
2
 73
82
 74
82
 0
VERTEX
 8
CYLINDER
 10
0
 20
0
 30
0
 70
128
 71
1
 72
79
 73
83
 74
83
 0
VERTEX
 8
CYLINDER
 10
0
 20
0
 30
0
 70
128
 71
80
 72
81
 73
85
 74
84
 0
VERTEX
 8
CYLINDER
 10
0
 20
0
 30
0
 70
128
 71
82
 72
2
 73
86
 74
86
 0
VERTEX
 8
CYLINDER
 10
0
 20
0
 30
0
 70
128
 71
1
 72
83
 73
87
 74
87
 0
VERTEX
 8
CYLINDER
 10
0
 20
0
 30
0
 70
128
 71
84
 72
85
 73
89
 74
88
 0
VERTEX
 8
CYLINDER
 10
0
 20
0
 30
0
 70
128
 71
86
 72
2
 73
90
 74
90
 0
VERTEX
 8
CYLINDER
 10
0
 20
0
 30
0
 70
128
 71
1
 72
87
 73
91
 74
91
 0
VERTEX
 8
CYLINDER
 10
0
 20
0
 30
0
 70
128
 71
88
 72
89
 73
93
 74
92
 0
VERTEX
 8
CYLINDER
 10
0
 20
0
 30
0
 70
128
 71
90
 72
2
 73
94
 74
94
 0
VERTEX
 8
CYLINDER
 10
0
 20
0
 30
0
 70
128
 71
1
 72
91
 73
95
 74
95
 0
VERTEX
 8
CYLINDER
 10
0
 20
0
 30
0
 70
128
 71
92
 72
93
 73
97
 74
96
 0
VERTEX
 8
CYLINDER
 10
0
 20
0
 30
0
 70
128
 71
94
 72
2
 73
98
 74
98
 0
VERTEX
 8
CYLINDER
 10
0
 20
0
 30
0
 70
128
 71
1
 72
95
 73
99
 74
99
 0
VERTEX
 8
CYLINDER
 10
0
 20
0
 30
0
 70
128
 71
96
 72
97
 73
101
 74
100
 0
VERTEX
 8
CYLINDER
 10
0
 20
0
 30
0
 70
128
 71
98
 72
2
 73
102
 74
102
 0
VERTEX
 8
CYLINDER
 10
0
 20
0
 30
0
 70
128
 71
1
 72
99
 73
103
 74
103
 0
VERTEX
 8
CYLINDER
 10
0
 20
0
 30
0
 70
128
 71
100
 72
101
 73
105
 74
104
 0
VERTEX
 8
CYLINDER
 10
0
 20
0
 30
0
 70
128
 71
102
 72
2
 73
106
 74
106
 0
VERTEX
 8
CYLINDER
 10
0
 20
0
 30
0
 70
128
 71
1
 72
103
 73
107
 74
107
 0
VERTEX
 8
CYLINDER
 10
0
 20
0
 30
0
 70
128
 71
104
 72
105
 73
109
 74
108
 0
VERTEX
 8
CYLINDER
 10
0
 20
0
 30
0
 70
128
 71
106
 72
2
 73
110
 74
110
 0
VERTEX
 8
CYLINDER
 10
0
 20
0
 30
0
 70
128
 71
1
 72
107
 73
111
 74
111
 0
VERTEX
 8
CYLINDER
 10
0
 20
0
 30
0
 70
128
 71
108
 72
109
 73
113
 74
112
 0
VERTEX
 8
CYLINDER
 10
0
 20
0
 30
0
 70
128
 71
110
 72
2
 73
114
 74
114
 0
VERTEX
 8
CYLINDER
 10
0
 20
0
 30
0
 70
128
 71
1
 72
111
 73
115
 74
115
 0
VERTEX
 8
CYLINDER
 10
0
 20
0
 30
0
 70
128
 71
112
 72
113
 73
117
 74
116
 0
VERTEX
 8
CYLINDER
 10
0
 20
0
 30
0
 70
128
 71
114
 72
2
 73
118
 74
118
 0
VERTEX
 8
CYLINDER
 10
0
 20
0
 30
0
 70
128
 71
1
 72
115
 73
119
 74
119
 0
VERTEX
 8
CYLINDER
 10
0
 20
0
 30
0
 70
128
 71
116
 72
117
 73
121
 74
120
 0
VERTEX
 8
CYLINDER
 10
0
 20
0
 30
0
 70
128
 71
118
 72
2
 73
122
 74
122
 0
VERTEX
 8
CYLINDER
 10
0
 20
0
 30
0
 70
128
 71
1
 72
119
 73
123
 74
123
 0
VERTEX
 8
CYLINDER
 10
0
 20
0
 30
0
 70
128
 71
120
 72
121
 73
125
 74
124
 0
VERTEX
 8
CYLINDER
 10
0
 20
0
 30
0
 70
128
 71
122
 72
2
 73
126
 74
126
 0
VERTEX
 8
CYLINDER
 10
0
 20
0
 30
0
 70
128
 71
1
 72
123
 73
127
 74
127
 0
VERTEX
 8
CYLINDER
 10
0
 20
0
 30
0
 70
128
 71
124
 72
125
 73
129
 74
128
 0
VERTEX
 8
CYLINDER
 10
0
 20
0
 30
0
 70
128
 71
126
 72
2
 73
130
 74
130
 0
VERTEX
 8
CYLINDER
 10
0
 20
0
 30
0
 70
128
 71
1
 72
127
 73
131
 74
131
 0
VERTEX
 8
CYLINDER
 10
0
 20
0
 30
0
 70
128
 71
128
 72
129
 73
133
 74
132
 0
VERTEX
 8
CYLINDER
 10
0
 20
0
 30
0
 70
128
 71
130
 72
2
 73
134
 74
134
 0
VERTEX
 8
CYLINDER
 10
0
 20
0
 30
0
 70
128
 71
1
 72
131
 73
135
 74
135
 0
VERTEX
 8
CYLINDER
 10
0
 20
0
 30
0
 70
128
 71
132
 72
133
 73
137
 74
136
 0
VERTEX
 8
CYLINDER
 10
0
 20
0
 30
0
 70
128
 71
134
 72
2
 73
138
 74
138
 0
VERTEX
 8
CYLINDER
 10
0
 20
0
 30
0
 70
128
 71
1
 72
135
 73
139
 74
139
 0
VERTEX
 8
CYLINDER
 10
0
 20
0
 30
0
 70
128
 71
136
 72
137
 73
141
 74
140
 0
VERTEX
 8
CYLINDER
 10
0
 20
0
 30
0
 70
128
 71
138
 72
2
 73
142
 74
142
 0
VERTEX
 8
CYLINDER
 10
0
 20
0
 30
0
 70
128
 71
1
 72
139
 73
143
 74
143
 0
VERTEX
 8
CYLINDER
 10
0
 20
0
 30
0
 70
128
 71
140
 72
141
 73
145
 74
144
 0
VERTEX
 8
CYLINDER
 10
0
 20
0
 30
0
 70
128
 71
142
 72
2
 73
146
 74
146
 0
VERTEX
 8
CYLINDER
 10
0
 20
0
 30
0
 70
128
 71
1
 72
143
 73
3
 74
3
 0
VERTEX
 8
CYLINDER
 10
0
 20
0
 30
0
 70
128
 71
144
 72
145
 73
5
 74
4
 0
VERTEX
 8
CYLINDER
 10
0
 20
0
 30
0
 70
128
 71
146
 72
2
 73
6
 74
6
 0
SEQEND
 0
ENDSEC
 0
EOF
