 0
SECTION
 2
HEADER
 9
$ACADVER
 1
AC1009
 0
ENDSEC
 0
SECTION
 2
TABLES
 0
TABLE
 2
LTYPE
 70
1
 0
LTYPE
 2
CONTINUOUS
 70
64
 3
solid line
 72
65
 73
0
 40
0.0
 0
ENDTAB
 0
TABLE
 2
LAYER
 70
6
 0
LAYER
 2
0
 70
0
 62
7
 6
CONTINUOUS
 0
LAYER
 2
CUBOS
 70
64
 62
7
 6
CONTINUOUS
 0
LAYER
 2
CUBE_3
 70
64
 62
109
 6
CONTINUOUS
 0
LAYER
 2
CUBE_2
 70
64
 62
109
 6
CONTINUOUS
 0
LAYER
 2
CUBE_1
 70
64
 62
109
 6
CONTINUOUS
 0
LAYER
 2
CUBE
 70
64
 62
109
 6
CONTINUOUS
 0
LAYER
 2
SUBDIVISION_SURFACE
 70
64
 62
7
 6
CONTINUOUS
 0
LAYER
 2
CUBE_4
 70
64
 62
15
 6
CONTINUOUS
 0
LAYER
 2
EXTRUDE
 70
64
 62
29
 6
CONTINUOUS
 0
LAYER
 2
ROUNDING_1
 70
64
 62
27
 6
CONTINUOUS
 0
LAYER
 2
CAP_1
 70
64
 62
27
 6
CONTINUOUS
 0
LAYER
 2
ROUNDING_2
 70
64
 62
27
 6
CONTINUOUS
 0
LAYER
 2
CAP_2
 70
64
 62
27
 6
CONTINUOUS
 0
ENDTAB
 0
ENDSEC
 0
SECTION
 2
BLOCKS
 0
ENDSEC
 0
SECTION
 2
ENTITIES
 0
POLYLINE
 8
CUBE_3
 66
1
 10
0.0
 20
0.0
 30
0.0
 70
64
 71
8
 72
6
 0
VERTEX
 8
CUBE_3
 10
2.657
 20
-0.145
 30
-0.7458
 70
192
 0
VERTEX
 8
CUBE_3
 10
2.657
 20
-0.145
 30
-0.6998
 70
192
 0
VERTEX
 8
CUBE_3
 10
2.7811
 20
-0.145
 30
-0.7458
 70
192
 0
VERTEX
 8
CUBE_3
 10
2.7811
 20
-0.145
 30
-0.6998
 70
192
 0
VERTEX
 8
CUBE_3
 10
2.7811
 20
-0.0356
 30
-0.7458
 70
192
 0
VERTEX
 8
CUBE_3
 10
2.7811
 20
-0.0356
 30
-0.6998
 70
192
 0
VERTEX
 8
CUBE_3
 10
2.657
 20
-0.0356
 30
-0.7458
 70
192
 0
VERTEX
 8
CUBE_3
 10
2.657
 20
-0.0356
 30
-0.6998
 70
192
 0
VERTEX
 8
CUBE_3
 10
0
 20
0
 30
0
 70
128
 71
1
 72
2
 73
4
 74
3
 0
VERTEX
 8
CUBE_3
 10
0
 20
0
 30
0
 70
128
 71
3
 72
4
 73
6
 74
5
 0
VERTEX
 8
CUBE_3
 10
0
 20
0
 30
0
 70
128
 71
5
 72
6
 73
8
 74
7
 0
VERTEX
 8
CUBE_3
 10
0
 20
0
 30
0
 70
128
 71
7
 72
8
 73
2
 74
1
 0
VERTEX
 8
CUBE_3
 10
0
 20
0
 30
0
 70
128
 71
2
 72
8
 73
6
 74
4
 0
VERTEX
 8
CUBE_3
 10
0
 20
0
 30
0
 70
128
 71
7
 72
1
 73
3
 74
5
 0
SEQEND
 0
POLYLINE
 8
CUBE_2
 66
1
 10
0.0
 20
0.0
 30
0.0
 70
64
 71
8
 72
6
 0
VERTEX
 8
CUBE_2
 10
0.0275
 20
-0.145
 30
-0.7458
 70
192
 0
VERTEX
 8
CUBE_2
 10
0.0275
 20
-0.145
 30
-0.6998
 70
192
 0
VERTEX
 8
CUBE_2
 10
0.1517
 20
-0.145
 30
-0.7458
 70
192
 0
VERTEX
 8
CUBE_2
 10
0.1517
 20
-0.145
 30
-0.6998
 70
192
 0
VERTEX
 8
CUBE_2
 10
0.1517
 20
-0.0356
 30
-0.7458
 70
192
 0
VERTEX
 8
CUBE_2
 10
0.1517
 20
-0.0356
 30
-0.6998
 70
192
 0
VERTEX
 8
CUBE_2
 10
0.0275
 20
-0.0356
 30
-0.7458
 70
192
 0
VERTEX
 8
CUBE_2
 10
0.0275
 20
-0.0356
 30
-0.6998
 70
192
 0
VERTEX
 8
CUBE_2
 10
0
 20
0
 30
0
 70
128
 71
1
 72
2
 73
4
 74
3
 0
VERTEX
 8
CUBE_2
 10
0
 20
0
 30
0
 70
128
 71
3
 72
4
 73
6
 74
5
 0
VERTEX
 8
CUBE_2
 10
0
 20
0
 30
0
 70
128
 71
5
 72
6
 73
8
 74
7
 0
VERTEX
 8
CUBE_2
 10
0
 20
0
 30
0
 70
128
 71
7
 72
8
 73
2
 74
1
 0
VERTEX
 8
CUBE_2
 10
0
 20
0
 30
0
 70
128
 71
2
 72
8
 73
6
 74
4
 0
VERTEX
 8
CUBE_2
 10
0
 20
0
 30
0
 70
128
 71
7
 72
1
 73
3
 74
5
 0
SEQEND
 0
POLYLINE
 8
CUBE_1
 66
1
 10
0.0
 20
0.0
 30
0.0
 70
64
 71
8
 72
6
 0
VERTEX
 8
CUBE_1
 10
0.0275
 20
-0.9028
 30
-0.7458
 70
192
 0
VERTEX
 8
CUBE_1
 10
0.0275
 20
-0.9028
 30
-0.6998
 70
192
 0
VERTEX
 8
CUBE_1
 10
0.1517
 20
-0.9028
 30
-0.7458
 70
192
 0
VERTEX
 8
CUBE_1
 10
0.1517
 20
-0.9028
 30
-0.6998
 70
192
 0
VERTEX
 8
CUBE_1
 10
0.1517
 20
-0.7934
 30
-0.7458
 70
192
 0
VERTEX
 8
CUBE_1
 10
0.1517
 20
-0.7934
 30
-0.6998
 70
192
 0
VERTEX
 8
CUBE_1
 10
0.0275
 20
-0.7934
 30
-0.7458
 70
192
 0
VERTEX
 8
CUBE_1
 10
0.0275
 20
-0.7934
 30
-0.6998
 70
192
 0
VERTEX
 8
CUBE_1
 10
0
 20
0
 30
0
 70
128
 71
1
 72
2
 73
4
 74
3
 0
VERTEX
 8
CUBE_1
 10
0
 20
0
 30
0
 70
128
 71
3
 72
4
 73
6
 74
5
 0
VERTEX
 8
CUBE_1
 10
0
 20
0
 30
0
 70
128
 71
5
 72
6
 73
8
 74
7
 0
VERTEX
 8
CUBE_1
 10
0
 20
0
 30
0
 70
128
 71
7
 72
8
 73
2
 74
1
 0
VERTEX
 8
CUBE_1
 10
0
 20
0
 30
0
 70
128
 71
2
 72
8
 73
6
 74
4
 0
VERTEX
 8
CUBE_1
 10
0
 20
0
 30
0
 70
128
 71
7
 72
1
 73
3
 74
5
 0
SEQEND
 0
POLYLINE
 8
CUBE
 66
1
 10
0.0
 20
0.0
 30
0.0
 70
64
 71
8
 72
6
 0
VERTEX
 8
CUBE
 10
2.657
 20
-0.9028
 30
-0.7458
 70
192
 0
VERTEX
 8
CUBE
 10
2.657
 20
-0.9028
 30
-0.6998
 70
192
 0
VERTEX
 8
CUBE
 10
2.7811
 20
-0.9028
 30
-0.7458
 70
192
 0
VERTEX
 8
CUBE
 10
2.7811
 20
-0.9028
 30
-0.6998
 70
192
 0
VERTEX
 8
CUBE
 10
2.7811
 20
-0.7934
 30
-0.7458
 70
192
 0
VERTEX
 8
CUBE
 10
2.7811
 20
-0.7934
 30
-0.6998
 70
192
 0
VERTEX
 8
CUBE
 10
2.657
 20
-0.7934
 30
-0.7458
 70
192
 0
VERTEX
 8
CUBE
 10
2.657
 20
-0.7934
 30
-0.6998
 70
192
 0
VERTEX
 8
CUBE
 10
0
 20
0
 30
0
 70
128
 71
1
 72
2
 73
4
 74
3
 0
VERTEX
 8
CUBE
 10
0
 20
0
 30
0
 70
128
 71
3
 72
4
 73
6
 74
5
 0
VERTEX
 8
CUBE
 10
0
 20
0
 30
0
 70
128
 71
5
 72
6
 73
8
 74
7
 0
VERTEX
 8
CUBE
 10
0
 20
0
 30
0
 70
128
 71
7
 72
8
 73
2
 74
1
 0
VERTEX
 8
CUBE
 10
0
 20
0
 30
0
 70
128
 71
2
 72
8
 73
6
 74
4
 0
VERTEX
 8
CUBE
 10
0
 20
0
 30
0
 70
128
 71
7
 72
1
 73
3
 74
5
 0
SEQEND
 0
POLYLINE
 8
CUBE_4
 66
1
 10
0.0
 20
0.0
 30
0.0
 70
64
 71
714
 72
712
 0
VERTEX
 8
CUBE_4
 10
0.2873
 20
-0.8921
 30
-0.6028
 70
192
 0
VERTEX
 8
CUBE_4
 10
0.2873
 20
-0.8921
 30
-0.3864
 70
192
 0
VERTEX
 8
CUBE_4
 10
0.4167
 20
-0.9076
 30
-0.6404
 70
192
 0
VERTEX
 8
CUBE_4
 10
0.4167
 20
-0.9076
 30
-0.3435
 70
192
 0
VERTEX
 8
CUBE_4
 10
0.5831
 20
-0.9076
 30
-0.6404
 70
192
 0
VERTEX
 8
CUBE_4
 10
0.5831
 20
-0.9076
 30
-0.3425
 70
192
 0
VERTEX
 8
CUBE_4
 10
0.7495
 20
-0.9076
 30
-0.6404
 70
192
 0
VERTEX
 8
CUBE_4
 10
0.7495
 20
-0.9076
 30
-0.3425
 70
192
 0
VERTEX
 8
CUBE_4
 10
0.9159
 20
-0.9076
 30
-0.6404
 70
192
 0
VERTEX
 8
CUBE_4
 10
0.9159
 20
-0.9076
 30
-0.3425
 70
192
 0
VERTEX
 8
CUBE_4
 10
1.0823
 20
-0.9076
 30
-0.6404
 70
192
 0
VERTEX
 8
CUBE_4
 10
1.0823
 20
-0.9076
 30
-0.3425
 70
192
 0
VERTEX
 8
CUBE_4
 10
1.2487
 20
-0.9076
 30
-0.6404
 70
192
 0
VERTEX
 8
CUBE_4
 10
1.2487
 20
-0.9076
 30
-0.3425
 70
192
 0
VERTEX
 8
CUBE_4
 10
1.4151
 20
-0.9076
 30
-0.6404
 70
192
 0
VERTEX
 8
CUBE_4
 10
1.4151
 20
-0.9076
 30
-0.3425
 70
192
 0
VERTEX
 8
CUBE_4
 10
1.5815
 20
-0.9076
 30
-0.6404
 70
192
 0
VERTEX
 8
CUBE_4
 10
1.5815
 20
-0.9076
 30
-0.3425
 70
192
 0
VERTEX
 8
CUBE_4
 10
1.7479
 20
-0.9076
 30
-0.6404
 70
192
 0
VERTEX
 8
CUBE_4
 10
1.7479
 20
-0.9076
 30
-0.3425
 70
192
 0
VERTEX
 8
CUBE_4
 10
1.9143
 20
-0.9076
 30
-0.6404
 70
192
 0
VERTEX
 8
CUBE_4
 10
1.9143
 20
-0.9076
 30
-0.3425
 70
192
 0
VERTEX
 8
CUBE_4
 10
2.0807
 20
-0.9076
 30
-0.6404
 70
192
 0
VERTEX
 8
CUBE_4
 10
2.0807
 20
-0.9076
 30
-0.3425
 70
192
 0
VERTEX
 8
CUBE_4
 10
2.2471
 20
-0.9076
 30
-0.6404
 70
192
 0
VERTEX
 8
CUBE_4
 10
2.2471
 20
-0.9076
 30
-0.3425
 70
192
 0
VERTEX
 8
CUBE_4
 10
2.4135
 20
-0.9076
 30
-0.6404
 70
192
 0
VERTEX
 8
CUBE_4
 10
2.4135
 20
-0.9076
 30
-0.3435
 70
192
 0
VERTEX
 8
CUBE_4
 10
2.543
 20
-0.8921
 30
-0.6028
 70
192
 0
VERTEX
 8
CUBE_4
 10
2.543
 20
-0.8921
 30
-0.3864
 70
192
 0
VERTEX
 8
CUBE_4
 10
2.5592
 20
-0.7677
 30
-0.6404
 70
192
 0
VERTEX
 8
CUBE_4
 10
2.5592
 20
-0.7677
 30
-0.3435
 70
192
 0
VERTEX
 8
CUBE_4
 10
2.5592
 20
-0.6079
 30
-0.6404
 70
192
 0
VERTEX
 8
CUBE_4
 10
2.5592
 20
-0.6079
 30
-0.3425
 70
192
 0
VERTEX
 8
CUBE_4
 10
2.5592
 20
-0.448
 30
-0.6404
 70
192
 0
VERTEX
 8
CUBE_4
 10
2.5592
 20
-0.448
 30
-0.3425
 70
192
 0
VERTEX
 8
CUBE_4
 10
2.5592
 20
-0.2881
 30
-0.6404
 70
192
 0
VERTEX
 8
CUBE_4
 10
2.5592
 20
-0.2881
 30
-0.3435
 70
192
 0
VERTEX
 8
CUBE_4
 10
2.543
 20
-0.1638
 30
-0.6028
 70
192
 0
VERTEX
 8
CUBE_4
 10
2.543
 20
-0.1638
 30
-0.3864
 70
192
 0
VERTEX
 8
CUBE_4
 10
2.4135
 20
-0.1483
 30
-0.6404
 70
192
 0
VERTEX
 8
CUBE_4
 10
2.4135
 20
-0.1483
 30
-0.3435
 70
192
 0
VERTEX
 8
CUBE_4
 10
2.2471
 20
-0.1483
 30
-0.6404
 70
192
 0
VERTEX
 8
CUBE_4
 10
2.2471
 20
-0.1483
 30
-0.3425
 70
192
 0
VERTEX
 8
CUBE_4
 10
2.0807
 20
-0.1483
 30
-0.6404
 70
192
 0
VERTEX
 8
CUBE_4
 10
2.0807
 20
-0.1483
 30
-0.3425
 70
192
 0
VERTEX
 8
CUBE_4
 10
1.9143
 20
-0.1483
 30
-0.6404
 70
192
 0
VERTEX
 8
CUBE_4
 10
1.9143
 20
-0.1483
 30
-0.3425
 70
192
 0
VERTEX
 8
CUBE_4
 10
1.7479
 20
-0.1483
 30
-0.6404
 70
192
 0
VERTEX
 8
CUBE_4
 10
1.7479
 20
-0.1483
 30
-0.3425
 70
192
 0
VERTEX
 8
CUBE_4
 10
1.5815
 20
-0.1483
 30
-0.6404
 70
192
 0
VERTEX
 8
CUBE_4
 10
1.5815
 20
-0.1483
 30
-0.3425
 70
192
 0
VERTEX
 8
CUBE_4
 10
1.4151
 20
-0.1483
 30
-0.6404
 70
192
 0
VERTEX
 8
CUBE_4
 10
1.4151
 20
-0.1483
 30
-0.3425
 70
192
 0
VERTEX
 8
CUBE_4
 10
1.2487
 20
-0.1483
 30
-0.6404
 70
192
 0
VERTEX
 8
CUBE_4
 10
1.2487
 20
-0.1483
 30
-0.3425
 70
192
 0
VERTEX
 8
CUBE_4
 10
1.0823
 20
-0.1483
 30
-0.6404
 70
192
 0
VERTEX
 8
CUBE_4
 10
1.0823
 20
-0.1483
 30
-0.3425
 70
192
 0
VERTEX
 8
CUBE_4
 10
0.9159
 20
-0.1483
 30
-0.6404
 70
192
 0
VERTEX
 8
CUBE_4
 10
0.9159
 20
-0.1483
 30
-0.3425
 70
192
 0
VERTEX
 8
CUBE_4
 10
0.7495
 20
-0.1483
 30
-0.6404
 70
192
 0
VERTEX
 8
CUBE_4
 10
0.7495
 20
-0.1483
 30
-0.3425
 70
192
 0
VERTEX
 8
CUBE_4
 10
0.5831
 20
-0.1483
 30
-0.6404
 70
192
 0
VERTEX
 8
CUBE_4
 10
0.5831
 20
-0.1483
 30
-0.3425
 70
192
 0
VERTEX
 8
CUBE_4
 10
0.4167
 20
-0.1483
 30
-0.6404
 70
192
 0
VERTEX
 8
CUBE_4
 10
0.4167
 20
-0.1483
 30
-0.3435
 70
192
 0
VERTEX
 8
CUBE_4
 10
0.2873
 20
-0.1638
 30
-0.6028
 70
192
 0
VERTEX
 8
CUBE_4
 10
0.2873
 20
-0.1638
 30
-0.3864
 70
192
 0
VERTEX
 8
CUBE_4
 10
0.2711
 20
-0.2881
 30
-0.6404
 70
192
 0
VERTEX
 8
CUBE_4
 10
0.2711
 20
-0.2881
 30
-0.3435
 70
192
 0
VERTEX
 8
CUBE_4
 10
0.2711
 20
-0.448
 30
-0.6404
 70
192
 0
VERTEX
 8
CUBE_4
 10
0.2711
 20
-0.448
 30
-0.3425
 70
192
 0
VERTEX
 8
CUBE_4
 10
0.2711
 20
-0.6079
 30
-0.6404
 70
192
 0
VERTEX
 8
CUBE_4
 10
0.2711
 20
-0.6079
 30
-0.3425
 70
192
 0
VERTEX
 8
CUBE_4
 10
0.2711
 20
-0.7677
 30
-0.6404
 70
192
 0
VERTEX
 8
CUBE_4
 10
0.2711
 20
-0.7677
 30
-0.3435
 70
192
 0
VERTEX
 8
CUBE_4
 10
0.4167
 20
-0.7677
 30
-0.2526
 70
192
 0
VERTEX
 8
CUBE_4
 10
0.4167
 20
-0.6079
 30
-0.2455
 70
192
 0
VERTEX
 8
CUBE_4
 10
0.4167
 20
-0.448
 30
-0.2455
 70
192
 0
VERTEX
 8
CUBE_4
 10
0.4167
 20
-0.2881
 30
-0.2526
 70
192
 0
VERTEX
 8
CUBE_4
 10
0.5831
 20
-0.7677
 30
-0.2455
 70
192
 0
VERTEX
 8
CUBE_4
 10
0.5831
 20
-0.6079
 30
-0.2374
 70
192
 0
VERTEX
 8
CUBE_4
 10
0.5831
 20
-0.448
 30
-0.2374
 70
192
 0
VERTEX
 8
CUBE_4
 10
0.5831
 20
-0.2881
 30
-0.2455
 70
192
 0
VERTEX
 8
CUBE_4
 10
0.7495
 20
-0.7677
 30
-0.2455
 70
192
 0
VERTEX
 8
CUBE_4
 10
0.7495
 20
-0.6079
 30
-0.2374
 70
192
 0
VERTEX
 8
CUBE_4
 10
0.7495
 20
-0.448
 30
-0.2374
 70
192
 0
VERTEX
 8
CUBE_4
 10
0.7495
 20
-0.2881
 30
-0.2455
 70
192
 0
VERTEX
 8
CUBE_4
 10
0.9159
 20
-0.7677
 30
-0.2455
 70
192
 0
VERTEX
 8
CUBE_4
 10
0.9159
 20
-0.6079
 30
-0.2374
 70
192
 0
VERTEX
 8
CUBE_4
 10
0.9159
 20
-0.448
 30
-0.2374
 70
192
 0
VERTEX
 8
CUBE_4
 10
0.9159
 20
-0.2881
 30
-0.2455
 70
192
 0
VERTEX
 8
CUBE_4
 10
1.0823
 20
-0.7677
 30
-0.2455
 70
192
 0
VERTEX
 8
CUBE_4
 10
1.0823
 20
-0.6079
 30
-0.2374
 70
192
 0
VERTEX
 8
CUBE_4
 10
1.0823
 20
-0.448
 30
-0.2374
 70
192
 0
VERTEX
 8
CUBE_4
 10
1.0823
 20
-0.2881
 30
-0.2455
 70
192
 0
VERTEX
 8
CUBE_4
 10
1.2487
 20
-0.7677
 30
-0.2455
 70
192
 0
VERTEX
 8
CUBE_4
 10
1.2487
 20
-0.6079
 30
-0.2374
 70
192
 0
VERTEX
 8
CUBE_4
 10
1.2487
 20
-0.448
 30
-0.2374
 70
192
 0
VERTEX
 8
CUBE_4
 10
1.2487
 20
-0.2881
 30
-0.2455
 70
192
 0
VERTEX
 8
CUBE_4
 10
1.4151
 20
-0.7677
 30
-0.2455
 70
192
 0
VERTEX
 8
CUBE_4
 10
1.4151
 20
-0.6079
 30
-0.2374
 70
192
 0
VERTEX
 8
CUBE_4
 10
1.4151
 20
-0.448
 30
-0.2374
 70
192
 0
VERTEX
 8
CUBE_4
 10
1.4151
 20
-0.2881
 30
-0.2455
 70
192
 0
VERTEX
 8
CUBE_4
 10
1.5815
 20
-0.7677
 30
-0.2455
 70
192
 0
VERTEX
 8
CUBE_4
 10
1.5815
 20
-0.6079
 30
-0.2374
 70
192
 0
VERTEX
 8
CUBE_4
 10
1.5815
 20
-0.448
 30
-0.2374
 70
192
 0
VERTEX
 8
CUBE_4
 10
1.5815
 20
-0.2881
 30
-0.2455
 70
192
 0
VERTEX
 8
CUBE_4
 10
1.7479
 20
-0.7677
 30
-0.2455
 70
192
 0
VERTEX
 8
CUBE_4
 10
1.7479
 20
-0.6079
 30
-0.2374
 70
192
 0
VERTEX
 8
CUBE_4
 10
1.7479
 20
-0.448
 30
-0.2374
 70
192
 0
VERTEX
 8
CUBE_4
 10
1.7479
 20
-0.2881
 30
-0.2455
 70
192
 0
VERTEX
 8
CUBE_4
 10
1.9143
 20
-0.7677
 30
-0.2455
 70
192
 0
VERTEX
 8
CUBE_4
 10
1.9143
 20
-0.6079
 30
-0.2374
 70
192
 0
VERTEX
 8
CUBE_4
 10
1.9143
 20
-0.448
 30
-0.2374
 70
192
 0
VERTEX
 8
CUBE_4
 10
1.9143
 20
-0.2881
 30
-0.2455
 70
192
 0
VERTEX
 8
CUBE_4
 10
2.0807
 20
-0.7677
 30
-0.2455
 70
192
 0
VERTEX
 8
CUBE_4
 10
2.0807
 20
-0.6079
 30
-0.2374
 70
192
 0
VERTEX
 8
CUBE_4
 10
2.0807
 20
-0.448
 30
-0.2374
 70
192
 0
VERTEX
 8
CUBE_4
 10
2.0807
 20
-0.2881
 30
-0.2455
 70
192
 0
VERTEX
 8
CUBE_4
 10
2.2471
 20
-0.7677
 30
-0.2455
 70
192
 0
VERTEX
 8
CUBE_4
 10
2.2471
 20
-0.6079
 30
-0.2374
 70
192
 0
VERTEX
 8
CUBE_4
 10
2.2471
 20
-0.448
 30
-0.2374
 70
192
 0
VERTEX
 8
CUBE_4
 10
2.2471
 20
-0.2881
 30
-0.2455
 70
192
 0
VERTEX
 8
CUBE_4
 10
2.4135
 20
-0.7677
 30
-0.2526
 70
192
 0
VERTEX
 8
CUBE_4
 10
2.4135
 20
-0.6079
 30
-0.2455
 70
192
 0
VERTEX
 8
CUBE_4
 10
2.4135
 20
-0.448
 30
-0.2455
 70
192
 0
VERTEX
 8
CUBE_4
 10
2.4135
 20
-0.2881
 30
-0.2526
 70
192
 0
VERTEX
 8
CUBE_4
 10
0.4167
 20
-0.2881
 30
-0.6887
 70
192
 0
VERTEX
 8
CUBE_4
 10
0.4167
 20
-0.448
 30
-0.6887
 70
192
 0
VERTEX
 8
CUBE_4
 10
0.4167
 20
-0.6079
 30
-0.6887
 70
192
 0
VERTEX
 8
CUBE_4
 10
0.4167
 20
-0.7677
 30
-0.6887
 70
192
 0
VERTEX
 8
CUBE_4
 10
0.5831
 20
-0.2881
 30
-0.6887
 70
192
 0
VERTEX
 8
CUBE_4
 10
0.5831
 20
-0.448
 30
-0.6887
 70
192
 0
VERTEX
 8
CUBE_4
 10
0.5831
 20
-0.6079
 30
-0.6887
 70
192
 0
VERTEX
 8
CUBE_4
 10
0.5831
 20
-0.7677
 30
-0.6887
 70
192
 0
VERTEX
 8
CUBE_4
 10
0.7495
 20
-0.2881
 30
-0.6887
 70
192
 0
VERTEX
 8
CUBE_4
 10
0.7495
 20
-0.448
 30
-0.6887
 70
192
 0
VERTEX
 8
CUBE_4
 10
0.7495
 20
-0.6079
 30
-0.6887
 70
192
 0
VERTEX
 8
CUBE_4
 10
0.7495
 20
-0.7677
 30
-0.6887
 70
192
 0
VERTEX
 8
CUBE_4
 10
0.9159
 20
-0.2881
 30
-0.6887
 70
192
 0
VERTEX
 8
CUBE_4
 10
0.9159
 20
-0.448
 30
-0.6887
 70
192
 0
VERTEX
 8
CUBE_4
 10
0.9159
 20
-0.6079
 30
-0.6887
 70
192
 0
VERTEX
 8
CUBE_4
 10
0.9159
 20
-0.7677
 30
-0.6887
 70
192
 0
VERTEX
 8
CUBE_4
 10
1.0823
 20
-0.2881
 30
-0.6887
 70
192
 0
VERTEX
 8
CUBE_4
 10
1.0823
 20
-0.448
 30
-0.6887
 70
192
 0
VERTEX
 8
CUBE_4
 10
1.0823
 20
-0.6079
 30
-0.6887
 70
192
 0
VERTEX
 8
CUBE_4
 10
1.0823
 20
-0.7677
 30
-0.6887
 70
192
 0
VERTEX
 8
CUBE_4
 10
1.2487
 20
-0.2881
 30
-0.6887
 70
192
 0
VERTEX
 8
CUBE_4
 10
1.2487
 20
-0.448
 30
-0.6887
 70
192
 0
VERTEX
 8
CUBE_4
 10
1.2487
 20
-0.6079
 30
-0.6887
 70
192
 0
VERTEX
 8
CUBE_4
 10
1.2487
 20
-0.7677
 30
-0.6887
 70
192
 0
VERTEX
 8
CUBE_4
 10
1.4151
 20
-0.2881
 30
-0.6887
 70
192
 0
VERTEX
 8
CUBE_4
 10
1.4151
 20
-0.448
 30
-0.6887
 70
192
 0
VERTEX
 8
CUBE_4
 10
1.4151
 20
-0.6079
 30
-0.6887
 70
192
 0
VERTEX
 8
CUBE_4
 10
1.4151
 20
-0.7677
 30
-0.6887
 70
192
 0
VERTEX
 8
CUBE_4
 10
1.5815
 20
-0.2881
 30
-0.6887
 70
192
 0
VERTEX
 8
CUBE_4
 10
1.5815
 20
-0.448
 30
-0.6887
 70
192
 0
VERTEX
 8
CUBE_4
 10
1.5815
 20
-0.6079
 30
-0.6887
 70
192
 0
VERTEX
 8
CUBE_4
 10
1.5815
 20
-0.7677
 30
-0.6887
 70
192
 0
VERTEX
 8
CUBE_4
 10
1.7479
 20
-0.2881
 30
-0.6887
 70
192
 0
VERTEX
 8
CUBE_4
 10
1.7479
 20
-0.448
 30
-0.6887
 70
192
 0
VERTEX
 8
CUBE_4
 10
1.7479
 20
-0.6079
 30
-0.6887
 70
192
 0
VERTEX
 8
CUBE_4
 10
1.7479
 20
-0.7677
 30
-0.6887
 70
192
 0
VERTEX
 8
CUBE_4
 10
1.9143
 20
-0.2881
 30
-0.6887
 70
192
 0
VERTEX
 8
CUBE_4
 10
1.9143
 20
-0.448
 30
-0.6887
 70
192
 0
VERTEX
 8
CUBE_4
 10
1.9143
 20
-0.6079
 30
-0.6887
 70
192
 0
VERTEX
 8
CUBE_4
 10
1.9143
 20
-0.7677
 30
-0.6887
 70
192
 0
VERTEX
 8
CUBE_4
 10
2.0807
 20
-0.2881
 30
-0.6887
 70
192
 0
VERTEX
 8
CUBE_4
 10
2.0807
 20
-0.448
 30
-0.6887
 70
192
 0
VERTEX
 8
CUBE_4
 10
2.0807
 20
-0.6079
 30
-0.6887
 70
192
 0
VERTEX
 8
CUBE_4
 10
2.0807
 20
-0.7677
 30
-0.6887
 70
192
 0
VERTEX
 8
CUBE_4
 10
2.2471
 20
-0.2881
 30
-0.6887
 70
192
 0
VERTEX
 8
CUBE_4
 10
2.2471
 20
-0.448
 30
-0.6887
 70
192
 0
VERTEX
 8
CUBE_4
 10
2.2471
 20
-0.6079
 30
-0.6887
 70
192
 0
VERTEX
 8
CUBE_4
 10
2.2471
 20
-0.7677
 30
-0.6887
 70
192
 0
VERTEX
 8
CUBE_4
 10
2.4135
 20
-0.2881
 30
-0.6887
 70
192
 0
VERTEX
 8
CUBE_4
 10
2.4135
 20
-0.448
 30
-0.6887
 70
192
 0
VERTEX
 8
CUBE_4
 10
2.4135
 20
-0.6079
 30
-0.6887
 70
192
 0
VERTEX
 8
CUBE_4
 10
2.4135
 20
-0.7677
 30
-0.6887
 70
192
 0
VERTEX
 8
CUBE_4
 10
0.3335
 20
-0.9276
 30
-0.4955
 70
192
 0
VERTEX
 8
CUBE_4
 10
0.2711
 20
-0.9076
 30
-0.4955
 70
192
 0
VERTEX
 8
CUBE_4
 10
0.3335
 20
-0.9076
 30
-0.3466
 70
192
 0
VERTEX
 8
CUBE_4
 10
0.4167
 20
-0.9276
 30
-0.4955
 70
192
 0
VERTEX
 8
CUBE_4
 10
0.3335
 20
-0.9076
 30
-0.6404
 70
192
 0
VERTEX
 8
CUBE_4
 10
0.4999
 20
-0.9276
 30
-0.4955
 70
192
 0
VERTEX
 8
CUBE_4
 10
0.4999
 20
-0.9076
 30
-0.3425
 70
192
 0
VERTEX
 8
CUBE_4
 10
0.5831
 20
-0.9276
 30
-0.4955
 70
192
 0
VERTEX
 8
CUBE_4
 10
0.4999
 20
-0.9076
 30
-0.6404
 70
192
 0
VERTEX
 8
CUBE_4
 10
0.6663
 20
-0.9276
 30
-0.4955
 70
192
 0
VERTEX
 8
CUBE_4
 10
0.6663
 20
-0.9076
 30
-0.3425
 70
192
 0
VERTEX
 8
CUBE_4
 10
0.7495
 20
-0.9276
 30
-0.4955
 70
192
 0
VERTEX
 8
CUBE_4
 10
0.6663
 20
-0.9076
 30
-0.6404
 70
192
 0
VERTEX
 8
CUBE_4
 10
0.8327
 20
-0.9276
 30
-0.4955
 70
192
 0
VERTEX
 8
CUBE_4
 10
0.8327
 20
-0.9076
 30
-0.3425
 70
192
 0
VERTEX
 8
CUBE_4
 10
0.9159
 20
-0.9276
 30
-0.4955
 70
192
 0
VERTEX
 8
CUBE_4
 10
0.8327
 20
-0.9076
 30
-0.6404
 70
192
 0
VERTEX
 8
CUBE_4
 10
0.9991
 20
-0.9276
 30
-0.4955
 70
192
 0
VERTEX
 8
CUBE_4
 10
0.9991
 20
-0.9076
 30
-0.3425
 70
192
 0
VERTEX
 8
CUBE_4
 10
1.0823
 20
-0.9276
 30
-0.4955
 70
192
 0
VERTEX
 8
CUBE_4
 10
0.9991
 20
-0.9076
 30
-0.6404
 70
192
 0
VERTEX
 8
CUBE_4
 10
1.1655
 20
-0.9276
 30
-0.4955
 70
192
 0
VERTEX
 8
CUBE_4
 10
1.1655
 20
-0.9076
 30
-0.3425
 70
192
 0
VERTEX
 8
CUBE_4
 10
1.2487
 20
-0.9276
 30
-0.4955
 70
192
 0
VERTEX
 8
CUBE_4
 10
1.1655
 20
-0.9076
 30
-0.6404
 70
192
 0
VERTEX
 8
CUBE_4
 10
1.3319
 20
-0.9276
 30
-0.4955
 70
192
 0
VERTEX
 8
CUBE_4
 10
1.3319
 20
-0.9076
 30
-0.3425
 70
192
 0
VERTEX
 8
CUBE_4
 10
1.4151
 20
-0.9276
 30
-0.4955
 70
192
 0
VERTEX
 8
CUBE_4
 10
1.3319
 20
-0.9076
 30
-0.6404
 70
192
 0
VERTEX
 8
CUBE_4
 10
1.4983
 20
-0.9276
 30
-0.4955
 70
192
 0
VERTEX
 8
CUBE_4
 10
1.4983
 20
-0.9076
 30
-0.3425
 70
192
 0
VERTEX
 8
CUBE_4
 10
1.5815
 20
-0.9276
 30
-0.4955
 70
192
 0
VERTEX
 8
CUBE_4
 10
1.4983
 20
-0.9076
 30
-0.6404
 70
192
 0
VERTEX
 8
CUBE_4
 10
1.6647
 20
-0.9276
 30
-0.4955
 70
192
 0
VERTEX
 8
CUBE_4
 10
1.6647
 20
-0.9076
 30
-0.3425
 70
192
 0
VERTEX
 8
CUBE_4
 10
1.7479
 20
-0.9276
 30
-0.4955
 70
192
 0
VERTEX
 8
CUBE_4
 10
1.6647
 20
-0.9076
 30
-0.6404
 70
192
 0
VERTEX
 8
CUBE_4
 10
1.8311
 20
-0.9276
 30
-0.4955
 70
192
 0
VERTEX
 8
CUBE_4
 10
1.8311
 20
-0.9076
 30
-0.3425
 70
192
 0
VERTEX
 8
CUBE_4
 10
1.9143
 20
-0.9276
 30
-0.4955
 70
192
 0
VERTEX
 8
CUBE_4
 10
1.8311
 20
-0.9076
 30
-0.6404
 70
192
 0
VERTEX
 8
CUBE_4
 10
1.9975
 20
-0.9276
 30
-0.4955
 70
192
 0
VERTEX
 8
CUBE_4
 10
1.9975
 20
-0.9076
 30
-0.3425
 70
192
 0
VERTEX
 8
CUBE_4
 10
2.0807
 20
-0.9276
 30
-0.4955
 70
192
 0
VERTEX
 8
CUBE_4
 10
1.9975
 20
-0.9076
 30
-0.6404
 70
192
 0
VERTEX
 8
CUBE_4
 10
2.1639
 20
-0.9276
 30
-0.4955
 70
192
 0
VERTEX
 8
CUBE_4
 10
2.1639
 20
-0.9076
 30
-0.3425
 70
192
 0
VERTEX
 8
CUBE_4
 10
2.2471
 20
-0.9276
 30
-0.4955
 70
192
 0
VERTEX
 8
CUBE_4
 10
2.1639
 20
-0.9076
 30
-0.6404
 70
192
 0
VERTEX
 8
CUBE_4
 10
2.3303
 20
-0.9276
 30
-0.4955
 70
192
 0
VERTEX
 8
CUBE_4
 10
2.3303
 20
-0.9076
 30
-0.3425
 70
192
 0
VERTEX
 8
CUBE_4
 10
2.4135
 20
-0.9276
 30
-0.4955
 70
192
 0
VERTEX
 8
CUBE_4
 10
2.3303
 20
-0.9076
 30
-0.6404
 70
192
 0
VERTEX
 8
CUBE_4
 10
2.4967
 20
-0.9276
 30
-0.4955
 70
192
 0
VERTEX
 8
CUBE_4
 10
2.4967
 20
-0.9076
 30
-0.3466
 70
192
 0
VERTEX
 8
CUBE_4
 10
2.5592
 20
-0.9076
 30
-0.4955
 70
192
 0
VERTEX
 8
CUBE_4
 10
2.4967
 20
-0.9076
 30
-0.6404
 70
192
 0
VERTEX
 8
CUBE_4
 10
2.58
 20
-0.8476
 30
-0.4955
 70
192
 0
VERTEX
 8
CUBE_4
 10
2.5592
 20
-0.8476
 30
-0.3466
 70
192
 0
VERTEX
 8
CUBE_4
 10
2.58
 20
-0.7677
 30
-0.4955
 70
192
 0
VERTEX
 8
CUBE_4
 10
2.5592
 20
-0.8476
 30
-0.6404
 70
192
 0
VERTEX
 8
CUBE_4
 10
2.58
 20
-0.6878
 30
-0.4955
 70
192
 0
VERTEX
 8
CUBE_4
 10
2.5592
 20
-0.6878
 30
-0.3425
 70
192
 0
VERTEX
 8
CUBE_4
 10
2.58
 20
-0.6079
 30
-0.4955
 70
192
 0
VERTEX
 8
CUBE_4
 10
2.5592
 20
-0.6878
 30
-0.6404
 70
192
 0
VERTEX
 8
CUBE_4
 10
2.58
 20
-0.5279
 30
-0.4955
 70
192
 0
VERTEX
 8
CUBE_4
 10
2.5592
 20
-0.5279
 30
-0.3425
 70
192
 0
VERTEX
 8
CUBE_4
 10
2.58
 20
-0.448
 30
-0.4955
 70
192
 0
VERTEX
 8
CUBE_4
 10
2.5592
 20
-0.5279
 30
-0.6404
 70
192
 0
VERTEX
 8
CUBE_4
 10
2.58
 20
-0.3681
 30
-0.4955
 70
192
 0
VERTEX
 8
CUBE_4
 10
2.5592
 20
-0.3681
 30
-0.3425
 70
192
 0
VERTEX
 8
CUBE_4
 10
2.58
 20
-0.2881
 30
-0.4955
 70
192
 0
VERTEX
 8
CUBE_4
 10
2.5592
 20
-0.3681
 30
-0.6404
 70
192
 0
VERTEX
 8
CUBE_4
 10
2.58
 20
-0.2082
 30
-0.4955
 70
192
 0
VERTEX
 8
CUBE_4
 10
2.5592
 20
-0.2082
 30
-0.3466
 70
192
 0
VERTEX
 8
CUBE_4
 10
2.5592
 20
-0.1483
 30
-0.4955
 70
192
 0
VERTEX
 8
CUBE_4
 10
2.5592
 20
-0.2082
 30
-0.6404
 70
192
 0
VERTEX
 8
CUBE_4
 10
2.4967
 20
-0.1283
 30
-0.4955
 70
192
 0
VERTEX
 8
CUBE_4
 10
2.4967
 20
-0.1483
 30
-0.3466
 70
192
 0
VERTEX
 8
CUBE_4
 10
2.4135
 20
-0.1283
 30
-0.4955
 70
192
 0
VERTEX
 8
CUBE_4
 10
2.4967
 20
-0.1483
 30
-0.6404
 70
192
 0
VERTEX
 8
CUBE_4
 10
2.3303
 20
-0.1283
 30
-0.4955
 70
192
 0
VERTEX
 8
CUBE_4
 10
2.3303
 20
-0.1483
 30
-0.3425
 70
192
 0
VERTEX
 8
CUBE_4
 10
2.2471
 20
-0.1283
 30
-0.4955
 70
192
 0
VERTEX
 8
CUBE_4
 10
2.3303
 20
-0.1483
 30
-0.6404
 70
192
 0
VERTEX
 8
CUBE_4
 10
2.1639
 20
-0.1283
 30
-0.4955
 70
192
 0
VERTEX
 8
CUBE_4
 10
2.1639
 20
-0.1483
 30
-0.3425
 70
192
 0
VERTEX
 8
CUBE_4
 10
2.0807
 20
-0.1283
 30
-0.4955
 70
192
 0
VERTEX
 8
CUBE_4
 10
2.1639
 20
-0.1483
 30
-0.6404
 70
192
 0
VERTEX
 8
CUBE_4
 10
1.9975
 20
-0.1283
 30
-0.4955
 70
192
 0
VERTEX
 8
CUBE_4
 10
1.9975
 20
-0.1483
 30
-0.3425
 70
192
 0
VERTEX
 8
CUBE_4
 10
1.9143
 20
-0.1283
 30
-0.4955
 70
192
 0
VERTEX
 8
CUBE_4
 10
1.9975
 20
-0.1483
 30
-0.6404
 70
192
 0
VERTEX
 8
CUBE_4
 10
1.8311
 20
-0.1283
 30
-0.4955
 70
192
 0
VERTEX
 8
CUBE_4
 10
1.8311
 20
-0.1483
 30
-0.3425
 70
192
 0
VERTEX
 8
CUBE_4
 10
1.7479
 20
-0.1283
 30
-0.4955
 70
192
 0
VERTEX
 8
CUBE_4
 10
1.8311
 20
-0.1483
 30
-0.6404
 70
192
 0
VERTEX
 8
CUBE_4
 10
1.6647
 20
-0.1283
 30
-0.4955
 70
192
 0
VERTEX
 8
CUBE_4
 10
1.6647
 20
-0.1483
 30
-0.3425
 70
192
 0
VERTEX
 8
CUBE_4
 10
1.5815
 20
-0.1283
 30
-0.4955
 70
192
 0
VERTEX
 8
CUBE_4
 10
1.6647
 20
-0.1483
 30
-0.6404
 70
192
 0
VERTEX
 8
CUBE_4
 10
1.4983
 20
-0.1283
 30
-0.4955
 70
192
 0
VERTEX
 8
CUBE_4
 10
1.4983
 20
-0.1483
 30
-0.3425
 70
192
 0
VERTEX
 8
CUBE_4
 10
1.4151
 20
-0.1283
 30
-0.4955
 70
192
 0
VERTEX
 8
CUBE_4
 10
1.4983
 20
-0.1483
 30
-0.6404
 70
192
 0
VERTEX
 8
CUBE_4
 10
1.3319
 20
-0.1283
 30
-0.4955
 70
192
 0
VERTEX
 8
CUBE_4
 10
1.3319
 20
-0.1483
 30
-0.3425
 70
192
 0
VERTEX
 8
CUBE_4
 10
1.2487
 20
-0.1283
 30
-0.4955
 70
192
 0
VERTEX
 8
CUBE_4
 10
1.3319
 20
-0.1483
 30
-0.6404
 70
192
 0
VERTEX
 8
CUBE_4
 10
1.1655
 20
-0.1283
 30
-0.4955
 70
192
 0
VERTEX
 8
CUBE_4
 10
1.1655
 20
-0.1483
 30
-0.3425
 70
192
 0
VERTEX
 8
CUBE_4
 10
1.0823
 20
-0.1283
 30
-0.4955
 70
192
 0
VERTEX
 8
CUBE_4
 10
1.1655
 20
-0.1483
 30
-0.6404
 70
192
 0
VERTEX
 8
CUBE_4
 10
0.9991
 20
-0.1283
 30
-0.4955
 70
192
 0
VERTEX
 8
CUBE_4
 10
0.9991
 20
-0.1483
 30
-0.3425
 70
192
 0
VERTEX
 8
CUBE_4
 10
0.9159
 20
-0.1283
 30
-0.4955
 70
192
 0
VERTEX
 8
CUBE_4
 10
0.9991
 20
-0.1483
 30
-0.6404
 70
192
 0
VERTEX
 8
CUBE_4
 10
0.8327
 20
-0.1283
 30
-0.4955
 70
192
 0
VERTEX
 8
CUBE_4
 10
0.8327
 20
-0.1483
 30
-0.3425
 70
192
 0
VERTEX
 8
CUBE_4
 10
0.7495
 20
-0.1283
 30
-0.4955
 70
192
 0
VERTEX
 8
CUBE_4
 10
0.8327
 20
-0.1483
 30
-0.6404
 70
192
 0
VERTEX
 8
CUBE_4
 10
0.6663
 20
-0.1283
 30
-0.4955
 70
192
 0
VERTEX
 8
CUBE_4
 10
0.6663
 20
-0.1483
 30
-0.3425
 70
192
 0
VERTEX
 8
CUBE_4
 10
0.5831
 20
-0.1283
 30
-0.4955
 70
192
 0
VERTEX
 8
CUBE_4
 10
0.6663
 20
-0.1483
 30
-0.6404
 70
192
 0
VERTEX
 8
CUBE_4
 10
0.4999
 20
-0.1283
 30
-0.4955
 70
192
 0
VERTEX
 8
CUBE_4
 10
0.4999
 20
-0.1483
 30
-0.3425
 70
192
 0
VERTEX
 8
CUBE_4
 10
0.4167
 20
-0.1283
 30
-0.4955
 70
192
 0
VERTEX
 8
CUBE_4
 10
0.4999
 20
-0.1483
 30
-0.6404
 70
192
 0
VERTEX
 8
CUBE_4
 10
0.3335
 20
-0.1283
 30
-0.4955
 70
192
 0
VERTEX
 8
CUBE_4
 10
0.3335
 20
-0.1483
 30
-0.3466
 70
192
 0
VERTEX
 8
CUBE_4
 10
0.2711
 20
-0.1483
 30
-0.4955
 70
192
 0
VERTEX
 8
CUBE_4
 10
0.3335
 20
-0.1483
 30
-0.6404
 70
192
 0
VERTEX
 8
CUBE_4
 10
0.2503
 20
-0.2082
 30
-0.4955
 70
192
 0
VERTEX
 8
CUBE_4
 10
0.2711
 20
-0.2082
 30
-0.3466
 70
192
 0
VERTEX
 8
CUBE_4
 10
0.2503
 20
-0.2881
 30
-0.4955
 70
192
 0
VERTEX
 8
CUBE_4
 10
0.2711
 20
-0.2082
 30
-0.6404
 70
192
 0
VERTEX
 8
CUBE_4
 10
0.2503
 20
-0.3681
 30
-0.4955
 70
192
 0
VERTEX
 8
CUBE_4
 10
0.2711
 20
-0.3681
 30
-0.3425
 70
192
 0
VERTEX
 8
CUBE_4
 10
0.2503
 20
-0.448
 30
-0.4955
 70
192
 0
VERTEX
 8
CUBE_4
 10
0.2711
 20
-0.3681
 30
-0.6404
 70
192
 0
VERTEX
 8
CUBE_4
 10
0.2503
 20
-0.5279
 30
-0.4955
 70
192
 0
VERTEX
 8
CUBE_4
 10
0.2711
 20
-0.5279
 30
-0.3425
 70
192
 0
VERTEX
 8
CUBE_4
 10
0.2503
 20
-0.6079
 30
-0.4955
 70
192
 0
VERTEX
 8
CUBE_4
 10
0.2711
 20
-0.5279
 30
-0.6404
 70
192
 0
VERTEX
 8
CUBE_4
 10
0.2503
 20
-0.6878
 30
-0.4955
 70
192
 0
VERTEX
 8
CUBE_4
 10
0.2711
 20
-0.6878
 30
-0.3425
 70
192
 0
VERTEX
 8
CUBE_4
 10
0.2503
 20
-0.7677
 30
-0.4955
 70
192
 0
VERTEX
 8
CUBE_4
 10
0.2711
 20
-0.6878
 30
-0.6404
 70
192
 0
VERTEX
 8
CUBE_4
 10
0.2503
 20
-0.8476
 30
-0.4955
 70
192
 0
VERTEX
 8
CUBE_4
 10
0.2711
 20
-0.8476
 30
-0.3466
 70
192
 0
VERTEX
 8
CUBE_4
 10
0.2711
 20
-0.8476
 30
-0.6404
 70
192
 0
VERTEX
 8
CUBE_4
 10
0.3335
 20
-0.8476
 30
-0.2861
 70
192
 0
VERTEX
 8
CUBE_4
 10
0.3335
 20
-0.7677
 30
-0.2739
 70
192
 0
VERTEX
 8
CUBE_4
 10
0.4167
 20
-0.8476
 30
-0.2739
 70
192
 0
VERTEX
 8
CUBE_4
 10
0.4999
 20
-0.8476
 30
-0.2699
 70
192
 0
VERTEX
 8
CUBE_4
 10
0.4999
 20
-0.7677
 30
-0.2455
 70
192
 0
VERTEX
 8
CUBE_4
 10
0.5831
 20
-0.8476
 30
-0.2699
 70
192
 0
VERTEX
 8
CUBE_4
 10
0.6663
 20
-0.8476
 30
-0.2699
 70
192
 0
VERTEX
 8
CUBE_4
 10
0.6663
 20
-0.7677
 30
-0.2455
 70
192
 0
VERTEX
 8
CUBE_4
 10
0.7495
 20
-0.8476
 30
-0.2699
 70
192
 0
VERTEX
 8
CUBE_4
 10
0.8327
 20
-0.8476
 30
-0.2699
 70
192
 0
VERTEX
 8
CUBE_4
 10
0.8327
 20
-0.7677
 30
-0.2455
 70
192
 0
VERTEX
 8
CUBE_4
 10
0.9159
 20
-0.8476
 30
-0.2699
 70
192
 0
VERTEX
 8
CUBE_4
 10
0.9991
 20
-0.8476
 30
-0.2699
 70
192
 0
VERTEX
 8
CUBE_4
 10
0.9991
 20
-0.7677
 30
-0.2455
 70
192
 0
VERTEX
 8
CUBE_4
 10
1.0823
 20
-0.8476
 30
-0.2699
 70
192
 0
VERTEX
 8
CUBE_4
 10
1.1655
 20
-0.8476
 30
-0.2699
 70
192
 0
VERTEX
 8
CUBE_4
 10
1.1655
 20
-0.7677
 30
-0.2455
 70
192
 0
VERTEX
 8
CUBE_4
 10
1.2487
 20
-0.8476
 30
-0.2699
 70
192
 0
VERTEX
 8
CUBE_4
 10
1.3319
 20
-0.8476
 30
-0.2699
 70
192
 0
VERTEX
 8
CUBE_4
 10
1.3319
 20
-0.7677
 30
-0.2455
 70
192
 0
VERTEX
 8
CUBE_4
 10
1.4151
 20
-0.8476
 30
-0.2699
 70
192
 0
VERTEX
 8
CUBE_4
 10
1.4983
 20
-0.8476
 30
-0.2699
 70
192
 0
VERTEX
 8
CUBE_4
 10
1.4983
 20
-0.7677
 30
-0.2455
 70
192
 0
VERTEX
 8
CUBE_4
 10
1.5815
 20
-0.8476
 30
-0.2699
 70
192
 0
VERTEX
 8
CUBE_4
 10
1.6647
 20
-0.8476
 30
-0.2699
 70
192
 0
VERTEX
 8
CUBE_4
 10
1.6647
 20
-0.7677
 30
-0.2455
 70
192
 0
VERTEX
 8
CUBE_4
 10
1.7479
 20
-0.8476
 30
-0.2699
 70
192
 0
VERTEX
 8
CUBE_4
 10
1.8311
 20
-0.8476
 30
-0.2699
 70
192
 0
VERTEX
 8
CUBE_4
 10
1.8311
 20
-0.7677
 30
-0.2455
 70
192
 0
VERTEX
 8
CUBE_4
 10
1.9143
 20
-0.8476
 30
-0.2699
 70
192
 0
VERTEX
 8
CUBE_4
 10
1.9975
 20
-0.8476
 30
-0.2699
 70
192
 0
VERTEX
 8
CUBE_4
 10
1.9975
 20
-0.7677
 30
-0.2455
 70
192
 0
VERTEX
 8
CUBE_4
 10
2.0807
 20
-0.8476
 30
-0.2699
 70
192
 0
VERTEX
 8
CUBE_4
 10
2.1639
 20
-0.8476
 30
-0.2699
 70
192
 0
VERTEX
 8
CUBE_4
 10
2.1639
 20
-0.7677
 30
-0.2455
 70
192
 0
VERTEX
 8
CUBE_4
 10
2.2471
 20
-0.8476
 30
-0.2699
 70
192
 0
VERTEX
 8
CUBE_4
 10
2.3303
 20
-0.8476
 30
-0.2699
 70
192
 0
VERTEX
 8
CUBE_4
 10
2.3303
 20
-0.7677
 30
-0.2455
 70
192
 0
VERTEX
 8
CUBE_4
 10
2.4135
 20
-0.8476
 30
-0.2739
 70
192
 0
VERTEX
 8
CUBE_4
 10
2.4967
 20
-0.8476
 30
-0.2861
 70
192
 0
VERTEX
 8
CUBE_4
 10
2.4967
 20
-0.7677
 30
-0.2739
 70
192
 0
VERTEX
 8
CUBE_4
 10
0.3335
 20
-0.6878
 30
-0.2699
 70
192
 0
VERTEX
 8
CUBE_4
 10
0.3335
 20
-0.6079
 30
-0.2699
 70
192
 0
VERTEX
 8
CUBE_4
 10
0.4167
 20
-0.6878
 30
-0.2455
 70
192
 0
VERTEX
 8
CUBE_4
 10
0.4999
 20
-0.6878
 30
-0.2374
 70
192
 0
VERTEX
 8
CUBE_4
 10
0.4999
 20
-0.6079
 30
-0.2374
 70
192
 0
VERTEX
 8
CUBE_4
 10
0.5831
 20
-0.6878
 30
-0.2374
 70
192
 0
VERTEX
 8
CUBE_4
 10
0.6663
 20
-0.6878
 30
-0.2374
 70
192
 0
VERTEX
 8
CUBE_4
 10
0.6663
 20
-0.6079
 30
-0.2374
 70
192
 0
VERTEX
 8
CUBE_4
 10
0.7495
 20
-0.6878
 30
-0.2374
 70
192
 0
VERTEX
 8
CUBE_4
 10
0.8327
 20
-0.6878
 30
-0.2374
 70
192
 0
VERTEX
 8
CUBE_4
 10
0.8327
 20
-0.6079
 30
-0.2374
 70
192
 0
VERTEX
 8
CUBE_4
 10
0.9159
 20
-0.6878
 30
-0.2374
 70
192
 0
VERTEX
 8
CUBE_4
 10
0.9991
 20
-0.6878
 30
-0.2374
 70
192
 0
VERTEX
 8
CUBE_4
 10
0.9991
 20
-0.6079
 30
-0.2374
 70
192
 0
VERTEX
 8
CUBE_4
 10
1.0823
 20
-0.6878
 30
-0.2374
 70
192
 0
VERTEX
 8
CUBE_4
 10
1.1655
 20
-0.6878
 30
-0.2374
 70
192
 0
VERTEX
 8
CUBE_4
 10
1.1655
 20
-0.6079
 30
-0.2374
 70
192
 0
VERTEX
 8
CUBE_4
 10
1.2487
 20
-0.6878
 30
-0.2374
 70
192
 0
VERTEX
 8
CUBE_4
 10
1.3319
 20
-0.6878
 30
-0.2374
 70
192
 0
VERTEX
 8
CUBE_4
 10
1.3319
 20
-0.6079
 30
-0.2374
 70
192
 0
VERTEX
 8
CUBE_4
 10
1.4151
 20
-0.6878
 30
-0.2374
 70
192
 0
VERTEX
 8
CUBE_4
 10
1.4983
 20
-0.6878
 30
-0.2374
 70
192
 0
VERTEX
 8
CUBE_4
 10
1.4983
 20
-0.6079
 30
-0.2374
 70
192
 0
VERTEX
 8
CUBE_4
 10
1.5815
 20
-0.6878
 30
-0.2374
 70
192
 0
VERTEX
 8
CUBE_4
 10
1.6647
 20
-0.6878
 30
-0.2374
 70
192
 0
VERTEX
 8
CUBE_4
 10
1.6647
 20
-0.6079
 30
-0.2374
 70
192
 0
VERTEX
 8
CUBE_4
 10
1.7479
 20
-0.6878
 30
-0.2374
 70
192
 0
VERTEX
 8
CUBE_4
 10
1.8311
 20
-0.6878
 30
-0.2374
 70
192
 0
VERTEX
 8
CUBE_4
 10
1.8311
 20
-0.6079
 30
-0.2374
 70
192
 0
VERTEX
 8
CUBE_4
 10
1.9143
 20
-0.6878
 30
-0.2374
 70
192
 0
VERTEX
 8
CUBE_4
 10
1.9975
 20
-0.6878
 30
-0.2374
 70
192
 0
VERTEX
 8
CUBE_4
 10
1.9975
 20
-0.6079
 30
-0.2374
 70
192
 0
VERTEX
 8
CUBE_4
 10
2.0807
 20
-0.6878
 30
-0.2374
 70
192
 0
VERTEX
 8
CUBE_4
 10
2.1639
 20
-0.6878
 30
-0.2374
 70
192
 0
VERTEX
 8
CUBE_4
 10
2.1639
 20
-0.6079
 30
-0.2374
 70
192
 0
VERTEX
 8
CUBE_4
 10
2.2471
 20
-0.6878
 30
-0.2374
 70
192
 0
VERTEX
 8
CUBE_4
 10
2.3303
 20
-0.6878
 30
-0.2374
 70
192
 0
VERTEX
 8
CUBE_4
 10
2.3303
 20
-0.6079
 30
-0.2374
 70
192
 0
VERTEX
 8
CUBE_4
 10
2.4135
 20
-0.6878
 30
-0.2455
 70
192
 0
VERTEX
 8
CUBE_4
 10
2.4967
 20
-0.6878
 30
-0.2699
 70
192
 0
VERTEX
 8
CUBE_4
 10
2.4967
 20
-0.6079
 30
-0.2699
 70
192
 0
VERTEX
 8
CUBE_4
 10
0.3335
 20
-0.5279
 30
-0.2699
 70
192
 0
VERTEX
 8
CUBE_4
 10
0.3335
 20
-0.448
 30
-0.2699
 70
192
 0
VERTEX
 8
CUBE_4
 10
0.4167
 20
-0.5279
 30
-0.2455
 70
192
 0
VERTEX
 8
CUBE_4
 10
0.4999
 20
-0.5279
 30
-0.2374
 70
192
 0
VERTEX
 8
CUBE_4
 10
0.4999
 20
-0.448
 30
-0.2374
 70
192
 0
VERTEX
 8
CUBE_4
 10
0.5831
 20
-0.5279
 30
-0.2374
 70
192
 0
VERTEX
 8
CUBE_4
 10
0.6663
 20
-0.5279
 30
-0.2374
 70
192
 0
VERTEX
 8
CUBE_4
 10
0.6663
 20
-0.448
 30
-0.2374
 70
192
 0
VERTEX
 8
CUBE_4
 10
0.7495
 20
-0.5279
 30
-0.2374
 70
192
 0
VERTEX
 8
CUBE_4
 10
0.8327
 20
-0.5279
 30
-0.2374
 70
192
 0
VERTEX
 8
CUBE_4
 10
0.8327
 20
-0.448
 30
-0.2374
 70
192
 0
VERTEX
 8
CUBE_4
 10
0.9159
 20
-0.5279
 30
-0.2374
 70
192
 0
VERTEX
 8
CUBE_4
 10
0.9991
 20
-0.5279
 30
-0.2374
 70
192
 0
VERTEX
 8
CUBE_4
 10
0.9991
 20
-0.448
 30
-0.2374
 70
192
 0
VERTEX
 8
CUBE_4
 10
1.0823
 20
-0.5279
 30
-0.2374
 70
192
 0
VERTEX
 8
CUBE_4
 10
1.1655
 20
-0.5279
 30
-0.2374
 70
192
 0
VERTEX
 8
CUBE_4
 10
1.1655
 20
-0.448
 30
-0.2374
 70
192
 0
VERTEX
 8
CUBE_4
 10
1.2487
 20
-0.5279
 30
-0.2374
 70
192
 0
VERTEX
 8
CUBE_4
 10
1.3319
 20
-0.5279
 30
-0.2374
 70
192
 0
VERTEX
 8
CUBE_4
 10
1.3319
 20
-0.448
 30
-0.2374
 70
192
 0
VERTEX
 8
CUBE_4
 10
1.4151
 20
-0.5279
 30
-0.2374
 70
192
 0
VERTEX
 8
CUBE_4
 10
1.4983
 20
-0.5279
 30
-0.2374
 70
192
 0
VERTEX
 8
CUBE_4
 10
1.4983
 20
-0.448
 30
-0.2374
 70
192
 0
VERTEX
 8
CUBE_4
 10
1.5815
 20
-0.5279
 30
-0.2374
 70
192
 0
VERTEX
 8
CUBE_4
 10
1.6647
 20
-0.5279
 30
-0.2374
 70
192
 0
VERTEX
 8
CUBE_4
 10
1.6647
 20
-0.448
 30
-0.2374
 70
192
 0
VERTEX
 8
CUBE_4
 10
1.7479
 20
-0.5279
 30
-0.2374
 70
192
 0
VERTEX
 8
CUBE_4
 10
1.8311
 20
-0.5279
 30
-0.2374
 70
192
 0
VERTEX
 8
CUBE_4
 10
1.8311
 20
-0.448
 30
-0.2374
 70
192
 0
VERTEX
 8
CUBE_4
 10
1.9143
 20
-0.5279
 30
-0.2374
 70
192
 0
VERTEX
 8
CUBE_4
 10
1.9975
 20
-0.5279
 30
-0.2374
 70
192
 0
VERTEX
 8
CUBE_4
 10
1.9975
 20
-0.448
 30
-0.2374
 70
192
 0
VERTEX
 8
CUBE_4
 10
2.0807
 20
-0.5279
 30
-0.2374
 70
192
 0
VERTEX
 8
CUBE_4
 10
2.1639
 20
-0.5279
 30
-0.2374
 70
192
 0
VERTEX
 8
CUBE_4
 10
2.1639
 20
-0.448
 30
-0.2374
 70
192
 0
VERTEX
 8
CUBE_4
 10
2.2471
 20
-0.5279
 30
-0.2374
 70
192
 0
VERTEX
 8
CUBE_4
 10
2.3303
 20
-0.5279
 30
-0.2374
 70
192
 0
VERTEX
 8
CUBE_4
 10
2.3303
 20
-0.448
 30
-0.2374
 70
192
 0
VERTEX
 8
CUBE_4
 10
2.4135
 20
-0.5279
 30
-0.2455
 70
192
 0
VERTEX
 8
CUBE_4
 10
2.4967
 20
-0.5279
 30
-0.2699
 70
192
 0
VERTEX
 8
CUBE_4
 10
2.4967
 20
-0.448
 30
-0.2699
 70
192
 0
VERTEX
 8
CUBE_4
 10
0.3335
 20
-0.3681
 30
-0.2699
 70
192
 0
VERTEX
 8
CUBE_4
 10
0.3335
 20
-0.2881
 30
-0.2739
 70
192
 0
VERTEX
 8
CUBE_4
 10
0.4167
 20
-0.3681
 30
-0.2455
 70
192
 0
VERTEX
 8
CUBE_4
 10
0.4999
 20
-0.3681
 30
-0.2374
 70
192
 0
VERTEX
 8
CUBE_4
 10
0.4999
 20
-0.2881
 30
-0.2455
 70
192
 0
VERTEX
 8
CUBE_4
 10
0.5831
 20
-0.3681
 30
-0.2374
 70
192
 0
VERTEX
 8
CUBE_4
 10
0.6663
 20
-0.3681
 30
-0.2374
 70
192
 0
VERTEX
 8
CUBE_4
 10
0.6663
 20
-0.2881
 30
-0.2455
 70
192
 0
VERTEX
 8
CUBE_4
 10
0.7495
 20
-0.3681
 30
-0.2374
 70
192
 0
VERTEX
 8
CUBE_4
 10
0.8327
 20
-0.3681
 30
-0.2374
 70
192
 0
VERTEX
 8
CUBE_4
 10
0.8327
 20
-0.2881
 30
-0.2455
 70
192
 0
VERTEX
 8
CUBE_4
 10
0.9159
 20
-0.3681
 30
-0.2374
 70
192
 0
VERTEX
 8
CUBE_4
 10
0.9991
 20
-0.3681
 30
-0.2374
 70
192
 0
VERTEX
 8
CUBE_4
 10
0.9991
 20
-0.2881
 30
-0.2455
 70
192
 0
VERTEX
 8
CUBE_4
 10
1.0823
 20
-0.3681
 30
-0.2374
 70
192
 0
VERTEX
 8
CUBE_4
 10
1.1655
 20
-0.3681
 30
-0.2374
 70
192
 0
VERTEX
 8
CUBE_4
 10
1.1655
 20
-0.2881
 30
-0.2455
 70
192
 0
VERTEX
 8
CUBE_4
 10
1.2487
 20
-0.3681
 30
-0.2374
 70
192
 0
VERTEX
 8
CUBE_4
 10
1.3319
 20
-0.3681
 30
-0.2374
 70
192
 0
VERTEX
 8
CUBE_4
 10
1.3319
 20
-0.2881
 30
-0.2455
 70
192
 0
VERTEX
 8
CUBE_4
 10
1.4151
 20
-0.3681
 30
-0.2374
 70
192
 0
VERTEX
 8
CUBE_4
 10
1.4983
 20
-0.3681
 30
-0.2374
 70
192
 0
VERTEX
 8
CUBE_4
 10
1.4983
 20
-0.2881
 30
-0.2455
 70
192
 0
VERTEX
 8
CUBE_4
 10
1.5815
 20
-0.3681
 30
-0.2374
 70
192
 0
VERTEX
 8
CUBE_4
 10
1.6647
 20
-0.3681
 30
-0.2374
 70
192
 0
VERTEX
 8
CUBE_4
 10
1.6647
 20
-0.2881
 30
-0.2455
 70
192
 0
VERTEX
 8
CUBE_4
 10
1.7479
 20
-0.3681
 30
-0.2374
 70
192
 0
VERTEX
 8
CUBE_4
 10
1.8311
 20
-0.3681
 30
-0.2374
 70
192
 0
VERTEX
 8
CUBE_4
 10
1.8311
 20
-0.2881
 30
-0.2455
 70
192
 0
VERTEX
 8
CUBE_4
 10
1.9143
 20
-0.3681
 30
-0.2374
 70
192
 0
VERTEX
 8
CUBE_4
 10
1.9975
 20
-0.3681
 30
-0.2374
 70
192
 0
VERTEX
 8
CUBE_4
 10
1.9975
 20
-0.2881
 30
-0.2455
 70
192
 0
VERTEX
 8
CUBE_4
 10
2.0807
 20
-0.3681
 30
-0.2374
 70
192
 0
VERTEX
 8
CUBE_4
 10
2.1639
 20
-0.3681
 30
-0.2374
 70
192
 0
VERTEX
 8
CUBE_4
 10
2.1639
 20
-0.2881
 30
-0.2455
 70
192
 0
VERTEX
 8
CUBE_4
 10
2.2471
 20
-0.3681
 30
-0.2374
 70
192
 0
VERTEX
 8
CUBE_4
 10
2.3303
 20
-0.3681
 30
-0.2374
 70
192
 0
VERTEX
 8
CUBE_4
 10
2.3303
 20
-0.2881
 30
-0.2455
 70
192
 0
VERTEX
 8
CUBE_4
 10
2.4135
 20
-0.3681
 30
-0.2455
 70
192
 0
VERTEX
 8
CUBE_4
 10
2.4967
 20
-0.3681
 30
-0.2699
 70
192
 0
VERTEX
 8
CUBE_4
 10
2.4967
 20
-0.2881
 30
-0.2739
 70
192
 0
VERTEX
 8
CUBE_4
 10
0.3335
 20
-0.2082
 30
-0.2861
 70
192
 0
VERTEX
 8
CUBE_4
 10
0.4167
 20
-0.2082
 30
-0.2739
 70
192
 0
VERTEX
 8
CUBE_4
 10
0.4999
 20
-0.2082
 30
-0.2699
 70
192
 0
VERTEX
 8
CUBE_4
 10
0.5831
 20
-0.2082
 30
-0.2699
 70
192
 0
VERTEX
 8
CUBE_4
 10
0.6663
 20
-0.2082
 30
-0.2699
 70
192
 0
VERTEX
 8
CUBE_4
 10
0.7495
 20
-0.2082
 30
-0.2699
 70
192
 0
VERTEX
 8
CUBE_4
 10
0.8327
 20
-0.2082
 30
-0.2699
 70
192
 0
VERTEX
 8
CUBE_4
 10
0.9159
 20
-0.2082
 30
-0.2699
 70
192
 0
VERTEX
 8
CUBE_4
 10
0.9991
 20
-0.2082
 30
-0.2699
 70
192
 0
VERTEX
 8
CUBE_4
 10
1.0823
 20
-0.2082
 30
-0.2699
 70
192
 0
VERTEX
 8
CUBE_4
 10
1.1655
 20
-0.2082
 30
-0.2699
 70
192
 0
VERTEX
 8
CUBE_4
 10
1.2487
 20
-0.2082
 30
-0.2699
 70
192
 0
VERTEX
 8
CUBE_4
 10
1.3319
 20
-0.2082
 30
-0.2699
 70
192
 0
VERTEX
 8
CUBE_4
 10
1.4151
 20
-0.2082
 30
-0.2699
 70
192
 0
VERTEX
 8
CUBE_4
 10
1.4983
 20
-0.2082
 30
-0.2699
 70
192
 0
VERTEX
 8
CUBE_4
 10
1.5815
 20
-0.2082
 30
-0.2699
 70
192
 0
VERTEX
 8
CUBE_4
 10
1.6647
 20
-0.2082
 30
-0.2699
 70
192
 0
VERTEX
 8
CUBE_4
 10
1.7479
 20
-0.2082
 30
-0.2699
 70
192
 0
VERTEX
 8
CUBE_4
 10
1.8311
 20
-0.2082
 30
-0.2699
 70
192
 0
VERTEX
 8
CUBE_4
 10
1.9143
 20
-0.2082
 30
-0.2699
 70
192
 0
VERTEX
 8
CUBE_4
 10
1.9975
 20
-0.2082
 30
-0.2699
 70
192
 0
VERTEX
 8
CUBE_4
 10
2.0807
 20
-0.2082
 30
-0.2699
 70
192
 0
VERTEX
 8
CUBE_4
 10
2.1639
 20
-0.2082
 30
-0.2699
 70
192
 0
VERTEX
 8
CUBE_4
 10
2.2471
 20
-0.2082
 30
-0.2699
 70
192
 0
VERTEX
 8
CUBE_4
 10
2.3303
 20
-0.2082
 30
-0.2699
 70
192
 0
VERTEX
 8
CUBE_4
 10
2.4135
 20
-0.2082
 30
-0.2739
 70
192
 0
VERTEX
 8
CUBE_4
 10
2.4967
 20
-0.2082
 30
-0.2861
 70
192
 0
VERTEX
 8
CUBE_4
 10
0.3335
 20
-0.2082
 30
-0.6887
 70
192
 0
VERTEX
 8
CUBE_4
 10
0.3335
 20
-0.2881
 30
-0.6887
 70
192
 0
VERTEX
 8
CUBE_4
 10
0.4167
 20
-0.2082
 30
-0.6887
 70
192
 0
VERTEX
 8
CUBE_4
 10
0.4999
 20
-0.2082
 30
-0.6887
 70
192
 0
VERTEX
 8
CUBE_4
 10
0.4999
 20
-0.2881
 30
-0.6887
 70
192
 0
VERTEX
 8
CUBE_4
 10
0.5831
 20
-0.2082
 30
-0.6887
 70
192
 0
VERTEX
 8
CUBE_4
 10
0.6663
 20
-0.2082
 30
-0.6887
 70
192
 0
VERTEX
 8
CUBE_4
 10
0.6663
 20
-0.2881
 30
-0.6887
 70
192
 0
VERTEX
 8
CUBE_4
 10
0.7495
 20
-0.2082
 30
-0.6887
 70
192
 0
VERTEX
 8
CUBE_4
 10
0.8327
 20
-0.2082
 30
-0.6887
 70
192
 0
VERTEX
 8
CUBE_4
 10
0.8327
 20
-0.2881
 30
-0.6887
 70
192
 0
VERTEX
 8
CUBE_4
 10
0.9159
 20
-0.2082
 30
-0.6887
 70
192
 0
VERTEX
 8
CUBE_4
 10
0.9991
 20
-0.2082
 30
-0.6887
 70
192
 0
VERTEX
 8
CUBE_4
 10
0.9991
 20
-0.2881
 30
-0.6887
 70
192
 0
VERTEX
 8
CUBE_4
 10
1.0823
 20
-0.2082
 30
-0.6887
 70
192
 0
VERTEX
 8
CUBE_4
 10
1.1655
 20
-0.2082
 30
-0.6887
 70
192
 0
VERTEX
 8
CUBE_4
 10
1.1655
 20
-0.2881
 30
-0.6887
 70
192
 0
VERTEX
 8
CUBE_4
 10
1.2487
 20
-0.2082
 30
-0.6887
 70
192
 0
VERTEX
 8
CUBE_4
 10
1.3319
 20
-0.2082
 30
-0.6887
 70
192
 0
VERTEX
 8
CUBE_4
 10
1.3319
 20
-0.2881
 30
-0.6887
 70
192
 0
VERTEX
 8
CUBE_4
 10
1.4151
 20
-0.2082
 30
-0.6887
 70
192
 0
VERTEX
 8
CUBE_4
 10
1.4983
 20
-0.2082
 30
-0.6887
 70
192
 0
VERTEX
 8
CUBE_4
 10
1.4983
 20
-0.2881
 30
-0.6887
 70
192
 0
VERTEX
 8
CUBE_4
 10
1.5815
 20
-0.2082
 30
-0.6887
 70
192
 0
VERTEX
 8
CUBE_4
 10
1.6647
 20
-0.2082
 30
-0.6887
 70
192
 0
VERTEX
 8
CUBE_4
 10
1.6647
 20
-0.2881
 30
-0.6887
 70
192
 0
VERTEX
 8
CUBE_4
 10
1.7479
 20
-0.2082
 30
-0.6887
 70
192
 0
VERTEX
 8
CUBE_4
 10
1.8311
 20
-0.2082
 30
-0.6887
 70
192
 0
VERTEX
 8
CUBE_4
 10
1.8311
 20
-0.2881
 30
-0.6887
 70
192
 0
VERTEX
 8
CUBE_4
 10
1.9143
 20
-0.2082
 30
-0.6887
 70
192
 0
VERTEX
 8
CUBE_4
 10
1.9975
 20
-0.2082
 30
-0.6887
 70
192
 0
VERTEX
 8
CUBE_4
 10
1.9975
 20
-0.2881
 30
-0.6887
 70
192
 0
VERTEX
 8
CUBE_4
 10
2.0807
 20
-0.2082
 30
-0.6887
 70
192
 0
VERTEX
 8
CUBE_4
 10
2.1639
 20
-0.2082
 30
-0.6887
 70
192
 0
VERTEX
 8
CUBE_4
 10
2.1639
 20
-0.2881
 30
-0.6887
 70
192
 0
VERTEX
 8
CUBE_4
 10
2.2471
 20
-0.2082
 30
-0.6887
 70
192
 0
VERTEX
 8
CUBE_4
 10
2.3303
 20
-0.2082
 30
-0.6887
 70
192
 0
VERTEX
 8
CUBE_4
 10
2.3303
 20
-0.2881
 30
-0.6887
 70
192
 0
VERTEX
 8
CUBE_4
 10
2.4135
 20
-0.2082
 30
-0.6887
 70
192
 0
VERTEX
 8
CUBE_4
 10
2.4967
 20
-0.2082
 30
-0.6887
 70
192
 0
VERTEX
 8
CUBE_4
 10
2.4967
 20
-0.2881
 30
-0.6887
 70
192
 0
VERTEX
 8
CUBE_4
 10
0.3335
 20
-0.3681
 30
-0.6887
 70
192
 0
VERTEX
 8
CUBE_4
 10
0.3335
 20
-0.448
 30
-0.6887
 70
192
 0
VERTEX
 8
CUBE_4
 10
0.4167
 20
-0.3681
 30
-0.6887
 70
192
 0
VERTEX
 8
CUBE_4
 10
0.4999
 20
-0.3681
 30
-0.6887
 70
192
 0
VERTEX
 8
CUBE_4
 10
0.4999
 20
-0.448
 30
-0.6887
 70
192
 0
VERTEX
 8
CUBE_4
 10
0.5831
 20
-0.3681
 30
-0.6887
 70
192
 0
VERTEX
 8
CUBE_4
 10
0.6663
 20
-0.3681
 30
-0.6887
 70
192
 0
VERTEX
 8
CUBE_4
 10
0.6663
 20
-0.448
 30
-0.6887
 70
192
 0
VERTEX
 8
CUBE_4
 10
0.7495
 20
-0.3681
 30
-0.6887
 70
192
 0
VERTEX
 8
CUBE_4
 10
0.8327
 20
-0.3681
 30
-0.6887
 70
192
 0
VERTEX
 8
CUBE_4
 10
0.8327
 20
-0.448
 30
-0.6887
 70
192
 0
VERTEX
 8
CUBE_4
 10
0.9159
 20
-0.3681
 30
-0.6887
 70
192
 0
VERTEX
 8
CUBE_4
 10
0.9991
 20
-0.3681
 30
-0.6887
 70
192
 0
VERTEX
 8
CUBE_4
 10
0.9991
 20
-0.448
 30
-0.6887
 70
192
 0
VERTEX
 8
CUBE_4
 10
1.0823
 20
-0.3681
 30
-0.6887
 70
192
 0
VERTEX
 8
CUBE_4
 10
1.1655
 20
-0.3681
 30
-0.6887
 70
192
 0
VERTEX
 8
CUBE_4
 10
1.1655
 20
-0.448
 30
-0.6887
 70
192
 0
VERTEX
 8
CUBE_4
 10
1.2487
 20
-0.3681
 30
-0.6887
 70
192
 0
VERTEX
 8
CUBE_4
 10
1.3319
 20
-0.3681
 30
-0.6887
 70
192
 0
VERTEX
 8
CUBE_4
 10
1.3319
 20
-0.448
 30
-0.6887
 70
192
 0
VERTEX
 8
CUBE_4
 10
1.4151
 20
-0.3681
 30
-0.6887
 70
192
 0
VERTEX
 8
CUBE_4
 10
1.4983
 20
-0.3681
 30
-0.6887
 70
192
 0
VERTEX
 8
CUBE_4
 10
1.4983
 20
-0.448
 30
-0.6887
 70
192
 0
VERTEX
 8
CUBE_4
 10
1.5815
 20
-0.3681
 30
-0.6887
 70
192
 0
VERTEX
 8
CUBE_4
 10
1.6647
 20
-0.3681
 30
-0.6887
 70
192
 0
VERTEX
 8
CUBE_4
 10
1.6647
 20
-0.448
 30
-0.6887
 70
192
 0
VERTEX
 8
CUBE_4
 10
1.7479
 20
-0.3681
 30
-0.6887
 70
192
 0
VERTEX
 8
CUBE_4
 10
1.8311
 20
-0.3681
 30
-0.6887
 70
192
 0
VERTEX
 8
CUBE_4
 10
1.8311
 20
-0.448
 30
-0.6887
 70
192
 0
VERTEX
 8
CUBE_4
 10
1.9143
 20
-0.3681
 30
-0.6887
 70
192
 0
VERTEX
 8
CUBE_4
 10
1.9975
 20
-0.3681
 30
-0.6887
 70
192
 0
VERTEX
 8
CUBE_4
 10
1.9975
 20
-0.448
 30
-0.6887
 70
192
 0
VERTEX
 8
CUBE_4
 10
2.0807
 20
-0.3681
 30
-0.6887
 70
192
 0
VERTEX
 8
CUBE_4
 10
2.1639
 20
-0.3681
 30
-0.6887
 70
192
 0
VERTEX
 8
CUBE_4
 10
2.1639
 20
-0.448
 30
-0.6887
 70
192
 0
VERTEX
 8
CUBE_4
 10
2.2471
 20
-0.3681
 30
-0.6887
 70
192
 0
VERTEX
 8
CUBE_4
 10
2.3303
 20
-0.3681
 30
-0.6887
 70
192
 0
VERTEX
 8
CUBE_4
 10
2.3303
 20
-0.448
 30
-0.6887
 70
192
 0
VERTEX
 8
CUBE_4
 10
2.4135
 20
-0.3681
 30
-0.6887
 70
192
 0
VERTEX
 8
CUBE_4
 10
2.4967
 20
-0.3681
 30
-0.6887
 70
192
 0
VERTEX
 8
CUBE_4
 10
2.4967
 20
-0.448
 30
-0.6887
 70
192
 0
VERTEX
 8
CUBE_4
 10
0.3335
 20
-0.5279
 30
-0.6887
 70
192
 0
VERTEX
 8
CUBE_4
 10
0.3335
 20
-0.6079
 30
-0.6887
 70
192
 0
VERTEX
 8
CUBE_4
 10
0.4167
 20
-0.5279
 30
-0.6887
 70
192
 0
VERTEX
 8
CUBE_4
 10
0.4999
 20
-0.5279
 30
-0.6887
 70
192
 0
VERTEX
 8
CUBE_4
 10
0.4999
 20
-0.6079
 30
-0.6887
 70
192
 0
VERTEX
 8
CUBE_4
 10
0.5831
 20
-0.5279
 30
-0.6887
 70
192
 0
VERTEX
 8
CUBE_4
 10
0.6663
 20
-0.5279
 30
-0.6887
 70
192
 0
VERTEX
 8
CUBE_4
 10
0.6663
 20
-0.6079
 30
-0.6887
 70
192
 0
VERTEX
 8
CUBE_4
 10
0.7495
 20
-0.5279
 30
-0.6887
 70
192
 0
VERTEX
 8
CUBE_4
 10
0.8327
 20
-0.5279
 30
-0.6887
 70
192
 0
VERTEX
 8
CUBE_4
 10
0.8327
 20
-0.6079
 30
-0.6887
 70
192
 0
VERTEX
 8
CUBE_4
 10
0.9159
 20
-0.5279
 30
-0.6887
 70
192
 0
VERTEX
 8
CUBE_4
 10
0.9991
 20
-0.5279
 30
-0.6887
 70
192
 0
VERTEX
 8
CUBE_4
 10
0.9991
 20
-0.6079
 30
-0.6887
 70
192
 0
VERTEX
 8
CUBE_4
 10
1.0823
 20
-0.5279
 30
-0.6887
 70
192
 0
VERTEX
 8
CUBE_4
 10
1.1655
 20
-0.5279
 30
-0.6887
 70
192
 0
VERTEX
 8
CUBE_4
 10
1.1655
 20
-0.6079
 30
-0.6887
 70
192
 0
VERTEX
 8
CUBE_4
 10
1.2487
 20
-0.5279
 30
-0.6887
 70
192
 0
VERTEX
 8
CUBE_4
 10
1.3319
 20
-0.5279
 30
-0.6887
 70
192
 0
VERTEX
 8
CUBE_4
 10
1.3319
 20
-0.6079
 30
-0.6887
 70
192
 0
VERTEX
 8
CUBE_4
 10
1.4151
 20
-0.5279
 30
-0.6887
 70
192
 0
VERTEX
 8
CUBE_4
 10
1.4983
 20
-0.5279
 30
-0.6887
 70
192
 0
VERTEX
 8
CUBE_4
 10
1.4983
 20
-0.6079
 30
-0.6887
 70
192
 0
VERTEX
 8
CUBE_4
 10
1.5815
 20
-0.5279
 30
-0.6887
 70
192
 0
VERTEX
 8
CUBE_4
 10
1.6647
 20
-0.5279
 30
-0.6887
 70
192
 0
VERTEX
 8
CUBE_4
 10
1.6647
 20
-0.6079
 30
-0.6887
 70
192
 0
VERTEX
 8
CUBE_4
 10
1.7479
 20
-0.5279
 30
-0.6887
 70
192
 0
VERTEX
 8
CUBE_4
 10
1.8311
 20
-0.5279
 30
-0.6887
 70
192
 0
VERTEX
 8
CUBE_4
 10
1.8311
 20
-0.6079
 30
-0.6887
 70
192
 0
VERTEX
 8
CUBE_4
 10
1.9143
 20
-0.5279
 30
-0.6887
 70
192
 0
VERTEX
 8
CUBE_4
 10
1.9975
 20
-0.5279
 30
-0.6887
 70
192
 0
VERTEX
 8
CUBE_4
 10
1.9975
 20
-0.6079
 30
-0.6887
 70
192
 0
VERTEX
 8
CUBE_4
 10
2.0807
 20
-0.5279
 30
-0.6887
 70
192
 0
VERTEX
 8
CUBE_4
 10
2.1639
 20
-0.5279
 30
-0.6887
 70
192
 0
VERTEX
 8
CUBE_4
 10
2.1639
 20
-0.6079
 30
-0.6887
 70
192
 0
VERTEX
 8
CUBE_4
 10
2.2471
 20
-0.5279
 30
-0.6887
 70
192
 0
VERTEX
 8
CUBE_4
 10
2.3303
 20
-0.5279
 30
-0.6887
 70
192
 0
VERTEX
 8
CUBE_4
 10
2.3303
 20
-0.6079
 30
-0.6887
 70
192
 0
VERTEX
 8
CUBE_4
 10
2.4135
 20
-0.5279
 30
-0.6887
 70
192
 0
VERTEX
 8
CUBE_4
 10
2.4967
 20
-0.5279
 30
-0.6887
 70
192
 0
VERTEX
 8
CUBE_4
 10
2.4967
 20
-0.6079
 30
-0.6887
 70
192
 0
VERTEX
 8
CUBE_4
 10
0.3335
 20
-0.6878
 30
-0.6887
 70
192
 0
VERTEX
 8
CUBE_4
 10
0.3335
 20
-0.7677
 30
-0.6887
 70
192
 0
VERTEX
 8
CUBE_4
 10
0.4167
 20
-0.6878
 30
-0.6887
 70
192
 0
VERTEX
 8
CUBE_4
 10
0.4999
 20
-0.6878
 30
-0.6887
 70
192
 0
VERTEX
 8
CUBE_4
 10
0.4999
 20
-0.7677
 30
-0.6887
 70
192
 0
VERTEX
 8
CUBE_4
 10
0.5831
 20
-0.6878
 30
-0.6887
 70
192
 0
VERTEX
 8
CUBE_4
 10
0.6663
 20
-0.6878
 30
-0.6887
 70
192
 0
VERTEX
 8
CUBE_4
 10
0.6663
 20
-0.7677
 30
-0.6887
 70
192
 0
VERTEX
 8
CUBE_4
 10
0.7495
 20
-0.6878
 30
-0.6887
 70
192
 0
VERTEX
 8
CUBE_4
 10
0.8327
 20
-0.6878
 30
-0.6887
 70
192
 0
VERTEX
 8
CUBE_4
 10
0.8327
 20
-0.7677
 30
-0.6887
 70
192
 0
VERTEX
 8
CUBE_4
 10
0.9159
 20
-0.6878
 30
-0.6887
 70
192
 0
VERTEX
 8
CUBE_4
 10
0.9991
 20
-0.6878
 30
-0.6887
 70
192
 0
VERTEX
 8
CUBE_4
 10
0.9991
 20
-0.7677
 30
-0.6887
 70
192
 0
VERTEX
 8
CUBE_4
 10
1.0823
 20
-0.6878
 30
-0.6887
 70
192
 0
VERTEX
 8
CUBE_4
 10
1.1655
 20
-0.6878
 30
-0.6887
 70
192
 0
VERTEX
 8
CUBE_4
 10
1.1655
 20
-0.7677
 30
-0.6887
 70
192
 0
VERTEX
 8
CUBE_4
 10
1.2487
 20
-0.6878
 30
-0.6887
 70
192
 0
VERTEX
 8
CUBE_4
 10
1.3319
 20
-0.6878
 30
-0.6887
 70
192
 0
VERTEX
 8
CUBE_4
 10
1.3319
 20
-0.7677
 30
-0.6887
 70
192
 0
VERTEX
 8
CUBE_4
 10
1.4151
 20
-0.6878
 30
-0.6887
 70
192
 0
VERTEX
 8
CUBE_4
 10
1.4983
 20
-0.6878
 30
-0.6887
 70
192
 0
VERTEX
 8
CUBE_4
 10
1.4983
 20
-0.7677
 30
-0.6887
 70
192
 0
VERTEX
 8
CUBE_4
 10
1.5815
 20
-0.6878
 30
-0.6887
 70
192
 0
VERTEX
 8
CUBE_4
 10
1.6647
 20
-0.6878
 30
-0.6887
 70
192
 0
VERTEX
 8
CUBE_4
 10
1.6647
 20
-0.7677
 30
-0.6887
 70
192
 0
VERTEX
 8
CUBE_4
 10
1.7479
 20
-0.6878
 30
-0.6887
 70
192
 0
VERTEX
 8
CUBE_4
 10
1.8311
 20
-0.6878
 30
-0.6887
 70
192
 0
VERTEX
 8
CUBE_4
 10
1.8311
 20
-0.7677
 30
-0.6887
 70
192
 0
VERTEX
 8
CUBE_4
 10
1.9143
 20
-0.6878
 30
-0.6887
 70
192
 0
VERTEX
 8
CUBE_4
 10
1.9975
 20
-0.6878
 30
-0.6887
 70
192
 0
VERTEX
 8
CUBE_4
 10
1.9975
 20
-0.7677
 30
-0.6887
 70
192
 0
VERTEX
 8
CUBE_4
 10
2.0807
 20
-0.6878
 30
-0.6887
 70
192
 0
VERTEX
 8
CUBE_4
 10
2.1639
 20
-0.6878
 30
-0.6887
 70
192
 0
VERTEX
 8
CUBE_4
 10
2.1639
 20
-0.7677
 30
-0.6887
 70
192
 0
VERTEX
 8
CUBE_4
 10
2.2471
 20
-0.6878
 30
-0.6887
 70
192
 0
VERTEX
 8
CUBE_4
 10
2.3303
 20
-0.6878
 30
-0.6887
 70
192
 0
VERTEX
 8
CUBE_4
 10
2.3303
 20
-0.7677
 30
-0.6887
 70
192
 0
VERTEX
 8
CUBE_4
 10
2.4135
 20
-0.6878
 30
-0.6887
 70
192
 0
VERTEX
 8
CUBE_4
 10
2.4967
 20
-0.6878
 30
-0.6887
 70
192
 0
VERTEX
 8
CUBE_4
 10
2.4967
 20
-0.7677
 30
-0.6887
 70
192
 0
VERTEX
 8
CUBE_4
 10
0.3335
 20
-0.8476
 30
-0.6887
 70
192
 0
VERTEX
 8
CUBE_4
 10
0.4167
 20
-0.8476
 30
-0.6887
 70
192
 0
VERTEX
 8
CUBE_4
 10
0.4999
 20
-0.8476
 30
-0.6887
 70
192
 0
VERTEX
 8
CUBE_4
 10
0.5831
 20
-0.8476
 30
-0.6887
 70
192
 0
VERTEX
 8
CUBE_4
 10
0.6663
 20
-0.8476
 30
-0.6887
 70
192
 0
VERTEX
 8
CUBE_4
 10
0.7495
 20
-0.8476
 30
-0.6887
 70
192
 0
VERTEX
 8
CUBE_4
 10
0.8327
 20
-0.8476
 30
-0.6887
 70
192
 0
VERTEX
 8
CUBE_4
 10
0.9159
 20
-0.8476
 30
-0.6887
 70
192
 0
VERTEX
 8
CUBE_4
 10
0.9991
 20
-0.8476
 30
-0.6887
 70
192
 0
VERTEX
 8
CUBE_4
 10
1.0823
 20
-0.8476
 30
-0.6887
 70
192
 0
VERTEX
 8
CUBE_4
 10
1.1655
 20
-0.8476
 30
-0.6887
 70
192
 0
VERTEX
 8
CUBE_4
 10
1.2487
 20
-0.8476
 30
-0.6887
 70
192
 0
VERTEX
 8
CUBE_4
 10
1.3319
 20
-0.8476
 30
-0.6887
 70
192
 0
VERTEX
 8
CUBE_4
 10
1.4151
 20
-0.8476
 30
-0.6887
 70
192
 0
VERTEX
 8
CUBE_4
 10
1.4983
 20
-0.8476
 30
-0.6887
 70
192
 0
VERTEX
 8
CUBE_4
 10
1.5815
 20
-0.8476
 30
-0.6887
 70
192
 0
VERTEX
 8
CUBE_4
 10
1.6647
 20
-0.8476
 30
-0.6887
 70
192
 0
VERTEX
 8
CUBE_4
 10
1.7479
 20
-0.8476
 30
-0.6887
 70
192
 0
VERTEX
 8
CUBE_4
 10
1.8311
 20
-0.8476
 30
-0.6887
 70
192
 0
VERTEX
 8
CUBE_4
 10
1.9143
 20
-0.8476
 30
-0.6887
 70
192
 0
VERTEX
 8
CUBE_4
 10
1.9975
 20
-0.8476
 30
-0.6887
 70
192
 0
VERTEX
 8
CUBE_4
 10
2.0807
 20
-0.8476
 30
-0.6887
 70
192
 0
VERTEX
 8
CUBE_4
 10
2.1639
 20
-0.8476
 30
-0.6887
 70
192
 0
VERTEX
 8
CUBE_4
 10
2.2471
 20
-0.8476
 30
-0.6887
 70
192
 0
VERTEX
 8
CUBE_4
 10
2.3303
 20
-0.8476
 30
-0.6887
 70
192
 0
VERTEX
 8
CUBE_4
 10
2.4135
 20
-0.8476
 30
-0.6887
 70
192
 0
VERTEX
 8
CUBE_4
 10
2.4967
 20
-0.8476
 30
-0.6887
 70
192
 0
VERTEX
 8
CUBE_4
 10
0
 20
0
 30
0
 70
128
 71
2
 72
183
 73
181
 74
182
 0
VERTEX
 8
CUBE_4
 10
0
 20
0
 30
0
 70
128
 71
4
 72
184
 73
181
 74
183
 0
VERTEX
 8
CUBE_4
 10
0
 20
0
 30
0
 70
128
 71
3
 72
185
 73
181
 74
184
 0
VERTEX
 8
CUBE_4
 10
0
 20
0
 30
0
 70
128
 71
1
 72
182
 73
181
 74
185
 0
VERTEX
 8
CUBE_4
 10
0
 20
0
 30
0
 70
128
 71
4
 72
187
 73
186
 74
184
 0
VERTEX
 8
CUBE_4
 10
0
 20
0
 30
0
 70
128
 71
6
 72
188
 73
186
 74
187
 0
VERTEX
 8
CUBE_4
 10
0
 20
0
 30
0
 70
128
 71
5
 72
189
 73
186
 74
188
 0
VERTEX
 8
CUBE_4
 10
0
 20
0
 30
0
 70
128
 71
3
 72
184
 73
186
 74
189
 0
VERTEX
 8
CUBE_4
 10
0
 20
0
 30
0
 70
128
 71
6
 72
191
 73
190
 74
188
 0
VERTEX
 8
CUBE_4
 10
0
 20
0
 30
0
 70
128
 71
8
 72
192
 73
190
 74
191
 0
VERTEX
 8
CUBE_4
 10
0
 20
0
 30
0
 70
128
 71
7
 72
193
 73
190
 74
192
 0
VERTEX
 8
CUBE_4
 10
0
 20
0
 30
0
 70
128
 71
5
 72
188
 73
190
 74
193
 0
VERTEX
 8
CUBE_4
 10
0
 20
0
 30
0
 70
128
 71
8
 72
195
 73
194
 74
192
 0
VERTEX
 8
CUBE_4
 10
0
 20
0
 30
0
 70
128
 71
10
 72
196
 73
194
 74
195
 0
VERTEX
 8
CUBE_4
 10
0
 20
0
 30
0
 70
128
 71
9
 72
197
 73
194
 74
196
 0
VERTEX
 8
CUBE_4
 10
0
 20
0
 30
0
 70
128
 71
7
 72
192
 73
194
 74
197
 0
VERTEX
 8
CUBE_4
 10
0
 20
0
 30
0
 70
128
 71
10
 72
199
 73
198
 74
196
 0
VERTEX
 8
CUBE_4
 10
0
 20
0
 30
0
 70
128
 71
12
 72
200
 73
198
 74
199
 0
VERTEX
 8
CUBE_4
 10
0
 20
0
 30
0
 70
128
 71
11
 72
201
 73
198
 74
200
 0
VERTEX
 8
CUBE_4
 10
0
 20
0
 30
0
 70
128
 71
9
 72
196
 73
198
 74
201
 0
VERTEX
 8
CUBE_4
 10
0
 20
0
 30
0
 70
128
 71
12
 72
203
 73
202
 74
200
 0
VERTEX
 8
CUBE_4
 10
0
 20
0
 30
0
 70
128
 71
14
 72
204
 73
202
 74
203
 0
VERTEX
 8
CUBE_4
 10
0
 20
0
 30
0
 70
128
 71
13
 72
205
 73
202
 74
204
 0
VERTEX
 8
CUBE_4
 10
0
 20
0
 30
0
 70
128
 71
11
 72
200
 73
202
 74
205
 0
VERTEX
 8
CUBE_4
 10
0
 20
0
 30
0
 70
128
 71
14
 72
207
 73
206
 74
204
 0
VERTEX
 8
CUBE_4
 10
0
 20
0
 30
0
 70
128
 71
16
 72
208
 73
206
 74
207
 0
VERTEX
 8
CUBE_4
 10
0
 20
0
 30
0
 70
128
 71
15
 72
209
 73
206
 74
208
 0
VERTEX
 8
CUBE_4
 10
0
 20
0
 30
0
 70
128
 71
13
 72
204
 73
206
 74
209
 0
VERTEX
 8
CUBE_4
 10
0
 20
0
 30
0
 70
128
 71
16
 72
211
 73
210
 74
208
 0
VERTEX
 8
CUBE_4
 10
0
 20
0
 30
0
 70
128
 71
18
 72
212
 73
210
 74
211
 0
VERTEX
 8
CUBE_4
 10
0
 20
0
 30
0
 70
128
 71
17
 72
213
 73
210
 74
212
 0
VERTEX
 8
CUBE_4
 10
0
 20
0
 30
0
 70
128
 71
15
 72
208
 73
210
 74
213
 0
VERTEX
 8
CUBE_4
 10
0
 20
0
 30
0
 70
128
 71
18
 72
215
 73
214
 74
212
 0
VERTEX
 8
CUBE_4
 10
0
 20
0
 30
0
 70
128
 71
20
 72
216
 73
214
 74
215
 0
VERTEX
 8
CUBE_4
 10
0
 20
0
 30
0
 70
128
 71
19
 72
217
 73
214
 74
216
 0
VERTEX
 8
CUBE_4
 10
0
 20
0
 30
0
 70
128
 71
17
 72
212
 73
214
 74
217
 0
VERTEX
 8
CUBE_4
 10
0
 20
0
 30
0
 70
128
 71
20
 72
219
 73
218
 74
216
 0
VERTEX
 8
CUBE_4
 10
0
 20
0
 30
0
 70
128
 71
22
 72
220
 73
218
 74
219
 0
VERTEX
 8
CUBE_4
 10
0
 20
0
 30
0
 70
128
 71
21
 72
221
 73
218
 74
220
 0
VERTEX
 8
CUBE_4
 10
0
 20
0
 30
0
 70
128
 71
19
 72
216
 73
218
 74
221
 0
VERTEX
 8
CUBE_4
 10
0
 20
0
 30
0
 70
128
 71
22
 72
223
 73
222
 74
220
 0
VERTEX
 8
CUBE_4
 10
0
 20
0
 30
0
 70
128
 71
24
 72
224
 73
222
 74
223
 0
VERTEX
 8
CUBE_4
 10
0
 20
0
 30
0
 70
128
 71
23
 72
225
 73
222
 74
224
 0
VERTEX
 8
CUBE_4
 10
0
 20
0
 30
0
 70
128
 71
21
 72
220
 73
222
 74
225
 0
VERTEX
 8
CUBE_4
 10
0
 20
0
 30
0
 70
128
 71
24
 72
227
 73
226
 74
224
 0
VERTEX
 8
CUBE_4
 10
0
 20
0
 30
0
 70
128
 71
26
 72
228
 73
226
 74
227
 0
VERTEX
 8
CUBE_4
 10
0
 20
0
 30
0
 70
128
 71
25
 72
229
 73
226
 74
228
 0
VERTEX
 8
CUBE_4
 10
0
 20
0
 30
0
 70
128
 71
23
 72
224
 73
226
 74
229
 0
VERTEX
 8
CUBE_4
 10
0
 20
0
 30
0
 70
128
 71
26
 72
231
 73
230
 74
228
 0
VERTEX
 8
CUBE_4
 10
0
 20
0
 30
0
 70
128
 71
28
 72
232
 73
230
 74
231
 0
VERTEX
 8
CUBE_4
 10
0
 20
0
 30
0
 70
128
 71
27
 72
233
 73
230
 74
232
 0
VERTEX
 8
CUBE_4
 10
0
 20
0
 30
0
 70
128
 71
25
 72
228
 73
230
 74
233
 0
VERTEX
 8
CUBE_4
 10
0
 20
0
 30
0
 70
128
 71
28
 72
235
 73
234
 74
232
 0
VERTEX
 8
CUBE_4
 10
0
 20
0
 30
0
 70
128
 71
30
 72
236
 73
234
 74
235
 0
VERTEX
 8
CUBE_4
 10
0
 20
0
 30
0
 70
128
 71
29
 72
237
 73
234
 74
236
 0
VERTEX
 8
CUBE_4
 10
0
 20
0
 30
0
 70
128
 71
27
 72
232
 73
234
 74
237
 0
VERTEX
 8
CUBE_4
 10
0
 20
0
 30
0
 70
128
 71
30
 72
239
 73
238
 74
236
 0
VERTEX
 8
CUBE_4
 10
0
 20
0
 30
0
 70
128
 71
32
 72
240
 73
238
 74
239
 0
VERTEX
 8
CUBE_4
 10
0
 20
0
 30
0
 70
128
 71
31
 72
241
 73
238
 74
240
 0
VERTEX
 8
CUBE_4
 10
0
 20
0
 30
0
 70
128
 71
29
 72
236
 73
238
 74
241
 0
VERTEX
 8
CUBE_4
 10
0
 20
0
 30
0
 70
128
 71
32
 72
243
 73
242
 74
240
 0
VERTEX
 8
CUBE_4
 10
0
 20
0
 30
0
 70
128
 71
34
 72
244
 73
242
 74
243
 0
VERTEX
 8
CUBE_4
 10
0
 20
0
 30
0
 70
128
 71
33
 72
245
 73
242
 74
244
 0
VERTEX
 8
CUBE_4
 10
0
 20
0
 30
0
 70
128
 71
31
 72
240
 73
242
 74
245
 0
VERTEX
 8
CUBE_4
 10
0
 20
0
 30
0
 70
128
 71
34
 72
247
 73
246
 74
244
 0
VERTEX
 8
CUBE_4
 10
0
 20
0
 30
0
 70
128
 71
36
 72
248
 73
246
 74
247
 0
VERTEX
 8
CUBE_4
 10
0
 20
0
 30
0
 70
128
 71
35
 72
249
 73
246
 74
248
 0
VERTEX
 8
CUBE_4
 10
0
 20
0
 30
0
 70
128
 71
33
 72
244
 73
246
 74
249
 0
VERTEX
 8
CUBE_4
 10
0
 20
0
 30
0
 70
128
 71
36
 72
251
 73
250
 74
248
 0
VERTEX
 8
CUBE_4
 10
0
 20
0
 30
0
 70
128
 71
38
 72
252
 73
250
 74
251
 0
VERTEX
 8
CUBE_4
 10
0
 20
0
 30
0
 70
128
 71
37
 72
253
 73
250
 74
252
 0
VERTEX
 8
CUBE_4
 10
0
 20
0
 30
0
 70
128
 71
35
 72
248
 73
250
 74
253
 0
VERTEX
 8
CUBE_4
 10
0
 20
0
 30
0
 70
128
 71
38
 72
255
 73
254
 74
252
 0
VERTEX
 8
CUBE_4
 10
0
 20
0
 30
0
 70
128
 71
40
 72
256
 73
254
 74
255
 0
VERTEX
 8
CUBE_4
 10
0
 20
0
 30
0
 70
128
 71
39
 72
257
 73
254
 74
256
 0
VERTEX
 8
CUBE_4
 10
0
 20
0
 30
0
 70
128
 71
37
 72
252
 73
254
 74
257
 0
VERTEX
 8
CUBE_4
 10
0
 20
0
 30
0
 70
128
 71
40
 72
259
 73
258
 74
256
 0
VERTEX
 8
CUBE_4
 10
0
 20
0
 30
0
 70
128
 71
42
 72
260
 73
258
 74
259
 0
VERTEX
 8
CUBE_4
 10
0
 20
0
 30
0
 70
128
 71
41
 72
261
 73
258
 74
260
 0
VERTEX
 8
CUBE_4
 10
0
 20
0
 30
0
 70
128
 71
39
 72
256
 73
258
 74
261
 0
VERTEX
 8
CUBE_4
 10
0
 20
0
 30
0
 70
128
 71
42
 72
263
 73
262
 74
260
 0
VERTEX
 8
CUBE_4
 10
0
 20
0
 30
0
 70
128
 71
44
 72
264
 73
262
 74
263
 0
VERTEX
 8
CUBE_4
 10
0
 20
0
 30
0
 70
128
 71
43
 72
265
 73
262
 74
264
 0
VERTEX
 8
CUBE_4
 10
0
 20
0
 30
0
 70
128
 71
41
 72
260
 73
262
 74
265
 0
VERTEX
 8
CUBE_4
 10
0
 20
0
 30
0
 70
128
 71
44
 72
267
 73
266
 74
264
 0
VERTEX
 8
CUBE_4
 10
0
 20
0
 30
0
 70
128
 71
46
 72
268
 73
266
 74
267
 0
VERTEX
 8
CUBE_4
 10
0
 20
0
 30
0
 70
128
 71
45
 72
269
 73
266
 74
268
 0
VERTEX
 8
CUBE_4
 10
0
 20
0
 30
0
 70
128
 71
43
 72
264
 73
266
 74
269
 0
VERTEX
 8
CUBE_4
 10
0
 20
0
 30
0
 70
128
 71
46
 72
271
 73
270
 74
268
 0
VERTEX
 8
CUBE_4
 10
0
 20
0
 30
0
 70
128
 71
48
 72
272
 73
270
 74
271
 0
VERTEX
 8
CUBE_4
 10
0
 20
0
 30
0
 70
128
 71
47
 72
273
 73
270
 74
272
 0
VERTEX
 8
CUBE_4
 10
0
 20
0
 30
0
 70
128
 71
45
 72
268
 73
270
 74
273
 0
VERTEX
 8
CUBE_4
 10
0
 20
0
 30
0
 70
128
 71
48
 72
275
 73
274
 74
272
 0
VERTEX
 8
CUBE_4
 10
0
 20
0
 30
0
 70
128
 71
50
 72
276
 73
274
 74
275
 0
VERTEX
 8
CUBE_4
 10
0
 20
0
 30
0
 70
128
 71
49
 72
277
 73
274
 74
276
 0
VERTEX
 8
CUBE_4
 10
0
 20
0
 30
0
 70
128
 71
47
 72
272
 73
274
 74
277
 0
VERTEX
 8
CUBE_4
 10
0
 20
0
 30
0
 70
128
 71
50
 72
279
 73
278
 74
276
 0
VERTEX
 8
CUBE_4
 10
0
 20
0
 30
0
 70
128
 71
52
 72
280
 73
278
 74
279
 0
VERTEX
 8
CUBE_4
 10
0
 20
0
 30
0
 70
128
 71
51
 72
281
 73
278
 74
280
 0
VERTEX
 8
CUBE_4
 10
0
 20
0
 30
0
 70
128
 71
49
 72
276
 73
278
 74
281
 0
VERTEX
 8
CUBE_4
 10
0
 20
0
 30
0
 70
128
 71
52
 72
283
 73
282
 74
280
 0
VERTEX
 8
CUBE_4
 10
0
 20
0
 30
0
 70
128
 71
54
 72
284
 73
282
 74
283
 0
VERTEX
 8
CUBE_4
 10
0
 20
0
 30
0
 70
128
 71
53
 72
285
 73
282
 74
284
 0
VERTEX
 8
CUBE_4
 10
0
 20
0
 30
0
 70
128
 71
51
 72
280
 73
282
 74
285
 0
VERTEX
 8
CUBE_4
 10
0
 20
0
 30
0
 70
128
 71
54
 72
287
 73
286
 74
284
 0
VERTEX
 8
CUBE_4
 10
0
 20
0
 30
0
 70
128
 71
56
 72
288
 73
286
 74
287
 0
VERTEX
 8
CUBE_4
 10
0
 20
0
 30
0
 70
128
 71
55
 72
289
 73
286
 74
288
 0
VERTEX
 8
CUBE_4
 10
0
 20
0
 30
0
 70
128
 71
53
 72
284
 73
286
 74
289
 0
VERTEX
 8
CUBE_4
 10
0
 20
0
 30
0
 70
128
 71
56
 72
291
 73
290
 74
288
 0
VERTEX
 8
CUBE_4
 10
0
 20
0
 30
0
 70
128
 71
58
 72
292
 73
290
 74
291
 0
VERTEX
 8
CUBE_4
 10
0
 20
0
 30
0
 70
128
 71
57
 72
293
 73
290
 74
292
 0
VERTEX
 8
CUBE_4
 10
0
 20
0
 30
0
 70
128
 71
55
 72
288
 73
290
 74
293
 0
VERTEX
 8
CUBE_4
 10
0
 20
0
 30
0
 70
128
 71
58
 72
295
 73
294
 74
292
 0
VERTEX
 8
CUBE_4
 10
0
 20
0
 30
0
 70
128
 71
60
 72
296
 73
294
 74
295
 0
VERTEX
 8
CUBE_4
 10
0
 20
0
 30
0
 70
128
 71
59
 72
297
 73
294
 74
296
 0
VERTEX
 8
CUBE_4
 10
0
 20
0
 30
0
 70
128
 71
57
 72
292
 73
294
 74
297
 0
VERTEX
 8
CUBE_4
 10
0
 20
0
 30
0
 70
128
 71
60
 72
299
 73
298
 74
296
 0
VERTEX
 8
CUBE_4
 10
0
 20
0
 30
0
 70
128
 71
62
 72
300
 73
298
 74
299
 0
VERTEX
 8
CUBE_4
 10
0
 20
0
 30
0
 70
128
 71
61
 72
301
 73
298
 74
300
 0
VERTEX
 8
CUBE_4
 10
0
 20
0
 30
0
 70
128
 71
59
 72
296
 73
298
 74
301
 0
VERTEX
 8
CUBE_4
 10
0
 20
0
 30
0
 70
128
 71
62
 72
303
 73
302
 74
300
 0
VERTEX
 8
CUBE_4
 10
0
 20
0
 30
0
 70
128
 71
64
 72
304
 73
302
 74
303
 0
VERTEX
 8
CUBE_4
 10
0
 20
0
 30
0
 70
128
 71
63
 72
305
 73
302
 74
304
 0
VERTEX
 8
CUBE_4
 10
0
 20
0
 30
0
 70
128
 71
61
 72
300
 73
302
 74
305
 0
VERTEX
 8
CUBE_4
 10
0
 20
0
 30
0
 70
128
 71
64
 72
307
 73
306
 74
304
 0
VERTEX
 8
CUBE_4
 10
0
 20
0
 30
0
 70
128
 71
66
 72
308
 73
306
 74
307
 0
VERTEX
 8
CUBE_4
 10
0
 20
0
 30
0
 70
128
 71
65
 72
309
 73
306
 74
308
 0
VERTEX
 8
CUBE_4
 10
0
 20
0
 30
0
 70
128
 71
63
 72
304
 73
306
 74
309
 0
VERTEX
 8
CUBE_4
 10
0
 20
0
 30
0
 70
128
 71
66
 72
311
 73
310
 74
308
 0
VERTEX
 8
CUBE_4
 10
0
 20
0
 30
0
 70
128
 71
68
 72
312
 73
310
 74
311
 0
VERTEX
 8
CUBE_4
 10
0
 20
0
 30
0
 70
128
 71
67
 72
313
 73
310
 74
312
 0
VERTEX
 8
CUBE_4
 10
0
 20
0
 30
0
 70
128
 71
65
 72
308
 73
310
 74
313
 0
VERTEX
 8
CUBE_4
 10
0
 20
0
 30
0
 70
128
 71
68
 72
315
 73
314
 74
312
 0
VERTEX
 8
CUBE_4
 10
0
 20
0
 30
0
 70
128
 71
70
 72
316
 73
314
 74
315
 0
VERTEX
 8
CUBE_4
 10
0
 20
0
 30
0
 70
128
 71
69
 72
317
 73
314
 74
316
 0
VERTEX
 8
CUBE_4
 10
0
 20
0
 30
0
 70
128
 71
67
 72
312
 73
314
 74
317
 0
VERTEX
 8
CUBE_4
 10
0
 20
0
 30
0
 70
128
 71
70
 72
319
 73
318
 74
316
 0
VERTEX
 8
CUBE_4
 10
0
 20
0
 30
0
 70
128
 71
72
 72
320
 73
318
 74
319
 0
VERTEX
 8
CUBE_4
 10
0
 20
0
 30
0
 70
128
 71
71
 72
321
 73
318
 74
320
 0
VERTEX
 8
CUBE_4
 10
0
 20
0
 30
0
 70
128
 71
69
 72
316
 73
318
 74
321
 0
VERTEX
 8
CUBE_4
 10
0
 20
0
 30
0
 70
128
 71
72
 72
323
 73
322
 74
320
 0
VERTEX
 8
CUBE_4
 10
0
 20
0
 30
0
 70
128
 71
74
 72
324
 73
322
 74
323
 0
VERTEX
 8
CUBE_4
 10
0
 20
0
 30
0
 70
128
 71
73
 72
325
 73
322
 74
324
 0
VERTEX
 8
CUBE_4
 10
0
 20
0
 30
0
 70
128
 71
71
 72
320
 73
322
 74
325
 0
VERTEX
 8
CUBE_4
 10
0
 20
0
 30
0
 70
128
 71
74
 72
327
 73
326
 74
324
 0
VERTEX
 8
CUBE_4
 10
0
 20
0
 30
0
 70
128
 71
76
 72
328
 73
326
 74
327
 0
VERTEX
 8
CUBE_4
 10
0
 20
0
 30
0
 70
128
 71
75
 72
329
 73
326
 74
328
 0
VERTEX
 8
CUBE_4
 10
0
 20
0
 30
0
 70
128
 71
73
 72
324
 73
326
 74
329
 0
VERTEX
 8
CUBE_4
 10
0
 20
0
 30
0
 70
128
 71
76
 72
331
 73
330
 74
328
 0
VERTEX
 8
CUBE_4
 10
0
 20
0
 30
0
 70
128
 71
2
 72
182
 73
330
 74
331
 0
VERTEX
 8
CUBE_4
 10
0
 20
0
 30
0
 70
128
 71
1
 72
332
 73
330
 74
182
 0
VERTEX
 8
CUBE_4
 10
0
 20
0
 30
0
 70
128
 71
75
 72
328
 73
330
 74
332
 0
VERTEX
 8
CUBE_4
 10
0
 20
0
 30
0
 70
128
 71
76
 72
334
 73
333
 74
331
 0
VERTEX
 8
CUBE_4
 10
0
 20
0
 30
0
 70
128
 71
77
 72
335
 73
333
 74
334
 0
VERTEX
 8
CUBE_4
 10
0
 20
0
 30
0
 70
128
 71
4
 72
183
 73
333
 74
335
 0
VERTEX
 8
CUBE_4
 10
0
 20
0
 30
0
 70
128
 71
2
 72
331
 73
333
 74
183
 0
VERTEX
 8
CUBE_4
 10
0
 20
0
 30
0
 70
128
 71
77
 72
337
 73
336
 74
335
 0
VERTEX
 8
CUBE_4
 10
0
 20
0
 30
0
 70
128
 71
81
 72
338
 73
336
 74
337
 0
VERTEX
 8
CUBE_4
 10
0
 20
0
 30
0
 70
128
 71
6
 72
187
 73
336
 74
338
 0
VERTEX
 8
CUBE_4
 10
0
 20
0
 30
0
 70
128
 71
4
 72
335
 73
336
 74
187
 0
VERTEX
 8
CUBE_4
 10
0
 20
0
 30
0
 70
128
 71
81
 72
340
 73
339
 74
338
 0
VERTEX
 8
CUBE_4
 10
0
 20
0
 30
0
 70
128
 71
85
 72
341
 73
339
 74
340
 0
VERTEX
 8
CUBE_4
 10
0
 20
0
 30
0
 70
128
 71
8
 72
191
 73
339
 74
341
 0
VERTEX
 8
CUBE_4
 10
0
 20
0
 30
0
 70
128
 71
6
 72
338
 73
339
 74
191
 0
VERTEX
 8
CUBE_4
 10
0
 20
0
 30
0
 70
128
 71
85
 72
343
 73
342
 74
341
 0
VERTEX
 8
CUBE_4
 10
0
 20
0
 30
0
 70
128
 71
89
 72
344
 73
342
 74
343
 0
VERTEX
 8
CUBE_4
 10
0
 20
0
 30
0
 70
128
 71
10
 72
195
 73
342
 74
344
 0
VERTEX
 8
CUBE_4
 10
0
 20
0
 30
0
 70
128
 71
8
 72
341
 73
342
 74
195
 0
VERTEX
 8
CUBE_4
 10
0
 20
0
 30
0
 70
128
 71
89
 72
346
 73
345
 74
344
 0
VERTEX
 8
CUBE_4
 10
0
 20
0
 30
0
 70
128
 71
93
 72
347
 73
345
 74
346
 0
VERTEX
 8
CUBE_4
 10
0
 20
0
 30
0
 70
128
 71
12
 72
199
 73
345
 74
347
 0
VERTEX
 8
CUBE_4
 10
0
 20
0
 30
0
 70
128
 71
10
 72
344
 73
345
 74
199
 0
VERTEX
 8
CUBE_4
 10
0
 20
0
 30
0
 70
128
 71
93
 72
349
 73
348
 74
347
 0
VERTEX
 8
CUBE_4
 10
0
 20
0
 30
0
 70
128
 71
97
 72
350
 73
348
 74
349
 0
VERTEX
 8
CUBE_4
 10
0
 20
0
 30
0
 70
128
 71
14
 72
203
 73
348
 74
350
 0
VERTEX
 8
CUBE_4
 10
0
 20
0
 30
0
 70
128
 71
12
 72
347
 73
348
 74
203
 0
VERTEX
 8
CUBE_4
 10
0
 20
0
 30
0
 70
128
 71
97
 72
352
 73
351
 74
350
 0
VERTEX
 8
CUBE_4
 10
0
 20
0
 30
0
 70
128
 71
101
 72
353
 73
351
 74
352
 0
VERTEX
 8
CUBE_4
 10
0
 20
0
 30
0
 70
128
 71
16
 72
207
 73
351
 74
353
 0
VERTEX
 8
CUBE_4
 10
0
 20
0
 30
0
 70
128
 71
14
 72
350
 73
351
 74
207
 0
VERTEX
 8
CUBE_4
 10
0
 20
0
 30
0
 70
128
 71
101
 72
355
 73
354
 74
353
 0
VERTEX
 8
CUBE_4
 10
0
 20
0
 30
0
 70
128
 71
105
 72
356
 73
354
 74
355
 0
VERTEX
 8
CUBE_4
 10
0
 20
0
 30
0
 70
128
 71
18
 72
211
 73
354
 74
356
 0
VERTEX
 8
CUBE_4
 10
0
 20
0
 30
0
 70
128
 71
16
 72
353
 73
354
 74
211
 0
VERTEX
 8
CUBE_4
 10
0
 20
0
 30
0
 70
128
 71
105
 72
358
 73
357
 74
356
 0
VERTEX
 8
CUBE_4
 10
0
 20
0
 30
0
 70
128
 71
109
 72
359
 73
357
 74
358
 0
VERTEX
 8
CUBE_4
 10
0
 20
0
 30
0
 70
128
 71
20
 72
215
 73
357
 74
359
 0
VERTEX
 8
CUBE_4
 10
0
 20
0
 30
0
 70
128
 71
18
 72
356
 73
357
 74
215
 0
VERTEX
 8
CUBE_4
 10
0
 20
0
 30
0
 70
128
 71
109
 72
361
 73
360
 74
359
 0
VERTEX
 8
CUBE_4
 10
0
 20
0
 30
0
 70
128
 71
113
 72
362
 73
360
 74
361
 0
VERTEX
 8
CUBE_4
 10
0
 20
0
 30
0
 70
128
 71
22
 72
219
 73
360
 74
362
 0
VERTEX
 8
CUBE_4
 10
0
 20
0
 30
0
 70
128
 71
20
 72
359
 73
360
 74
219
 0
VERTEX
 8
CUBE_4
 10
0
 20
0
 30
0
 70
128
 71
113
 72
364
 73
363
 74
362
 0
VERTEX
 8
CUBE_4
 10
0
 20
0
 30
0
 70
128
 71
117
 72
365
 73
363
 74
364
 0
VERTEX
 8
CUBE_4
 10
0
 20
0
 30
0
 70
128
 71
24
 72
223
 73
363
 74
365
 0
VERTEX
 8
CUBE_4
 10
0
 20
0
 30
0
 70
128
 71
22
 72
362
 73
363
 74
223
 0
VERTEX
 8
CUBE_4
 10
0
 20
0
 30
0
 70
128
 71
117
 72
367
 73
366
 74
365
 0
VERTEX
 8
CUBE_4
 10
0
 20
0
 30
0
 70
128
 71
121
 72
368
 73
366
 74
367
 0
VERTEX
 8
CUBE_4
 10
0
 20
0
 30
0
 70
128
 71
26
 72
227
 73
366
 74
368
 0
VERTEX
 8
CUBE_4
 10
0
 20
0
 30
0
 70
128
 71
24
 72
365
 73
366
 74
227
 0
VERTEX
 8
CUBE_4
 10
0
 20
0
 30
0
 70
128
 71
121
 72
370
 73
369
 74
368
 0
VERTEX
 8
CUBE_4
 10
0
 20
0
 30
0
 70
128
 71
125
 72
371
 73
369
 74
370
 0
VERTEX
 8
CUBE_4
 10
0
 20
0
 30
0
 70
128
 71
28
 72
231
 73
369
 74
371
 0
VERTEX
 8
CUBE_4
 10
0
 20
0
 30
0
 70
128
 71
26
 72
368
 73
369
 74
231
 0
VERTEX
 8
CUBE_4
 10
0
 20
0
 30
0
 70
128
 71
125
 72
373
 73
372
 74
371
 0
VERTEX
 8
CUBE_4
 10
0
 20
0
 30
0
 70
128
 71
32
 72
239
 73
372
 74
373
 0
VERTEX
 8
CUBE_4
 10
0
 20
0
 30
0
 70
128
 71
30
 72
235
 73
372
 74
239
 0
VERTEX
 8
CUBE_4
 10
0
 20
0
 30
0
 70
128
 71
28
 72
371
 73
372
 74
235
 0
VERTEX
 8
CUBE_4
 10
0
 20
0
 30
0
 70
128
 71
74
 72
375
 73
374
 74
327
 0
VERTEX
 8
CUBE_4
 10
0
 20
0
 30
0
 70
128
 71
78
 72
376
 73
374
 74
375
 0
VERTEX
 8
CUBE_4
 10
0
 20
0
 30
0
 70
128
 71
77
 72
334
 73
374
 74
376
 0
VERTEX
 8
CUBE_4
 10
0
 20
0
 30
0
 70
128
 71
76
 72
327
 73
374
 74
334
 0
VERTEX
 8
CUBE_4
 10
0
 20
0
 30
0
 70
128
 71
78
 72
378
 73
377
 74
376
 0
VERTEX
 8
CUBE_4
 10
0
 20
0
 30
0
 70
128
 71
82
 72
379
 73
377
 74
378
 0
VERTEX
 8
CUBE_4
 10
0
 20
0
 30
0
 70
128
 71
81
 72
337
 73
377
 74
379
 0
VERTEX
 8
CUBE_4
 10
0
 20
0
 30
0
 70
128
 71
77
 72
376
 73
377
 74
337
 0
VERTEX
 8
CUBE_4
 10
0
 20
0
 30
0
 70
128
 71
82
 72
381
 73
380
 74
379
 0
VERTEX
 8
CUBE_4
 10
0
 20
0
 30
0
 70
128
 71
86
 72
382
 73
380
 74
381
 0
VERTEX
 8
CUBE_4
 10
0
 20
0
 30
0
 70
128
 71
85
 72
340
 73
380
 74
382
 0
VERTEX
 8
CUBE_4
 10
0
 20
0
 30
0
 70
128
 71
81
 72
379
 73
380
 74
340
 0
VERTEX
 8
CUBE_4
 10
0
 20
0
 30
0
 70
128
 71
86
 72
384
 73
383
 74
382
 0
VERTEX
 8
CUBE_4
 10
0
 20
0
 30
0
 70
128
 71
90
 72
385
 73
383
 74
384
 0
VERTEX
 8
CUBE_4
 10
0
 20
0
 30
0
 70
128
 71
89
 72
343
 73
383
 74
385
 0
VERTEX
 8
CUBE_4
 10
0
 20
0
 30
0
 70
128
 71
85
 72
382
 73
383
 74
343
 0
VERTEX
 8
CUBE_4
 10
0
 20
0
 30
0
 70
128
 71
90
 72
387
 73
386
 74
385
 0
VERTEX
 8
CUBE_4
 10
0
 20
0
 30
0
 70
128
 71
94
 72
388
 73
386
 74
387
 0
VERTEX
 8
CUBE_4
 10
0
 20
0
 30
0
 70
128
 71
93
 72
346
 73
386
 74
388
 0
VERTEX
 8
CUBE_4
 10
0
 20
0
 30
0
 70
128
 71
89
 72
385
 73
386
 74
346
 0
VERTEX
 8
CUBE_4
 10
0
 20
0
 30
0
 70
128
 71
94
 72
390
 73
389
 74
388
 0
VERTEX
 8
CUBE_4
 10
0
 20
0
 30
0
 70
128
 71
98
 72
391
 73
389
 74
390
 0
VERTEX
 8
CUBE_4
 10
0
 20
0
 30
0
 70
128
 71
97
 72
349
 73
389
 74
391
 0
VERTEX
 8
CUBE_4
 10
0
 20
0
 30
0
 70
128
 71
93
 72
388
 73
389
 74
349
 0
VERTEX
 8
CUBE_4
 10
0
 20
0
 30
0
 70
128
 71
98
 72
393
 73
392
 74
391
 0
VERTEX
 8
CUBE_4
 10
0
 20
0
 30
0
 70
128
 71
102
 72
394
 73
392
 74
393
 0
VERTEX
 8
CUBE_4
 10
0
 20
0
 30
0
 70
128
 71
101
 72
352
 73
392
 74
394
 0
VERTEX
 8
CUBE_4
 10
0
 20
0
 30
0
 70
128
 71
97
 72
391
 73
392
 74
352
 0
VERTEX
 8
CUBE_4
 10
0
 20
0
 30
0
 70
128
 71
102
 72
396
 73
395
 74
394
 0
VERTEX
 8
CUBE_4
 10
0
 20
0
 30
0
 70
128
 71
106
 72
397
 73
395
 74
396
 0
VERTEX
 8
CUBE_4
 10
0
 20
0
 30
0
 70
128
 71
105
 72
355
 73
395
 74
397
 0
VERTEX
 8
CUBE_4
 10
0
 20
0
 30
0
 70
128
 71
101
 72
394
 73
395
 74
355
 0
VERTEX
 8
CUBE_4
 10
0
 20
0
 30
0
 70
128
 71
106
 72
399
 73
398
 74
397
 0
VERTEX
 8
CUBE_4
 10
0
 20
0
 30
0
 70
128
 71
110
 72
400
 73
398
 74
399
 0
VERTEX
 8
CUBE_4
 10
0
 20
0
 30
0
 70
128
 71
109
 72
358
 73
398
 74
400
 0
VERTEX
 8
CUBE_4
 10
0
 20
0
 30
0
 70
128
 71
105
 72
397
 73
398
 74
358
 0
VERTEX
 8
CUBE_4
 10
0
 20
0
 30
0
 70
128
 71
110
 72
402
 73
401
 74
400
 0
VERTEX
 8
CUBE_4
 10
0
 20
0
 30
0
 70
128
 71
114
 72
403
 73
401
 74
402
 0
VERTEX
 8
CUBE_4
 10
0
 20
0
 30
0
 70
128
 71
113
 72
361
 73
401
 74
403
 0
VERTEX
 8
CUBE_4
 10
0
 20
0
 30
0
 70
128
 71
109
 72
400
 73
401
 74
361
 0
VERTEX
 8
CUBE_4
 10
0
 20
0
 30
0
 70
128
 71
114
 72
405
 73
404
 74
403
 0
VERTEX
 8
CUBE_4
 10
0
 20
0
 30
0
 70
128
 71
118
 72
406
 73
404
 74
405
 0
VERTEX
 8
CUBE_4
 10
0
 20
0
 30
0
 70
128
 71
117
 72
364
 73
404
 74
406
 0
VERTEX
 8
CUBE_4
 10
0
 20
0
 30
0
 70
128
 71
113
 72
403
 73
404
 74
364
 0
VERTEX
 8
CUBE_4
 10
0
 20
0
 30
0
 70
128
 71
118
 72
408
 73
407
 74
406
 0
VERTEX
 8
CUBE_4
 10
0
 20
0
 30
0
 70
128
 71
122
 72
409
 73
407
 74
408
 0
VERTEX
 8
CUBE_4
 10
0
 20
0
 30
0
 70
128
 71
121
 72
367
 73
407
 74
409
 0
VERTEX
 8
CUBE_4
 10
0
 20
0
 30
0
 70
128
 71
117
 72
406
 73
407
 74
367
 0
VERTEX
 8
CUBE_4
 10
0
 20
0
 30
0
 70
128
 71
122
 72
411
 73
410
 74
409
 0
VERTEX
 8
CUBE_4
 10
0
 20
0
 30
0
 70
128
 71
126
 72
412
 73
410
 74
411
 0
VERTEX
 8
CUBE_4
 10
0
 20
0
 30
0
 70
128
 71
125
 72
370
 73
410
 74
412
 0
VERTEX
 8
CUBE_4
 10
0
 20
0
 30
0
 70
128
 71
121
 72
409
 73
410
 74
370
 0
VERTEX
 8
CUBE_4
 10
0
 20
0
 30
0
 70
128
 71
126
 72
414
 73
413
 74
412
 0
VERTEX
 8
CUBE_4
 10
0
 20
0
 30
0
 70
128
 71
34
 72
243
 73
413
 74
414
 0
VERTEX
 8
CUBE_4
 10
0
 20
0
 30
0
 70
128
 71
32
 72
373
 73
413
 74
243
 0
VERTEX
 8
CUBE_4
 10
0
 20
0
 30
0
 70
128
 71
125
 72
412
 73
413
 74
373
 0
VERTEX
 8
CUBE_4
 10
0
 20
0
 30
0
 70
128
 71
72
 72
416
 73
415
 74
323
 0
VERTEX
 8
CUBE_4
 10
0
 20
0
 30
0
 70
128
 71
79
 72
417
 73
415
 74
416
 0
VERTEX
 8
CUBE_4
 10
0
 20
0
 30
0
 70
128
 71
78
 72
375
 73
415
 74
417
 0
VERTEX
 8
CUBE_4
 10
0
 20
0
 30
0
 70
128
 71
74
 72
323
 73
415
 74
375
 0
VERTEX
 8
CUBE_4
 10
0
 20
0
 30
0
 70
128
 71
79
 72
419
 73
418
 74
417
 0
VERTEX
 8
CUBE_4
 10
0
 20
0
 30
0
 70
128
 71
83
 72
420
 73
418
 74
419
 0
VERTEX
 8
CUBE_4
 10
0
 20
0
 30
0
 70
128
 71
82
 72
378
 73
418
 74
420
 0
VERTEX
 8
CUBE_4
 10
0
 20
0
 30
0
 70
128
 71
78
 72
417
 73
418
 74
378
 0
VERTEX
 8
CUBE_4
 10
0
 20
0
 30
0
 70
128
 71
83
 72
422
 73
421
 74
420
 0
VERTEX
 8
CUBE_4
 10
0
 20
0
 30
0
 70
128
 71
87
 72
423
 73
421
 74
422
 0
VERTEX
 8
CUBE_4
 10
0
 20
0
 30
0
 70
128
 71
86
 72
381
 73
421
 74
423
 0
VERTEX
 8
CUBE_4
 10
0
 20
0
 30
0
 70
128
 71
82
 72
420
 73
421
 74
381
 0
VERTEX
 8
CUBE_4
 10
0
 20
0
 30
0
 70
128
 71
87
 72
425
 73
424
 74
423
 0
VERTEX
 8
CUBE_4
 10
0
 20
0
 30
0
 70
128
 71
91
 72
426
 73
424
 74
425
 0
VERTEX
 8
CUBE_4
 10
0
 20
0
 30
0
 70
128
 71
90
 72
384
 73
424
 74
426
 0
VERTEX
 8
CUBE_4
 10
0
 20
0
 30
0
 70
128
 71
86
 72
423
 73
424
 74
384
 0
VERTEX
 8
CUBE_4
 10
0
 20
0
 30
0
 70
128
 71
91
 72
428
 73
427
 74
426
 0
VERTEX
 8
CUBE_4
 10
0
 20
0
 30
0
 70
128
 71
95
 72
429
 73
427
 74
428
 0
VERTEX
 8
CUBE_4
 10
0
 20
0
 30
0
 70
128
 71
94
 72
387
 73
427
 74
429
 0
VERTEX
 8
CUBE_4
 10
0
 20
0
 30
0
 70
128
 71
90
 72
426
 73
427
 74
387
 0
VERTEX
 8
CUBE_4
 10
0
 20
0
 30
0
 70
128
 71
95
 72
431
 73
430
 74
429
 0
VERTEX
 8
CUBE_4
 10
0
 20
0
 30
0
 70
128
 71
99
 72
432
 73
430
 74
431
 0
VERTEX
 8
CUBE_4
 10
0
 20
0
 30
0
 70
128
 71
98
 72
390
 73
430
 74
432
 0
VERTEX
 8
CUBE_4
 10
0
 20
0
 30
0
 70
128
 71
94
 72
429
 73
430
 74
390
 0
VERTEX
 8
CUBE_4
 10
0
 20
0
 30
0
 70
128
 71
99
 72
434
 73
433
 74
432
 0
VERTEX
 8
CUBE_4
 10
0
 20
0
 30
0
 70
128
 71
103
 72
435
 73
433
 74
434
 0
VERTEX
 8
CUBE_4
 10
0
 20
0
 30
0
 70
128
 71
102
 72
393
 73
433
 74
435
 0
VERTEX
 8
CUBE_4
 10
0
 20
0
 30
0
 70
128
 71
98
 72
432
 73
433
 74
393
 0
VERTEX
 8
CUBE_4
 10
0
 20
0
 30
0
 70
128
 71
103
 72
437
 73
436
 74
435
 0
VERTEX
 8
CUBE_4
 10
0
 20
0
 30
0
 70
128
 71
107
 72
438
 73
436
 74
437
 0
VERTEX
 8
CUBE_4
 10
0
 20
0
 30
0
 70
128
 71
106
 72
396
 73
436
 74
438
 0
VERTEX
 8
CUBE_4
 10
0
 20
0
 30
0
 70
128
 71
102
 72
435
 73
436
 74
396
 0
VERTEX
 8
CUBE_4
 10
0
 20
0
 30
0
 70
128
 71
107
 72
440
 73
439
 74
438
 0
VERTEX
 8
CUBE_4
 10
0
 20
0
 30
0
 70
128
 71
111
 72
441
 73
439
 74
440
 0
VERTEX
 8
CUBE_4
 10
0
 20
0
 30
0
 70
128
 71
110
 72
399
 73
439
 74
441
 0
VERTEX
 8
CUBE_4
 10
0
 20
0
 30
0
 70
128
 71
106
 72
438
 73
439
 74
399
 0
VERTEX
 8
CUBE_4
 10
0
 20
0
 30
0
 70
128
 71
111
 72
443
 73
442
 74
441
 0
VERTEX
 8
CUBE_4
 10
0
 20
0
 30
0
 70
128
 71
115
 72
444
 73
442
 74
443
 0
VERTEX
 8
CUBE_4
 10
0
 20
0
 30
0
 70
128
 71
114
 72
402
 73
442
 74
444
 0
VERTEX
 8
CUBE_4
 10
0
 20
0
 30
0
 70
128
 71
110
 72
441
 73
442
 74
402
 0
VERTEX
 8
CUBE_4
 10
0
 20
0
 30
0
 70
128
 71
115
 72
446
 73
445
 74
444
 0
VERTEX
 8
CUBE_4
 10
0
 20
0
 30
0
 70
128
 71
119
 72
447
 73
445
 74
446
 0
VERTEX
 8
CUBE_4
 10
0
 20
0
 30
0
 70
128
 71
118
 72
405
 73
445
 74
447
 0
VERTEX
 8
CUBE_4
 10
0
 20
0
 30
0
 70
128
 71
114
 72
444
 73
445
 74
405
 0
VERTEX
 8
CUBE_4
 10
0
 20
0
 30
0
 70
128
 71
119
 72
449
 73
448
 74
447
 0
VERTEX
 8
CUBE_4
 10
0
 20
0
 30
0
 70
128
 71
123
 72
450
 73
448
 74
449
 0
VERTEX
 8
CUBE_4
 10
0
 20
0
 30
0
 70
128
 71
122
 72
408
 73
448
 74
450
 0
VERTEX
 8
CUBE_4
 10
0
 20
0
 30
0
 70
128
 71
118
 72
447
 73
448
 74
408
 0
VERTEX
 8
CUBE_4
 10
0
 20
0
 30
0
 70
128
 71
123
 72
452
 73
451
 74
450
 0
VERTEX
 8
CUBE_4
 10
0
 20
0
 30
0
 70
128
 71
127
 72
453
 73
451
 74
452
 0
VERTEX
 8
CUBE_4
 10
0
 20
0
 30
0
 70
128
 71
126
 72
411
 73
451
 74
453
 0
VERTEX
 8
CUBE_4
 10
0
 20
0
 30
0
 70
128
 71
122
 72
450
 73
451
 74
411
 0
VERTEX
 8
CUBE_4
 10
0
 20
0
 30
0
 70
128
 71
127
 72
455
 73
454
 74
453
 0
VERTEX
 8
CUBE_4
 10
0
 20
0
 30
0
 70
128
 71
36
 72
247
 73
454
 74
455
 0
VERTEX
 8
CUBE_4
 10
0
 20
0
 30
0
 70
128
 71
34
 72
414
 73
454
 74
247
 0
VERTEX
 8
CUBE_4
 10
0
 20
0
 30
0
 70
128
 71
126
 72
453
 73
454
 74
414
 0
VERTEX
 8
CUBE_4
 10
0
 20
0
 30
0
 70
128
 71
70
 72
457
 73
456
 74
319
 0
VERTEX
 8
CUBE_4
 10
0
 20
0
 30
0
 70
128
 71
80
 72
458
 73
456
 74
457
 0
VERTEX
 8
CUBE_4
 10
0
 20
0
 30
0
 70
128
 71
79
 72
416
 73
456
 74
458
 0
VERTEX
 8
CUBE_4
 10
0
 20
0
 30
0
 70
128
 71
72
 72
319
 73
456
 74
416
 0
VERTEX
 8
CUBE_4
 10
0
 20
0
 30
0
 70
128
 71
80
 72
460
 73
459
 74
458
 0
VERTEX
 8
CUBE_4
 10
0
 20
0
 30
0
 70
128
 71
84
 72
461
 73
459
 74
460
 0
VERTEX
 8
CUBE_4
 10
0
 20
0
 30
0
 70
128
 71
83
 72
419
 73
459
 74
461
 0
VERTEX
 8
CUBE_4
 10
0
 20
0
 30
0
 70
128
 71
79
 72
458
 73
459
 74
419
 0
VERTEX
 8
CUBE_4
 10
0
 20
0
 30
0
 70
128
 71
84
 72
463
 73
462
 74
461
 0
VERTEX
 8
CUBE_4
 10
0
 20
0
 30
0
 70
128
 71
88
 72
464
 73
462
 74
463
 0
VERTEX
 8
CUBE_4
 10
0
 20
0
 30
0
 70
128
 71
87
 72
422
 73
462
 74
464
 0
VERTEX
 8
CUBE_4
 10
0
 20
0
 30
0
 70
128
 71
83
 72
461
 73
462
 74
422
 0
VERTEX
 8
CUBE_4
 10
0
 20
0
 30
0
 70
128
 71
88
 72
466
 73
465
 74
464
 0
VERTEX
 8
CUBE_4
 10
0
 20
0
 30
0
 70
128
 71
92
 72
467
 73
465
 74
466
 0
VERTEX
 8
CUBE_4
 10
0
 20
0
 30
0
 70
128
 71
91
 72
425
 73
465
 74
467
 0
VERTEX
 8
CUBE_4
 10
0
 20
0
 30
0
 70
128
 71
87
 72
464
 73
465
 74
425
 0
VERTEX
 8
CUBE_4
 10
0
 20
0
 30
0
 70
128
 71
92
 72
469
 73
468
 74
467
 0
VERTEX
 8
CUBE_4
 10
0
 20
0
 30
0
 70
128
 71
96
 72
470
 73
468
 74
469
 0
VERTEX
 8
CUBE_4
 10
0
 20
0
 30
0
 70
128
 71
95
 72
428
 73
468
 74
470
 0
VERTEX
 8
CUBE_4
 10
0
 20
0
 30
0
 70
128
 71
91
 72
467
 73
468
 74
428
 0
VERTEX
 8
CUBE_4
 10
0
 20
0
 30
0
 70
128
 71
96
 72
472
 73
471
 74
470
 0
VERTEX
 8
CUBE_4
 10
0
 20
0
 30
0
 70
128
 71
100
 72
473
 73
471
 74
472
 0
VERTEX
 8
CUBE_4
 10
0
 20
0
 30
0
 70
128
 71
99
 72
431
 73
471
 74
473
 0
VERTEX
 8
CUBE_4
 10
0
 20
0
 30
0
 70
128
 71
95
 72
470
 73
471
 74
431
 0
VERTEX
 8
CUBE_4
 10
0
 20
0
 30
0
 70
128
 71
100
 72
475
 73
474
 74
473
 0
VERTEX
 8
CUBE_4
 10
0
 20
0
 30
0
 70
128
 71
104
 72
476
 73
474
 74
475
 0
VERTEX
 8
CUBE_4
 10
0
 20
0
 30
0
 70
128
 71
103
 72
434
 73
474
 74
476
 0
VERTEX
 8
CUBE_4
 10
0
 20
0
 30
0
 70
128
 71
99
 72
473
 73
474
 74
434
 0
VERTEX
 8
CUBE_4
 10
0
 20
0
 30
0
 70
128
 71
104
 72
478
 73
477
 74
476
 0
VERTEX
 8
CUBE_4
 10
0
 20
0
 30
0
 70
128
 71
108
 72
479
 73
477
 74
478
 0
VERTEX
 8
CUBE_4
 10
0
 20
0
 30
0
 70
128
 71
107
 72
437
 73
477
 74
479
 0
VERTEX
 8
CUBE_4
 10
0
 20
0
 30
0
 70
128
 71
103
 72
476
 73
477
 74
437
 0
VERTEX
 8
CUBE_4
 10
0
 20
0
 30
0
 70
128
 71
108
 72
481
 73
480
 74
479
 0
VERTEX
 8
CUBE_4
 10
0
 20
0
 30
0
 70
128
 71
112
 72
482
 73
480
 74
481
 0
VERTEX
 8
CUBE_4
 10
0
 20
0
 30
0
 70
128
 71
111
 72
440
 73
480
 74
482
 0
VERTEX
 8
CUBE_4
 10
0
 20
0
 30
0
 70
128
 71
107
 72
479
 73
480
 74
440
 0
VERTEX
 8
CUBE_4
 10
0
 20
0
 30
0
 70
128
 71
112
 72
484
 73
483
 74
482
 0
VERTEX
 8
CUBE_4
 10
0
 20
0
 30
0
 70
128
 71
116
 72
485
 73
483
 74
484
 0
VERTEX
 8
CUBE_4
 10
0
 20
0
 30
0
 70
128
 71
115
 72
443
 73
483
 74
485
 0
VERTEX
 8
CUBE_4
 10
0
 20
0
 30
0
 70
128
 71
111
 72
482
 73
483
 74
443
 0
VERTEX
 8
CUBE_4
 10
0
 20
0
 30
0
 70
128
 71
116
 72
487
 73
486
 74
485
 0
VERTEX
 8
CUBE_4
 10
0
 20
0
 30
0
 70
128
 71
120
 72
488
 73
486
 74
487
 0
VERTEX
 8
CUBE_4
 10
0
 20
0
 30
0
 70
128
 71
119
 72
446
 73
486
 74
488
 0
VERTEX
 8
CUBE_4
 10
0
 20
0
 30
0
 70
128
 71
115
 72
485
 73
486
 74
446
 0
VERTEX
 8
CUBE_4
 10
0
 20
0
 30
0
 70
128
 71
120
 72
490
 73
489
 74
488
 0
VERTEX
 8
CUBE_4
 10
0
 20
0
 30
0
 70
128
 71
124
 72
491
 73
489
 74
490
 0
VERTEX
 8
CUBE_4
 10
0
 20
0
 30
0
 70
128
 71
123
 72
449
 73
489
 74
491
 0
VERTEX
 8
CUBE_4
 10
0
 20
0
 30
0
 70
128
 71
119
 72
488
 73
489
 74
449
 0
VERTEX
 8
CUBE_4
 10
0
 20
0
 30
0
 70
128
 71
124
 72
493
 73
492
 74
491
 0
VERTEX
 8
CUBE_4
 10
0
 20
0
 30
0
 70
128
 71
128
 72
494
 73
492
 74
493
 0
VERTEX
 8
CUBE_4
 10
0
 20
0
 30
0
 70
128
 71
127
 72
452
 73
492
 74
494
 0
VERTEX
 8
CUBE_4
 10
0
 20
0
 30
0
 70
128
 71
123
 72
491
 73
492
 74
452
 0
VERTEX
 8
CUBE_4
 10
0
 20
0
 30
0
 70
128
 71
128
 72
496
 73
495
 74
494
 0
VERTEX
 8
CUBE_4
 10
0
 20
0
 30
0
 70
128
 71
38
 72
251
 73
495
 74
496
 0
VERTEX
 8
CUBE_4
 10
0
 20
0
 30
0
 70
128
 71
36
 72
455
 73
495
 74
251
 0
VERTEX
 8
CUBE_4
 10
0
 20
0
 30
0
 70
128
 71
127
 72
494
 73
495
 74
455
 0
VERTEX
 8
CUBE_4
 10
0
 20
0
 30
0
 70
128
 71
68
 72
311
 73
497
 74
315
 0
VERTEX
 8
CUBE_4
 10
0
 20
0
 30
0
 70
128
 71
66
 72
498
 73
497
 74
311
 0
VERTEX
 8
CUBE_4
 10
0
 20
0
 30
0
 70
128
 71
80
 72
457
 73
497
 74
498
 0
VERTEX
 8
CUBE_4
 10
0
 20
0
 30
0
 70
128
 71
70
 72
315
 73
497
 74
457
 0
VERTEX
 8
CUBE_4
 10
0
 20
0
 30
0
 70
128
 71
66
 72
307
 73
499
 74
498
 0
VERTEX
 8
CUBE_4
 10
0
 20
0
 30
0
 70
128
 71
64
 72
500
 73
499
 74
307
 0
VERTEX
 8
CUBE_4
 10
0
 20
0
 30
0
 70
128
 71
84
 72
460
 73
499
 74
500
 0
VERTEX
 8
CUBE_4
 10
0
 20
0
 30
0
 70
128
 71
80
 72
498
 73
499
 74
460
 0
VERTEX
 8
CUBE_4
 10
0
 20
0
 30
0
 70
128
 71
64
 72
303
 73
501
 74
500
 0
VERTEX
 8
CUBE_4
 10
0
 20
0
 30
0
 70
128
 71
62
 72
502
 73
501
 74
303
 0
VERTEX
 8
CUBE_4
 10
0
 20
0
 30
0
 70
128
 71
88
 72
463
 73
501
 74
502
 0
VERTEX
 8
CUBE_4
 10
0
 20
0
 30
0
 70
128
 71
84
 72
500
 73
501
 74
463
 0
VERTEX
 8
CUBE_4
 10
0
 20
0
 30
0
 70
128
 71
62
 72
299
 73
503
 74
502
 0
VERTEX
 8
CUBE_4
 10
0
 20
0
 30
0
 70
128
 71
60
 72
504
 73
503
 74
299
 0
VERTEX
 8
CUBE_4
 10
0
 20
0
 30
0
 70
128
 71
92
 72
466
 73
503
 74
504
 0
VERTEX
 8
CUBE_4
 10
0
 20
0
 30
0
 70
128
 71
88
 72
502
 73
503
 74
466
 0
VERTEX
 8
CUBE_4
 10
0
 20
0
 30
0
 70
128
 71
60
 72
295
 73
505
 74
504
 0
VERTEX
 8
CUBE_4
 10
0
 20
0
 30
0
 70
128
 71
58
 72
506
 73
505
 74
295
 0
VERTEX
 8
CUBE_4
 10
0
 20
0
 30
0
 70
128
 71
96
 72
469
 73
505
 74
506
 0
VERTEX
 8
CUBE_4
 10
0
 20
0
 30
0
 70
128
 71
92
 72
504
 73
505
 74
469
 0
VERTEX
 8
CUBE_4
 10
0
 20
0
 30
0
 70
128
 71
58
 72
291
 73
507
 74
506
 0
VERTEX
 8
CUBE_4
 10
0
 20
0
 30
0
 70
128
 71
56
 72
508
 73
507
 74
291
 0
VERTEX
 8
CUBE_4
 10
0
 20
0
 30
0
 70
128
 71
100
 72
472
 73
507
 74
508
 0
VERTEX
 8
CUBE_4
 10
0
 20
0
 30
0
 70
128
 71
96
 72
506
 73
507
 74
472
 0
VERTEX
 8
CUBE_4
 10
0
 20
0
 30
0
 70
128
 71
56
 72
287
 73
509
 74
508
 0
VERTEX
 8
CUBE_4
 10
0
 20
0
 30
0
 70
128
 71
54
 72
510
 73
509
 74
287
 0
VERTEX
 8
CUBE_4
 10
0
 20
0
 30
0
 70
128
 71
104
 72
475
 73
509
 74
510
 0
VERTEX
 8
CUBE_4
 10
0
 20
0
 30
0
 70
128
 71
100
 72
508
 73
509
 74
475
 0
VERTEX
 8
CUBE_4
 10
0
 20
0
 30
0
 70
128
 71
54
 72
283
 73
511
 74
510
 0
VERTEX
 8
CUBE_4
 10
0
 20
0
 30
0
 70
128
 71
52
 72
512
 73
511
 74
283
 0
VERTEX
 8
CUBE_4
 10
0
 20
0
 30
0
 70
128
 71
108
 72
478
 73
511
 74
512
 0
VERTEX
 8
CUBE_4
 10
0
 20
0
 30
0
 70
128
 71
104
 72
510
 73
511
 74
478
 0
VERTEX
 8
CUBE_4
 10
0
 20
0
 30
0
 70
128
 71
52
 72
279
 73
513
 74
512
 0
VERTEX
 8
CUBE_4
 10
0
 20
0
 30
0
 70
128
 71
50
 72
514
 73
513
 74
279
 0
VERTEX
 8
CUBE_4
 10
0
 20
0
 30
0
 70
128
 71
112
 72
481
 73
513
 74
514
 0
VERTEX
 8
CUBE_4
 10
0
 20
0
 30
0
 70
128
 71
108
 72
512
 73
513
 74
481
 0
VERTEX
 8
CUBE_4
 10
0
 20
0
 30
0
 70
128
 71
50
 72
275
 73
515
 74
514
 0
VERTEX
 8
CUBE_4
 10
0
 20
0
 30
0
 70
128
 71
48
 72
516
 73
515
 74
275
 0
VERTEX
 8
CUBE_4
 10
0
 20
0
 30
0
 70
128
 71
116
 72
484
 73
515
 74
516
 0
VERTEX
 8
CUBE_4
 10
0
 20
0
 30
0
 70
128
 71
112
 72
514
 73
515
 74
484
 0
VERTEX
 8
CUBE_4
 10
0
 20
0
 30
0
 70
128
 71
48
 72
271
 73
517
 74
516
 0
VERTEX
 8
CUBE_4
 10
0
 20
0
 30
0
 70
128
 71
46
 72
518
 73
517
 74
271
 0
VERTEX
 8
CUBE_4
 10
0
 20
0
 30
0
 70
128
 71
120
 72
487
 73
517
 74
518
 0
VERTEX
 8
CUBE_4
 10
0
 20
0
 30
0
 70
128
 71
116
 72
516
 73
517
 74
487
 0
VERTEX
 8
CUBE_4
 10
0
 20
0
 30
0
 70
128
 71
46
 72
267
 73
519
 74
518
 0
VERTEX
 8
CUBE_4
 10
0
 20
0
 30
0
 70
128
 71
44
 72
520
 73
519
 74
267
 0
VERTEX
 8
CUBE_4
 10
0
 20
0
 30
0
 70
128
 71
124
 72
490
 73
519
 74
520
 0
VERTEX
 8
CUBE_4
 10
0
 20
0
 30
0
 70
128
 71
120
 72
518
 73
519
 74
490
 0
VERTEX
 8
CUBE_4
 10
0
 20
0
 30
0
 70
128
 71
44
 72
263
 73
521
 74
520
 0
VERTEX
 8
CUBE_4
 10
0
 20
0
 30
0
 70
128
 71
42
 72
522
 73
521
 74
263
 0
VERTEX
 8
CUBE_4
 10
0
 20
0
 30
0
 70
128
 71
128
 72
493
 73
521
 74
522
 0
VERTEX
 8
CUBE_4
 10
0
 20
0
 30
0
 70
128
 71
124
 72
520
 73
521
 74
493
 0
VERTEX
 8
CUBE_4
 10
0
 20
0
 30
0
 70
128
 71
42
 72
259
 73
523
 74
522
 0
VERTEX
 8
CUBE_4
 10
0
 20
0
 30
0
 70
128
 71
40
 72
255
 73
523
 74
259
 0
VERTEX
 8
CUBE_4
 10
0
 20
0
 30
0
 70
128
 71
38
 72
496
 73
523
 74
255
 0
VERTEX
 8
CUBE_4
 10
0
 20
0
 30
0
 70
128
 71
128
 72
522
 73
523
 74
496
 0
VERTEX
 8
CUBE_4
 10
0
 20
0
 30
0
 70
128
 71
69
 72
525
 73
524
 74
317
 0
VERTEX
 8
CUBE_4
 10
0
 20
0
 30
0
 70
128
 71
129
 72
526
 73
524
 74
525
 0
VERTEX
 8
CUBE_4
 10
0
 20
0
 30
0
 70
128
 71
65
 72
313
 73
524
 74
526
 0
VERTEX
 8
CUBE_4
 10
0
 20
0
 30
0
 70
128
 71
67
 72
317
 73
524
 74
313
 0
VERTEX
 8
CUBE_4
 10
0
 20
0
 30
0
 70
128
 71
129
 72
528
 73
527
 74
526
 0
VERTEX
 8
CUBE_4
 10
0
 20
0
 30
0
 70
128
 71
133
 72
529
 73
527
 74
528
 0
VERTEX
 8
CUBE_4
 10
0
 20
0
 30
0
 70
128
 71
63
 72
309
 73
527
 74
529
 0
VERTEX
 8
CUBE_4
 10
0
 20
0
 30
0
 70
128
 71
65
 72
526
 73
527
 74
309
 0
VERTEX
 8
CUBE_4
 10
0
 20
0
 30
0
 70
128
 71
133
 72
531
 73
530
 74
529
 0
VERTEX
 8
CUBE_4
 10
0
 20
0
 30
0
 70
128
 71
137
 72
532
 73
530
 74
531
 0
VERTEX
 8
CUBE_4
 10
0
 20
0
 30
0
 70
128
 71
61
 72
305
 73
530
 74
532
 0
VERTEX
 8
CUBE_4
 10
0
 20
0
 30
0
 70
128
 71
63
 72
529
 73
530
 74
305
 0
VERTEX
 8
CUBE_4
 10
0
 20
0
 30
0
 70
128
 71
137
 72
534
 73
533
 74
532
 0
VERTEX
 8
CUBE_4
 10
0
 20
0
 30
0
 70
128
 71
141
 72
535
 73
533
 74
534
 0
VERTEX
 8
CUBE_4
 10
0
 20
0
 30
0
 70
128
 71
59
 72
301
 73
533
 74
535
 0
VERTEX
 8
CUBE_4
 10
0
 20
0
 30
0
 70
128
 71
61
 72
532
 73
533
 74
301
 0
VERTEX
 8
CUBE_4
 10
0
 20
0
 30
0
 70
128
 71
141
 72
537
 73
536
 74
535
 0
VERTEX
 8
CUBE_4
 10
0
 20
0
 30
0
 70
128
 71
145
 72
538
 73
536
 74
537
 0
VERTEX
 8
CUBE_4
 10
0
 20
0
 30
0
 70
128
 71
57
 72
297
 73
536
 74
538
 0
VERTEX
 8
CUBE_4
 10
0
 20
0
 30
0
 70
128
 71
59
 72
535
 73
536
 74
297
 0
VERTEX
 8
CUBE_4
 10
0
 20
0
 30
0
 70
128
 71
145
 72
540
 73
539
 74
538
 0
VERTEX
 8
CUBE_4
 10
0
 20
0
 30
0
 70
128
 71
149
 72
541
 73
539
 74
540
 0
VERTEX
 8
CUBE_4
 10
0
 20
0
 30
0
 70
128
 71
55
 72
293
 73
539
 74
541
 0
VERTEX
 8
CUBE_4
 10
0
 20
0
 30
0
 70
128
 71
57
 72
538
 73
539
 74
293
 0
VERTEX
 8
CUBE_4
 10
0
 20
0
 30
0
 70
128
 71
149
 72
543
 73
542
 74
541
 0
VERTEX
 8
CUBE_4
 10
0
 20
0
 30
0
 70
128
 71
153
 72
544
 73
542
 74
543
 0
VERTEX
 8
CUBE_4
 10
0
 20
0
 30
0
 70
128
 71
53
 72
289
 73
542
 74
544
 0
VERTEX
 8
CUBE_4
 10
0
 20
0
 30
0
 70
128
 71
55
 72
541
 73
542
 74
289
 0
VERTEX
 8
CUBE_4
 10
0
 20
0
 30
0
 70
128
 71
153
 72
546
 73
545
 74
544
 0
VERTEX
 8
CUBE_4
 10
0
 20
0
 30
0
 70
128
 71
157
 72
547
 73
545
 74
546
 0
VERTEX
 8
CUBE_4
 10
0
 20
0
 30
0
 70
128
 71
51
 72
285
 73
545
 74
547
 0
VERTEX
 8
CUBE_4
 10
0
 20
0
 30
0
 70
128
 71
53
 72
544
 73
545
 74
285
 0
VERTEX
 8
CUBE_4
 10
0
 20
0
 30
0
 70
128
 71
157
 72
549
 73
548
 74
547
 0
VERTEX
 8
CUBE_4
 10
0
 20
0
 30
0
 70
128
 71
161
 72
550
 73
548
 74
549
 0
VERTEX
 8
CUBE_4
 10
0
 20
0
 30
0
 70
128
 71
49
 72
281
 73
548
 74
550
 0
VERTEX
 8
CUBE_4
 10
0
 20
0
 30
0
 70
128
 71
51
 72
547
 73
548
 74
281
 0
VERTEX
 8
CUBE_4
 10
0
 20
0
 30
0
 70
128
 71
161
 72
552
 73
551
 74
550
 0
VERTEX
 8
CUBE_4
 10
0
 20
0
 30
0
 70
128
 71
165
 72
553
 73
551
 74
552
 0
VERTEX
 8
CUBE_4
 10
0
 20
0
 30
0
 70
128
 71
47
 72
277
 73
551
 74
553
 0
VERTEX
 8
CUBE_4
 10
0
 20
0
 30
0
 70
128
 71
49
 72
550
 73
551
 74
277
 0
VERTEX
 8
CUBE_4
 10
0
 20
0
 30
0
 70
128
 71
165
 72
555
 73
554
 74
553
 0
VERTEX
 8
CUBE_4
 10
0
 20
0
 30
0
 70
128
 71
169
 72
556
 73
554
 74
555
 0
VERTEX
 8
CUBE_4
 10
0
 20
0
 30
0
 70
128
 71
45
 72
273
 73
554
 74
556
 0
VERTEX
 8
CUBE_4
 10
0
 20
0
 30
0
 70
128
 71
47
 72
553
 73
554
 74
273
 0
VERTEX
 8
CUBE_4
 10
0
 20
0
 30
0
 70
128
 71
169
 72
558
 73
557
 74
556
 0
VERTEX
 8
CUBE_4
 10
0
 20
0
 30
0
 70
128
 71
173
 72
559
 73
557
 74
558
 0
VERTEX
 8
CUBE_4
 10
0
 20
0
 30
0
 70
128
 71
43
 72
269
 73
557
 74
559
 0
VERTEX
 8
CUBE_4
 10
0
 20
0
 30
0
 70
128
 71
45
 72
556
 73
557
 74
269
 0
VERTEX
 8
CUBE_4
 10
0
 20
0
 30
0
 70
128
 71
173
 72
561
 73
560
 74
559
 0
VERTEX
 8
CUBE_4
 10
0
 20
0
 30
0
 70
128
 71
177
 72
562
 73
560
 74
561
 0
VERTEX
 8
CUBE_4
 10
0
 20
0
 30
0
 70
128
 71
41
 72
265
 73
560
 74
562
 0
VERTEX
 8
CUBE_4
 10
0
 20
0
 30
0
 70
128
 71
43
 72
559
 73
560
 74
265
 0
VERTEX
 8
CUBE_4
 10
0
 20
0
 30
0
 70
128
 71
177
 72
564
 73
563
 74
562
 0
VERTEX
 8
CUBE_4
 10
0
 20
0
 30
0
 70
128
 71
37
 72
257
 73
563
 74
564
 0
VERTEX
 8
CUBE_4
 10
0
 20
0
 30
0
 70
128
 71
39
 72
261
 73
563
 74
257
 0
VERTEX
 8
CUBE_4
 10
0
 20
0
 30
0
 70
128
 71
41
 72
562
 73
563
 74
261
 0
VERTEX
 8
CUBE_4
 10
0
 20
0
 30
0
 70
128
 71
71
 72
566
 73
565
 74
321
 0
VERTEX
 8
CUBE_4
 10
0
 20
0
 30
0
 70
128
 71
130
 72
567
 73
565
 74
566
 0
VERTEX
 8
CUBE_4
 10
0
 20
0
 30
0
 70
128
 71
129
 72
525
 73
565
 74
567
 0
VERTEX
 8
CUBE_4
 10
0
 20
0
 30
0
 70
128
 71
69
 72
321
 73
565
 74
525
 0
VERTEX
 8
CUBE_4
 10
0
 20
0
 30
0
 70
128
 71
130
 72
569
 73
568
 74
567
 0
VERTEX
 8
CUBE_4
 10
0
 20
0
 30
0
 70
128
 71
134
 72
570
 73
568
 74
569
 0
VERTEX
 8
CUBE_4
 10
0
 20
0
 30
0
 70
128
 71
133
 72
528
 73
568
 74
570
 0
VERTEX
 8
CUBE_4
 10
0
 20
0
 30
0
 70
128
 71
129
 72
567
 73
568
 74
528
 0
VERTEX
 8
CUBE_4
 10
0
 20
0
 30
0
 70
128
 71
134
 72
572
 73
571
 74
570
 0
VERTEX
 8
CUBE_4
 10
0
 20
0
 30
0
 70
128
 71
138
 72
573
 73
571
 74
572
 0
VERTEX
 8
CUBE_4
 10
0
 20
0
 30
0
 70
128
 71
137
 72
531
 73
571
 74
573
 0
VERTEX
 8
CUBE_4
 10
0
 20
0
 30
0
 70
128
 71
133
 72
570
 73
571
 74
531
 0
VERTEX
 8
CUBE_4
 10
0
 20
0
 30
0
 70
128
 71
138
 72
575
 73
574
 74
573
 0
VERTEX
 8
CUBE_4
 10
0
 20
0
 30
0
 70
128
 71
142
 72
576
 73
574
 74
575
 0
VERTEX
 8
CUBE_4
 10
0
 20
0
 30
0
 70
128
 71
141
 72
534
 73
574
 74
576
 0
VERTEX
 8
CUBE_4
 10
0
 20
0
 30
0
 70
128
 71
137
 72
573
 73
574
 74
534
 0
VERTEX
 8
CUBE_4
 10
0
 20
0
 30
0
 70
128
 71
142
 72
578
 73
577
 74
576
 0
VERTEX
 8
CUBE_4
 10
0
 20
0
 30
0
 70
128
 71
146
 72
579
 73
577
 74
578
 0
VERTEX
 8
CUBE_4
 10
0
 20
0
 30
0
 70
128
 71
145
 72
537
 73
577
 74
579
 0
VERTEX
 8
CUBE_4
 10
0
 20
0
 30
0
 70
128
 71
141
 72
576
 73
577
 74
537
 0
VERTEX
 8
CUBE_4
 10
0
 20
0
 30
0
 70
128
 71
146
 72
581
 73
580
 74
579
 0
VERTEX
 8
CUBE_4
 10
0
 20
0
 30
0
 70
128
 71
150
 72
582
 73
580
 74
581
 0
VERTEX
 8
CUBE_4
 10
0
 20
0
 30
0
 70
128
 71
149
 72
540
 73
580
 74
582
 0
VERTEX
 8
CUBE_4
 10
0
 20
0
 30
0
 70
128
 71
145
 72
579
 73
580
 74
540
 0
VERTEX
 8
CUBE_4
 10
0
 20
0
 30
0
 70
128
 71
150
 72
584
 73
583
 74
582
 0
VERTEX
 8
CUBE_4
 10
0
 20
0
 30
0
 70
128
 71
154
 72
585
 73
583
 74
584
 0
VERTEX
 8
CUBE_4
 10
0
 20
0
 30
0
 70
128
 71
153
 72
543
 73
583
 74
585
 0
VERTEX
 8
CUBE_4
 10
0
 20
0
 30
0
 70
128
 71
149
 72
582
 73
583
 74
543
 0
VERTEX
 8
CUBE_4
 10
0
 20
0
 30
0
 70
128
 71
154
 72
587
 73
586
 74
585
 0
VERTEX
 8
CUBE_4
 10
0
 20
0
 30
0
 70
128
 71
158
 72
588
 73
586
 74
587
 0
VERTEX
 8
CUBE_4
 10
0
 20
0
 30
0
 70
128
 71
157
 72
546
 73
586
 74
588
 0
VERTEX
 8
CUBE_4
 10
0
 20
0
 30
0
 70
128
 71
153
 72
585
 73
586
 74
546
 0
VERTEX
 8
CUBE_4
 10
0
 20
0
 30
0
 70
128
 71
158
 72
590
 73
589
 74
588
 0
VERTEX
 8
CUBE_4
 10
0
 20
0
 30
0
 70
128
 71
162
 72
591
 73
589
 74
590
 0
VERTEX
 8
CUBE_4
 10
0
 20
0
 30
0
 70
128
 71
161
 72
549
 73
589
 74
591
 0
VERTEX
 8
CUBE_4
 10
0
 20
0
 30
0
 70
128
 71
157
 72
588
 73
589
 74
549
 0
VERTEX
 8
CUBE_4
 10
0
 20
0
 30
0
 70
128
 71
162
 72
593
 73
592
 74
591
 0
VERTEX
 8
CUBE_4
 10
0
 20
0
 30
0
 70
128
 71
166
 72
594
 73
592
 74
593
 0
VERTEX
 8
CUBE_4
 10
0
 20
0
 30
0
 70
128
 71
165
 72
552
 73
592
 74
594
 0
VERTEX
 8
CUBE_4
 10
0
 20
0
 30
0
 70
128
 71
161
 72
591
 73
592
 74
552
 0
VERTEX
 8
CUBE_4
 10
0
 20
0
 30
0
 70
128
 71
166
 72
596
 73
595
 74
594
 0
VERTEX
 8
CUBE_4
 10
0
 20
0
 30
0
 70
128
 71
170
 72
597
 73
595
 74
596
 0
VERTEX
 8
CUBE_4
 10
0
 20
0
 30
0
 70
128
 71
169
 72
555
 73
595
 74
597
 0
VERTEX
 8
CUBE_4
 10
0
 20
0
 30
0
 70
128
 71
165
 72
594
 73
595
 74
555
 0
VERTEX
 8
CUBE_4
 10
0
 20
0
 30
0
 70
128
 71
170
 72
599
 73
598
 74
597
 0
VERTEX
 8
CUBE_4
 10
0
 20
0
 30
0
 70
128
 71
174
 72
600
 73
598
 74
599
 0
VERTEX
 8
CUBE_4
 10
0
 20
0
 30
0
 70
128
 71
173
 72
558
 73
598
 74
600
 0
VERTEX
 8
CUBE_4
 10
0
 20
0
 30
0
 70
128
 71
169
 72
597
 73
598
 74
558
 0
VERTEX
 8
CUBE_4
 10
0
 20
0
 30
0
 70
128
 71
174
 72
602
 73
601
 74
600
 0
VERTEX
 8
CUBE_4
 10
0
 20
0
 30
0
 70
128
 71
178
 72
603
 73
601
 74
602
 0
VERTEX
 8
CUBE_4
 10
0
 20
0
 30
0
 70
128
 71
177
 72
561
 73
601
 74
603
 0
VERTEX
 8
CUBE_4
 10
0
 20
0
 30
0
 70
128
 71
173
 72
600
 73
601
 74
561
 0
VERTEX
 8
CUBE_4
 10
0
 20
0
 30
0
 70
128
 71
178
 72
605
 73
604
 74
603
 0
VERTEX
 8
CUBE_4
 10
0
 20
0
 30
0
 70
128
 71
35
 72
253
 73
604
 74
605
 0
VERTEX
 8
CUBE_4
 10
0
 20
0
 30
0
 70
128
 71
37
 72
564
 73
604
 74
253
 0
VERTEX
 8
CUBE_4
 10
0
 20
0
 30
0
 70
128
 71
177
 72
603
 73
604
 74
564
 0
VERTEX
 8
CUBE_4
 10
0
 20
0
 30
0
 70
128
 71
73
 72
607
 73
606
 74
325
 0
VERTEX
 8
CUBE_4
 10
0
 20
0
 30
0
 70
128
 71
131
 72
608
 73
606
 74
607
 0
VERTEX
 8
CUBE_4
 10
0
 20
0
 30
0
 70
128
 71
130
 72
566
 73
606
 74
608
 0
VERTEX
 8
CUBE_4
 10
0
 20
0
 30
0
 70
128
 71
71
 72
325
 73
606
 74
566
 0
VERTEX
 8
CUBE_4
 10
0
 20
0
 30
0
 70
128
 71
131
 72
610
 73
609
 74
608
 0
VERTEX
 8
CUBE_4
 10
0
 20
0
 30
0
 70
128
 71
135
 72
611
 73
609
 74
610
 0
VERTEX
 8
CUBE_4
 10
0
 20
0
 30
0
 70
128
 71
134
 72
569
 73
609
 74
611
 0
VERTEX
 8
CUBE_4
 10
0
 20
0
 30
0
 70
128
 71
130
 72
608
 73
609
 74
569
 0
VERTEX
 8
CUBE_4
 10
0
 20
0
 30
0
 70
128
 71
135
 72
613
 73
612
 74
611
 0
VERTEX
 8
CUBE_4
 10
0
 20
0
 30
0
 70
128
 71
139
 72
614
 73
612
 74
613
 0
VERTEX
 8
CUBE_4
 10
0
 20
0
 30
0
 70
128
 71
138
 72
572
 73
612
 74
614
 0
VERTEX
 8
CUBE_4
 10
0
 20
0
 30
0
 70
128
 71
134
 72
611
 73
612
 74
572
 0
VERTEX
 8
CUBE_4
 10
0
 20
0
 30
0
 70
128
 71
139
 72
616
 73
615
 74
614
 0
VERTEX
 8
CUBE_4
 10
0
 20
0
 30
0
 70
128
 71
143
 72
617
 73
615
 74
616
 0
VERTEX
 8
CUBE_4
 10
0
 20
0
 30
0
 70
128
 71
142
 72
575
 73
615
 74
617
 0
VERTEX
 8
CUBE_4
 10
0
 20
0
 30
0
 70
128
 71
138
 72
614
 73
615
 74
575
 0
VERTEX
 8
CUBE_4
 10
0
 20
0
 30
0
 70
128
 71
143
 72
619
 73
618
 74
617
 0
VERTEX
 8
CUBE_4
 10
0
 20
0
 30
0
 70
128
 71
147
 72
620
 73
618
 74
619
 0
VERTEX
 8
CUBE_4
 10
0
 20
0
 30
0
 70
128
 71
146
 72
578
 73
618
 74
620
 0
VERTEX
 8
CUBE_4
 10
0
 20
0
 30
0
 70
128
 71
142
 72
617
 73
618
 74
578
 0
VERTEX
 8
CUBE_4
 10
0
 20
0
 30
0
 70
128
 71
147
 72
622
 73
621
 74
620
 0
VERTEX
 8
CUBE_4
 10
0
 20
0
 30
0
 70
128
 71
151
 72
623
 73
621
 74
622
 0
VERTEX
 8
CUBE_4
 10
0
 20
0
 30
0
 70
128
 71
150
 72
581
 73
621
 74
623
 0
VERTEX
 8
CUBE_4
 10
0
 20
0
 30
0
 70
128
 71
146
 72
620
 73
621
 74
581
 0
VERTEX
 8
CUBE_4
 10
0
 20
0
 30
0
 70
128
 71
151
 72
625
 73
624
 74
623
 0
VERTEX
 8
CUBE_4
 10
0
 20
0
 30
0
 70
128
 71
155
 72
626
 73
624
 74
625
 0
VERTEX
 8
CUBE_4
 10
0
 20
0
 30
0
 70
128
 71
154
 72
584
 73
624
 74
626
 0
VERTEX
 8
CUBE_4
 10
0
 20
0
 30
0
 70
128
 71
150
 72
623
 73
624
 74
584
 0
VERTEX
 8
CUBE_4
 10
0
 20
0
 30
0
 70
128
 71
155
 72
628
 73
627
 74
626
 0
VERTEX
 8
CUBE_4
 10
0
 20
0
 30
0
 70
128
 71
159
 72
629
 73
627
 74
628
 0
VERTEX
 8
CUBE_4
 10
0
 20
0
 30
0
 70
128
 71
158
 72
587
 73
627
 74
629
 0
VERTEX
 8
CUBE_4
 10
0
 20
0
 30
0
 70
128
 71
154
 72
626
 73
627
 74
587
 0
VERTEX
 8
CUBE_4
 10
0
 20
0
 30
0
 70
128
 71
159
 72
631
 73
630
 74
629
 0
VERTEX
 8
CUBE_4
 10
0
 20
0
 30
0
 70
128
 71
163
 72
632
 73
630
 74
631
 0
VERTEX
 8
CUBE_4
 10
0
 20
0
 30
0
 70
128
 71
162
 72
590
 73
630
 74
632
 0
VERTEX
 8
CUBE_4
 10
0
 20
0
 30
0
 70
128
 71
158
 72
629
 73
630
 74
590
 0
VERTEX
 8
CUBE_4
 10
0
 20
0
 30
0
 70
128
 71
163
 72
634
 73
633
 74
632
 0
VERTEX
 8
CUBE_4
 10
0
 20
0
 30
0
 70
128
 71
167
 72
635
 73
633
 74
634
 0
VERTEX
 8
CUBE_4
 10
0
 20
0
 30
0
 70
128
 71
166
 72
593
 73
633
 74
635
 0
VERTEX
 8
CUBE_4
 10
0
 20
0
 30
0
 70
128
 71
162
 72
632
 73
633
 74
593
 0
VERTEX
 8
CUBE_4
 10
0
 20
0
 30
0
 70
128
 71
167
 72
637
 73
636
 74
635
 0
VERTEX
 8
CUBE_4
 10
0
 20
0
 30
0
 70
128
 71
171
 72
638
 73
636
 74
637
 0
VERTEX
 8
CUBE_4
 10
0
 20
0
 30
0
 70
128
 71
170
 72
596
 73
636
 74
638
 0
VERTEX
 8
CUBE_4
 10
0
 20
0
 30
0
 70
128
 71
166
 72
635
 73
636
 74
596
 0
VERTEX
 8
CUBE_4
 10
0
 20
0
 30
0
 70
128
 71
171
 72
640
 73
639
 74
638
 0
VERTEX
 8
CUBE_4
 10
0
 20
0
 30
0
 70
128
 71
175
 72
641
 73
639
 74
640
 0
VERTEX
 8
CUBE_4
 10
0
 20
0
 30
0
 70
128
 71
174
 72
599
 73
639
 74
641
 0
VERTEX
 8
CUBE_4
 10
0
 20
0
 30
0
 70
128
 71
170
 72
638
 73
639
 74
599
 0
VERTEX
 8
CUBE_4
 10
0
 20
0
 30
0
 70
128
 71
175
 72
643
 73
642
 74
641
 0
VERTEX
 8
CUBE_4
 10
0
 20
0
 30
0
 70
128
 71
179
 72
644
 73
642
 74
643
 0
VERTEX
 8
CUBE_4
 10
0
 20
0
 30
0
 70
128
 71
178
 72
602
 73
642
 74
644
 0
VERTEX
 8
CUBE_4
 10
0
 20
0
 30
0
 70
128
 71
174
 72
641
 73
642
 74
602
 0
VERTEX
 8
CUBE_4
 10
0
 20
0
 30
0
 70
128
 71
179
 72
646
 73
645
 74
644
 0
VERTEX
 8
CUBE_4
 10
0
 20
0
 30
0
 70
128
 71
33
 72
249
 73
645
 74
646
 0
VERTEX
 8
CUBE_4
 10
0
 20
0
 30
0
 70
128
 71
35
 72
605
 73
645
 74
249
 0
VERTEX
 8
CUBE_4
 10
0
 20
0
 30
0
 70
128
 71
178
 72
644
 73
645
 74
605
 0
VERTEX
 8
CUBE_4
 10
0
 20
0
 30
0
 70
128
 71
75
 72
648
 73
647
 74
329
 0
VERTEX
 8
CUBE_4
 10
0
 20
0
 30
0
 70
128
 71
132
 72
649
 73
647
 74
648
 0
VERTEX
 8
CUBE_4
 10
0
 20
0
 30
0
 70
128
 71
131
 72
607
 73
647
 74
649
 0
VERTEX
 8
CUBE_4
 10
0
 20
0
 30
0
 70
128
 71
73
 72
329
 73
647
 74
607
 0
VERTEX
 8
CUBE_4
 10
0
 20
0
 30
0
 70
128
 71
132
 72
651
 73
650
 74
649
 0
VERTEX
 8
CUBE_4
 10
0
 20
0
 30
0
 70
128
 71
136
 72
652
 73
650
 74
651
 0
VERTEX
 8
CUBE_4
 10
0
 20
0
 30
0
 70
128
 71
135
 72
610
 73
650
 74
652
 0
VERTEX
 8
CUBE_4
 10
0
 20
0
 30
0
 70
128
 71
131
 72
649
 73
650
 74
610
 0
VERTEX
 8
CUBE_4
 10
0
 20
0
 30
0
 70
128
 71
136
 72
654
 73
653
 74
652
 0
VERTEX
 8
CUBE_4
 10
0
 20
0
 30
0
 70
128
 71
140
 72
655
 73
653
 74
654
 0
VERTEX
 8
CUBE_4
 10
0
 20
0
 30
0
 70
128
 71
139
 72
613
 73
653
 74
655
 0
VERTEX
 8
CUBE_4
 10
0
 20
0
 30
0
 70
128
 71
135
 72
652
 73
653
 74
613
 0
VERTEX
 8
CUBE_4
 10
0
 20
0
 30
0
 70
128
 71
140
 72
657
 73
656
 74
655
 0
VERTEX
 8
CUBE_4
 10
0
 20
0
 30
0
 70
128
 71
144
 72
658
 73
656
 74
657
 0
VERTEX
 8
CUBE_4
 10
0
 20
0
 30
0
 70
128
 71
143
 72
616
 73
656
 74
658
 0
VERTEX
 8
CUBE_4
 10
0
 20
0
 30
0
 70
128
 71
139
 72
655
 73
656
 74
616
 0
VERTEX
 8
CUBE_4
 10
0
 20
0
 30
0
 70
128
 71
144
 72
660
 73
659
 74
658
 0
VERTEX
 8
CUBE_4
 10
0
 20
0
 30
0
 70
128
 71
148
 72
661
 73
659
 74
660
 0
VERTEX
 8
CUBE_4
 10
0
 20
0
 30
0
 70
128
 71
147
 72
619
 73
659
 74
661
 0
VERTEX
 8
CUBE_4
 10
0
 20
0
 30
0
 70
128
 71
143
 72
658
 73
659
 74
619
 0
VERTEX
 8
CUBE_4
 10
0
 20
0
 30
0
 70
128
 71
148
 72
663
 73
662
 74
661
 0
VERTEX
 8
CUBE_4
 10
0
 20
0
 30
0
 70
128
 71
152
 72
664
 73
662
 74
663
 0
VERTEX
 8
CUBE_4
 10
0
 20
0
 30
0
 70
128
 71
151
 72
622
 73
662
 74
664
 0
VERTEX
 8
CUBE_4
 10
0
 20
0
 30
0
 70
128
 71
147
 72
661
 73
662
 74
622
 0
VERTEX
 8
CUBE_4
 10
0
 20
0
 30
0
 70
128
 71
152
 72
666
 73
665
 74
664
 0
VERTEX
 8
CUBE_4
 10
0
 20
0
 30
0
 70
128
 71
156
 72
667
 73
665
 74
666
 0
VERTEX
 8
CUBE_4
 10
0
 20
0
 30
0
 70
128
 71
155
 72
625
 73
665
 74
667
 0
VERTEX
 8
CUBE_4
 10
0
 20
0
 30
0
 70
128
 71
151
 72
664
 73
665
 74
625
 0
VERTEX
 8
CUBE_4
 10
0
 20
0
 30
0
 70
128
 71
156
 72
669
 73
668
 74
667
 0
VERTEX
 8
CUBE_4
 10
0
 20
0
 30
0
 70
128
 71
160
 72
670
 73
668
 74
669
 0
VERTEX
 8
CUBE_4
 10
0
 20
0
 30
0
 70
128
 71
159
 72
628
 73
668
 74
670
 0
VERTEX
 8
CUBE_4
 10
0
 20
0
 30
0
 70
128
 71
155
 72
667
 73
668
 74
628
 0
VERTEX
 8
CUBE_4
 10
0
 20
0
 30
0
 70
128
 71
160
 72
672
 73
671
 74
670
 0
VERTEX
 8
CUBE_4
 10
0
 20
0
 30
0
 70
128
 71
164
 72
673
 73
671
 74
672
 0
VERTEX
 8
CUBE_4
 10
0
 20
0
 30
0
 70
128
 71
163
 72
631
 73
671
 74
673
 0
VERTEX
 8
CUBE_4
 10
0
 20
0
 30
0
 70
128
 71
159
 72
670
 73
671
 74
631
 0
VERTEX
 8
CUBE_4
 10
0
 20
0
 30
0
 70
128
 71
164
 72
675
 73
674
 74
673
 0
VERTEX
 8
CUBE_4
 10
0
 20
0
 30
0
 70
128
 71
168
 72
676
 73
674
 74
675
 0
VERTEX
 8
CUBE_4
 10
0
 20
0
 30
0
 70
128
 71
167
 72
634
 73
674
 74
676
 0
VERTEX
 8
CUBE_4
 10
0
 20
0
 30
0
 70
128
 71
163
 72
673
 73
674
 74
634
 0
VERTEX
 8
CUBE_4
 10
0
 20
0
 30
0
 70
128
 71
168
 72
678
 73
677
 74
676
 0
VERTEX
 8
CUBE_4
 10
0
 20
0
 30
0
 70
128
 71
172
 72
679
 73
677
 74
678
 0
VERTEX
 8
CUBE_4
 10
0
 20
0
 30
0
 70
128
 71
171
 72
637
 73
677
 74
679
 0
VERTEX
 8
CUBE_4
 10
0
 20
0
 30
0
 70
128
 71
167
 72
676
 73
677
 74
637
 0
VERTEX
 8
CUBE_4
 10
0
 20
0
 30
0
 70
128
 71
172
 72
681
 73
680
 74
679
 0
VERTEX
 8
CUBE_4
 10
0
 20
0
 30
0
 70
128
 71
176
 72
682
 73
680
 74
681
 0
VERTEX
 8
CUBE_4
 10
0
 20
0
 30
0
 70
128
 71
175
 72
640
 73
680
 74
682
 0
VERTEX
 8
CUBE_4
 10
0
 20
0
 30
0
 70
128
 71
171
 72
679
 73
680
 74
640
 0
VERTEX
 8
CUBE_4
 10
0
 20
0
 30
0
 70
128
 71
176
 72
684
 73
683
 74
682
 0
VERTEX
 8
CUBE_4
 10
0
 20
0
 30
0
 70
128
 71
180
 72
685
 73
683
 74
684
 0
VERTEX
 8
CUBE_4
 10
0
 20
0
 30
0
 70
128
 71
179
 72
643
 73
683
 74
685
 0
VERTEX
 8
CUBE_4
 10
0
 20
0
 30
0
 70
128
 71
175
 72
682
 73
683
 74
643
 0
VERTEX
 8
CUBE_4
 10
0
 20
0
 30
0
 70
128
 71
180
 72
687
 73
686
 74
685
 0
VERTEX
 8
CUBE_4
 10
0
 20
0
 30
0
 70
128
 71
31
 72
245
 73
686
 74
687
 0
VERTEX
 8
CUBE_4
 10
0
 20
0
 30
0
 70
128
 71
33
 72
646
 73
686
 74
245
 0
VERTEX
 8
CUBE_4
 10
0
 20
0
 30
0
 70
128
 71
179
 72
685
 73
686
 74
646
 0
VERTEX
 8
CUBE_4
 10
0
 20
0
 30
0
 70
128
 71
1
 72
185
 73
688
 74
332
 0
VERTEX
 8
CUBE_4
 10
0
 20
0
 30
0
 70
128
 71
3
 72
689
 73
688
 74
185
 0
VERTEX
 8
CUBE_4
 10
0
 20
0
 30
0
 70
128
 71
132
 72
648
 73
688
 74
689
 0
VERTEX
 8
CUBE_4
 10
0
 20
0
 30
0
 70
128
 71
75
 72
332
 73
688
 74
648
 0
VERTEX
 8
CUBE_4
 10
0
 20
0
 30
0
 70
128
 71
3
 72
189
 73
690
 74
689
 0
VERTEX
 8
CUBE_4
 10
0
 20
0
 30
0
 70
128
 71
5
 72
691
 73
690
 74
189
 0
VERTEX
 8
CUBE_4
 10
0
 20
0
 30
0
 70
128
 71
136
 72
651
 73
690
 74
691
 0
VERTEX
 8
CUBE_4
 10
0
 20
0
 30
0
 70
128
 71
132
 72
689
 73
690
 74
651
 0
VERTEX
 8
CUBE_4
 10
0
 20
0
 30
0
 70
128
 71
5
 72
193
 73
692
 74
691
 0
VERTEX
 8
CUBE_4
 10
0
 20
0
 30
0
 70
128
 71
7
 72
693
 73
692
 74
193
 0
VERTEX
 8
CUBE_4
 10
0
 20
0
 30
0
 70
128
 71
140
 72
654
 73
692
 74
693
 0
VERTEX
 8
CUBE_4
 10
0
 20
0
 30
0
 70
128
 71
136
 72
691
 73
692
 74
654
 0
VERTEX
 8
CUBE_4
 10
0
 20
0
 30
0
 70
128
 71
7
 72
197
 73
694
 74
693
 0
VERTEX
 8
CUBE_4
 10
0
 20
0
 30
0
 70
128
 71
9
 72
695
 73
694
 74
197
 0
VERTEX
 8
CUBE_4
 10
0
 20
0
 30
0
 70
128
 71
144
 72
657
 73
694
 74
695
 0
VERTEX
 8
CUBE_4
 10
0
 20
0
 30
0
 70
128
 71
140
 72
693
 73
694
 74
657
 0
VERTEX
 8
CUBE_4
 10
0
 20
0
 30
0
 70
128
 71
9
 72
201
 73
696
 74
695
 0
VERTEX
 8
CUBE_4
 10
0
 20
0
 30
0
 70
128
 71
11
 72
697
 73
696
 74
201
 0
VERTEX
 8
CUBE_4
 10
0
 20
0
 30
0
 70
128
 71
148
 72
660
 73
696
 74
697
 0
VERTEX
 8
CUBE_4
 10
0
 20
0
 30
0
 70
128
 71
144
 72
695
 73
696
 74
660
 0
VERTEX
 8
CUBE_4
 10
0
 20
0
 30
0
 70
128
 71
11
 72
205
 73
698
 74
697
 0
VERTEX
 8
CUBE_4
 10
0
 20
0
 30
0
 70
128
 71
13
 72
699
 73
698
 74
205
 0
VERTEX
 8
CUBE_4
 10
0
 20
0
 30
0
 70
128
 71
152
 72
663
 73
698
 74
699
 0
VERTEX
 8
CUBE_4
 10
0
 20
0
 30
0
 70
128
 71
148
 72
697
 73
698
 74
663
 0
VERTEX
 8
CUBE_4
 10
0
 20
0
 30
0
 70
128
 71
13
 72
209
 73
700
 74
699
 0
VERTEX
 8
CUBE_4
 10
0
 20
0
 30
0
 70
128
 71
15
 72
701
 73
700
 74
209
 0
VERTEX
 8
CUBE_4
 10
0
 20
0
 30
0
 70
128
 71
156
 72
666
 73
700
 74
701
 0
VERTEX
 8
CUBE_4
 10
0
 20
0
 30
0
 70
128
 71
152
 72
699
 73
700
 74
666
 0
VERTEX
 8
CUBE_4
 10
0
 20
0
 30
0
 70
128
 71
15
 72
213
 73
702
 74
701
 0
VERTEX
 8
CUBE_4
 10
0
 20
0
 30
0
 70
128
 71
17
 72
703
 73
702
 74
213
 0
VERTEX
 8
CUBE_4
 10
0
 20
0
 30
0
 70
128
 71
160
 72
669
 73
702
 74
703
 0
VERTEX
 8
CUBE_4
 10
0
 20
0
 30
0
 70
128
 71
156
 72
701
 73
702
 74
669
 0
VERTEX
 8
CUBE_4
 10
0
 20
0
 30
0
 70
128
 71
17
 72
217
 73
704
 74
703
 0
VERTEX
 8
CUBE_4
 10
0
 20
0
 30
0
 70
128
 71
19
 72
705
 73
704
 74
217
 0
VERTEX
 8
CUBE_4
 10
0
 20
0
 30
0
 70
128
 71
164
 72
672
 73
704
 74
705
 0
VERTEX
 8
CUBE_4
 10
0
 20
0
 30
0
 70
128
 71
160
 72
703
 73
704
 74
672
 0
VERTEX
 8
CUBE_4
 10
0
 20
0
 30
0
 70
128
 71
19
 72
221
 73
706
 74
705
 0
VERTEX
 8
CUBE_4
 10
0
 20
0
 30
0
 70
128
 71
21
 72
707
 73
706
 74
221
 0
VERTEX
 8
CUBE_4
 10
0
 20
0
 30
0
 70
128
 71
168
 72
675
 73
706
 74
707
 0
VERTEX
 8
CUBE_4
 10
0
 20
0
 30
0
 70
128
 71
164
 72
705
 73
706
 74
675
 0
VERTEX
 8
CUBE_4
 10
0
 20
0
 30
0
 70
128
 71
21
 72
225
 73
708
 74
707
 0
VERTEX
 8
CUBE_4
 10
0
 20
0
 30
0
 70
128
 71
23
 72
709
 73
708
 74
225
 0
VERTEX
 8
CUBE_4
 10
0
 20
0
 30
0
 70
128
 71
172
 72
678
 73
708
 74
709
 0
VERTEX
 8
CUBE_4
 10
0
 20
0
 30
0
 70
128
 71
168
 72
707
 73
708
 74
678
 0
VERTEX
 8
CUBE_4
 10
0
 20
0
 30
0
 70
128
 71
23
 72
229
 73
710
 74
709
 0
VERTEX
 8
CUBE_4
 10
0
 20
0
 30
0
 70
128
 71
25
 72
711
 73
710
 74
229
 0
VERTEX
 8
CUBE_4
 10
0
 20
0
 30
0
 70
128
 71
176
 72
681
 73
710
 74
711
 0
VERTEX
 8
CUBE_4
 10
0
 20
0
 30
0
 70
128
 71
172
 72
709
 73
710
 74
681
 0
VERTEX
 8
CUBE_4
 10
0
 20
0
 30
0
 70
128
 71
25
 72
233
 73
712
 74
711
 0
VERTEX
 8
CUBE_4
 10
0
 20
0
 30
0
 70
128
 71
27
 72
713
 73
712
 74
233
 0
VERTEX
 8
CUBE_4
 10
0
 20
0
 30
0
 70
128
 71
180
 72
684
 73
712
 74
713
 0
VERTEX
 8
CUBE_4
 10
0
 20
0
 30
0
 70
128
 71
176
 72
711
 73
712
 74
684
 0
VERTEX
 8
CUBE_4
 10
0
 20
0
 30
0
 70
128
 71
27
 72
237
 73
714
 74
713
 0
VERTEX
 8
CUBE_4
 10
0
 20
0
 30
0
 70
128
 71
29
 72
241
 73
714
 74
237
 0
VERTEX
 8
CUBE_4
 10
0
 20
0
 30
0
 70
128
 71
31
 72
687
 73
714
 74
241
 0
VERTEX
 8
CUBE_4
 10
0
 20
0
 30
0
 70
128
 71
180
 72
713
 73
714
 74
687
 0
SEQEND
 0
POLYLINE
 8
EXTRUDE
 66
1
 10
0.0
 20
0.0
 30
0.0
 70
64
 71
22
 72
10
 0
VERTEX
 8
EXTRUDE
 10
-0.0334
 20
0.0276
 30
0
 70
192
 0
VERTEX
 8
EXTRUDE
 10
2.8656
 20
0.04
 30
0
 70
192
 0
VERTEX
 8
EXTRUDE
 10
2.8679
 20
-0.9199
 30
0
 70
192
 0
VERTEX
 8
EXTRUDE
 10
2.5711
 20
-0.9199
 30
0
 70
192
 0
VERTEX
 8
EXTRUDE
 10
2.5711
 20
-0.2156
 30
0
 70
192
 0
VERTEX
 8
EXTRUDE
 10
0.2515
 20
-0.2213
 30
0
 70
192
 0
VERTEX
 8
EXTRUDE
 10
0.2515
 20
-0.9199
 30
0
 70
192
 0
VERTEX
 8
EXTRUDE
 10
-0.0232
 20
-0.9199
 30
0
 70
192
 0
VERTEX
 8
EXTRUDE
 10
-0.0331
 20
-0.897
 30
0
 70
192
 0
VERTEX
 8
EXTRUDE
 10
-0.0343
 20
-0.8878
 30
0
 70
192
 0
VERTEX
 8
EXTRUDE
 10
-0.0364
 20
-0.8947
 30
0
 70
192
 0
VERTEX
 8
EXTRUDE
 10
-0.0334
 20
0.0276
 30
-0.68
 70
192
 0
VERTEX
 8
EXTRUDE
 10
2.8656
 20
0.04
 30
-0.68
 70
192
 0
VERTEX
 8
EXTRUDE
 10
2.8679
 20
-0.9199
 30
-0.68
 70
192
 0
VERTEX
 8
EXTRUDE
 10
2.5711
 20
-0.9199
 30
-0.68
 70
192
 0
VERTEX
 8
EXTRUDE
 10
2.5711
 20
-0.2156
 30
-0.68
 70
192
 0
VERTEX
 8
EXTRUDE
 10
0.2515
 20
-0.2213
 30
-0.68
 70
192
 0
VERTEX
 8
EXTRUDE
 10
0.2515
 20
-0.9199
 30
-0.68
 70
192
 0
VERTEX
 8
EXTRUDE
 10
-0.0232
 20
-0.9199
 30
-0.68
 70
192
 0
VERTEX
 8
EXTRUDE
 10
-0.0331
 20
-0.897
 30
-0.68
 70
192
 0
VERTEX
 8
EXTRUDE
 10
-0.0343
 20
-0.8878
 30
-0.68
 70
192
 0
VERTEX
 8
EXTRUDE
 10
-0.0364
 20
-0.8947
 30
-0.68
 70
192
 0
VERTEX
 8
EXTRUDE
 10
0
 20
0
 30
0
 70
128
 71
1
 72
12
 73
13
 74
2
 0
VERTEX
 8
EXTRUDE
 10
0
 20
0
 30
0
 70
128
 71
2
 72
13
 73
14
 74
3
 0
VERTEX
 8
EXTRUDE
 10
0
 20
0
 30
0
 70
128
 71
3
 72
14
 73
15
 74
4
 0
VERTEX
 8
EXTRUDE
 10
0
 20
0
 30
0
 70
128
 71
4
 72
15
 73
16
 74
5
 0
VERTEX
 8
EXTRUDE
 10
0
 20
0
 30
0
 70
128
 71
5
 72
16
 73
17
 74
6
 0
VERTEX
 8
EXTRUDE
 10
0
 20
0
 30
0
 70
128
 71
6
 72
17
 73
18
 74
7
 0
VERTEX
 8
EXTRUDE
 10
0
 20
0
 30
0
 70
128
 71
7
 72
18
 73
19
 74
8
 0
VERTEX
 8
EXTRUDE
 10
0
 20
0
 30
0
 70
128
 71
8
 72
19
 73
20
 74
9
 0
VERTEX
 8
EXTRUDE
 10
0
 20
0
 30
0
 70
128
 71
9
 72
20
 73
21
 74
10
 0
VERTEX
 8
EXTRUDE
 10
0
 20
0
 30
0
 70
128
 71
11
 72
22
 73
12
 74
1
 0
SEQEND
 0
POLYLINE
 8
ROUNDING_1
 66
1
 10
0.0
 20
0.0
 30
0.0
 70
64
 71
121
 72
110
 0
VERTEX
 8
ROUNDING_1
 10
-0.0334
 20
0.0276
 30
0
 70
192
 0
VERTEX
 8
ROUNDING_1
 10
2.8656
 20
0.04
 30
0
 70
192
 0
VERTEX
 8
ROUNDING_1
 10
2.8679
 20
-0.9199
 30
0
 70
192
 0
VERTEX
 8
ROUNDING_1
 10
2.5711
 20
-0.9199
 30
0
 70
192
 0
VERTEX
 8
ROUNDING_1
 10
2.5711
 20
-0.2156
 30
0
 70
192
 0
VERTEX
 8
ROUNDING_1
 10
0.2515
 20
-0.2213
 30
0
 70
192
 0
VERTEX
 8
ROUNDING_1
 10
0.2515
 20
-0.9199
 30
0
 70
192
 0
VERTEX
 8
ROUNDING_1
 10
-0.0232
 20
-0.9199
 30
0
 70
192
 0
VERTEX
 8
ROUNDING_1
 10
-0.0331
 20
-0.897
 30
0
 70
192
 0
VERTEX
 8
ROUNDING_1
 10
-0.0343
 20
-0.8878
 30
0
 70
192
 0
VERTEX
 8
ROUNDING_1
 10
-0.0364
 20
-0.4194
 30
0
 70
192
 0
VERTEX
 8
ROUNDING_1
 10
-0.033
 20
0.0272
 30
0.0047
 70
192
 0
VERTEX
 8
ROUNDING_1
 10
2.8652
 20
0.0396
 30
0.0047
 70
192
 0
VERTEX
 8
ROUNDING_1
 10
2.8675
 20
-0.9195
 30
0.0047
 70
192
 0
VERTEX
 8
ROUNDING_1
 10
2.5714
 20
-0.9195
 30
0.0047
 70
192
 0
VERTEX
 8
ROUNDING_1
 10
2.5714
 20
-0.2152
 30
0.0047
 70
192
 0
VERTEX
 8
ROUNDING_1
 10
0.2511
 20
-0.221
 30
0.0047
 70
192
 0
VERTEX
 8
ROUNDING_1
 10
0.2511
 20
-0.9195
 30
0.0047
 70
192
 0
VERTEX
 8
ROUNDING_1
 10
-0.0229
 20
-0.9195
 30
0.0047
 70
192
 0
VERTEX
 8
ROUNDING_1
 10
-0.0327
 20
-0.8969
 30
0.0047
 70
192
 0
VERTEX
 8
ROUNDING_1
 10
-0.034
 20
-0.8878
 30
0.0047
 70
192
 0
VERTEX
 8
ROUNDING_1
 10
-0.036
 20
-0.4194
 30
0.0047
 70
192
 0
VERTEX
 8
ROUNDING_1
 10
-0.0319
 20
0.0261
 30
0.0093
 70
192
 0
VERTEX
 8
ROUNDING_1
 10
2.8641
 20
0.0385
 30
0.0093
 70
192
 0
VERTEX
 8
ROUNDING_1
 10
2.8664
 20
-0.9184
 30
0.0093
 70
192
 0
VERTEX
 8
ROUNDING_1
 10
2.5725
 20
-0.9184
 30
0.0093
 70
192
 0
VERTEX
 8
ROUNDING_1
 10
2.5725
 20
-0.2141
 30
0.0093
 70
192
 0
VERTEX
 8
ROUNDING_1
 10
0.25
 20
-0.2199
 30
0.0093
 70
192
 0
VERTEX
 8
ROUNDING_1
 10
0.25
 20
-0.9184
 30
0.0093
 70
192
 0
VERTEX
 8
ROUNDING_1
 10
-0.0222
 20
-0.9184
 30
0.0093
 70
192
 0
VERTEX
 8
ROUNDING_1
 10
-0.0317
 20
-0.8966
 30
0.0093
 70
192
 0
VERTEX
 8
ROUNDING_1
 10
-0.0329
 20
-0.8877
 30
0.0093
 70
192
 0
VERTEX
 8
ROUNDING_1
 10
-0.0349
 20
-0.4194
 30
0.0093
 70
192
 0
VERTEX
 8
ROUNDING_1
 10
-0.0301
 20
0.0243
 30
0.0136
 70
192
 0
VERTEX
 8
ROUNDING_1
 10
2.8623
 20
0.0367
 30
0.0136
 70
192
 0
VERTEX
 8
ROUNDING_1
 10
2.8646
 20
-0.9166
 30
0.0136
 70
192
 0
VERTEX
 8
ROUNDING_1
 10
2.5743
 20
-0.9166
 30
0.0136
 70
192
 0
VERTEX
 8
ROUNDING_1
 10
2.5743
 20
-0.2123
 30
0.0136
 70
192
 0
VERTEX
 8
ROUNDING_1
 10
0.2482
 20
-0.2181
 30
0.0136
 70
192
 0
VERTEX
 8
ROUNDING_1
 10
0.2482
 20
-0.9166
 30
0.0136
 70
192
 0
VERTEX
 8
ROUNDING_1
 10
-0.021
 20
-0.9166
 30
0.0136
 70
192
 0
VERTEX
 8
ROUNDING_1
 10
-0.0299
 20
-0.8961
 30
0.0136
 70
192
 0
VERTEX
 8
ROUNDING_1
 10
-0.0311
 20
-0.8876
 30
0.0136
 70
192
 0
VERTEX
 8
ROUNDING_1
 10
-0.0331
 20
-0.4194
 30
0.0136
 70
192
 0
VERTEX
 8
ROUNDING_1
 10
-0.0277
 20
0.0219
 30
0.0176
 70
192
 0
VERTEX
 8
ROUNDING_1
 10
2.8598
 20
0.0342
 30
0.0176
 70
192
 0
VERTEX
 8
ROUNDING_1
 10
2.8622
 20
-0.9142
 30
0.0176
 70
192
 0
VERTEX
 8
ROUNDING_1
 10
2.5768
 20
-0.9142
 30
0.0176
 70
192
 0
VERTEX
 8
ROUNDING_1
 10
2.5768
 20
-0.2098
 30
0.0176
 70
192
 0
VERTEX
 8
ROUNDING_1
 10
0.2457
 20
-0.2156
 30
0.0176
 70
192
 0
VERTEX
 8
ROUNDING_1
 10
0.2457
 20
-0.9142
 30
0.0176
 70
192
 0
VERTEX
 8
ROUNDING_1
 10
-0.0194
 20
-0.9142
 30
0.0176
 70
192
 0
VERTEX
 8
ROUNDING_1
 10
-0.0275
 20
-0.8954
 30
0.0176
 70
192
 0
VERTEX
 8
ROUNDING_1
 10
-0.0286
 20
-0.8874
 30
0.0176
 70
192
 0
VERTEX
 8
ROUNDING_1
 10
-0.0306
 20
-0.4195
 30
0.0176
 70
192
 0
VERTEX
 8
ROUNDING_1
 10
-0.0247
 20
0.0188
 30
0.0212
 70
192
 0
VERTEX
 8
ROUNDING_1
 10
2.8568
 20
0.0312
 30
0.0212
 70
192
 0
VERTEX
 8
ROUNDING_1
 10
2.8591
 20
-0.9111
 30
0.0212
 70
192
 0
VERTEX
 8
ROUNDING_1
 10
2.5798
 20
-0.9111
 30
0.0212
 70
192
 0
VERTEX
 8
ROUNDING_1
 10
2.5798
 20
-0.2068
 30
0.0212
 70
192
 0
VERTEX
 8
ROUNDING_1
 10
0.2427
 20
-0.2126
 30
0.0212
 70
192
 0
VERTEX
 8
ROUNDING_1
 10
0.2427
 20
-0.9111
 30
0.0212
 70
192
 0
VERTEX
 8
ROUNDING_1
 10
-0.0174
 20
-0.9111
 30
0.0212
 70
192
 0
VERTEX
 8
ROUNDING_1
 10
-0.0245
 20
-0.8946
 30
0.0212
 70
192
 0
VERTEX
 8
ROUNDING_1
 10
-0.0255
 20
-0.8872
 30
0.0212
 70
192
 0
VERTEX
 8
ROUNDING_1
 10
-0.0276
 20
-0.4195
 30
0.0212
 70
192
 0
VERTEX
 8
ROUNDING_1
 10
-0.0211
 20
0.0153
 30
0.0243
 70
192
 0
VERTEX
 8
ROUNDING_1
 10
2.8532
 20
0.0276
 30
0.0243
 70
192
 0
VERTEX
 8
ROUNDING_1
 10
2.8555
 20
-0.9075
 30
0.0243
 70
192
 0
VERTEX
 8
ROUNDING_1
 10
2.5834
 20
-0.9075
 30
0.0243
 70
192
 0
VERTEX
 8
ROUNDING_1
 10
2.5834
 20
-0.2032
 30
0.0243
 70
192
 0
VERTEX
 8
ROUNDING_1
 10
0.2391
 20
-0.209
 30
0.0243
 70
192
 0
VERTEX
 8
ROUNDING_1
 10
0.2391
 20
-0.9075
 30
0.0243
 70
192
 0
VERTEX
 8
ROUNDING_1
 10
-0.015
 20
-0.9075
 30
0.0243
 70
192
 0
VERTEX
 8
ROUNDING_1
 10
-0.0211
 20
-0.8936
 30
0.0243
 70
192
 0
VERTEX
 8
ROUNDING_1
 10
-0.022
 20
-0.887
 30
0.0243
 70
192
 0
VERTEX
 8
ROUNDING_1
 10
-0.024
 20
-0.4195
 30
0.0243
 70
192
 0
VERTEX
 8
ROUNDING_1
 10
-0.0171
 20
0.0113
 30
0.0267
 70
192
 0
VERTEX
 8
ROUNDING_1
 10
2.8492
 20
0.0235
 30
0.0267
 70
192
 0
VERTEX
 8
ROUNDING_1
 10
2.8515
 20
-0.9035
 30
0.0267
 70
192
 0
VERTEX
 8
ROUNDING_1
 10
2.5874
 20
-0.9035
 30
0.0267
 70
192
 0
VERTEX
 8
ROUNDING_1
 10
2.5874
 20
-0.1991
 30
0.0267
 70
192
 0
VERTEX
 8
ROUNDING_1
 10
0.2351
 20
-0.205
 30
0.0267
 70
192
 0
VERTEX
 8
ROUNDING_1
 10
0.2351
 20
-0.9035
 30
0.0267
 70
192
 0
VERTEX
 8
ROUNDING_1
 10
-0.0124
 20
-0.9035
 30
0.0267
 70
192
 0
VERTEX
 8
ROUNDING_1
 10
-0.0172
 20
-0.8925
 30
0.0267
 70
192
 0
VERTEX
 8
ROUNDING_1
 10
-0.018
 20
-0.8867
 30
0.0267
 70
192
 0
VERTEX
 8
ROUNDING_1
 10
-0.02
 20
-0.4195
 30
0.0267
 70
192
 0
VERTEX
 8
ROUNDING_1
 10
-0.0128
 20
0.0069
 30
0.0285
 70
192
 0
VERTEX
 8
ROUNDING_1
 10
2.8449
 20
0.0192
 30
0.0285
 70
192
 0
VERTEX
 8
ROUNDING_1
 10
2.8471
 20
-0.8992
 30
0.0285
 70
192
 0
VERTEX
 8
ROUNDING_1
 10
2.5918
 20
-0.8992
 30
0.0285
 70
192
 0
VERTEX
 8
ROUNDING_1
 10
2.5918
 20
-0.1948
 30
0.0285
 70
192
 0
VERTEX
 8
ROUNDING_1
 10
0.2307
 20
-0.2007
 30
0.0285
 70
192
 0
VERTEX
 8
ROUNDING_1
 10
0.2307
 20
-0.8992
 30
0.0285
 70
192
 0
VERTEX
 8
ROUNDING_1
 10
-0.0096
 20
-0.8992
 30
0.0285
 70
192
 0
VERTEX
 8
ROUNDING_1
 10
-0.0129
 20
-0.8914
 30
0.0285
 70
192
 0
VERTEX
 8
ROUNDING_1
 10
-0.0136
 20
-0.8864
 30
0.0285
 70
192
 0
VERTEX
 8
ROUNDING_1
 10
-0.0156
 20
-0.4195
 30
0.0285
 70
192
 0
VERTEX
 8
ROUNDING_1
 10
-0.0083
 20
0.0024
 30
0.0296
 70
192
 0
VERTEX
 8
ROUNDING_1
 10
2.8403
 20
0.0146
 30
0.0296
 70
192
 0
VERTEX
 8
ROUNDING_1
 10
2.8425
 20
-0.8946
 30
0.0296
 70
192
 0
VERTEX
 8
ROUNDING_1
 10
2.5964
 20
-0.8946
 30
0.0296
 70
192
 0
VERTEX
 8
ROUNDING_1
 10
2.5964
 20
-0.1902
 30
0.0296
 70
192
 0
VERTEX
 8
ROUNDING_1
 10
0.2262
 20
-0.1961
 30
0.0296
 70
192
 0
VERTEX
 8
ROUNDING_1
 10
0.2262
 20
-0.8946
 30
0.0296
 70
192
 0
VERTEX
 8
ROUNDING_1
 10
-0.0065
 20
-0.8946
 30
0.0296
 70
192
 0
VERTEX
 8
ROUNDING_1
 10
-0.0085
 20
-0.8901
 30
0.0296
 70
192
 0
VERTEX
 8
ROUNDING_1
 10
-0.009
 20
-0.8861
 30
0.0296
 70
192
 0
VERTEX
 8
ROUNDING_1
 10
-0.0111
 20
-0.4195
 30
0.0296
 70
192
 0
VERTEX
 8
ROUNDING_1
 10
-0.0036
 20
-0.0023
 30
0.03
 70
192
 0
VERTEX
 8
ROUNDING_1
 10
2.8356
 20
0.0099
 30
0.03
 70
192
 0
VERTEX
 8
ROUNDING_1
 10
2.8378
 20
-0.8899
 30
0.03
 70
192
 0
VERTEX
 8
ROUNDING_1
 10
2.6011
 20
-0.8899
 30
0.03
 70
192
 0
VERTEX
 8
ROUNDING_1
 10
2.6011
 20
-0.1855
 30
0.03
 70
192
 0
VERTEX
 8
ROUNDING_1
 10
0.2215
 20
-0.1914
 30
0.03
 70
192
 0
VERTEX
 8
ROUNDING_1
 10
0.2215
 20
-0.8899
 30
0.03
 70
192
 0
VERTEX
 8
ROUNDING_1
 10
-0.0035
 20
-0.8899
 30
0.03
 70
192
 0
VERTEX
 8
ROUNDING_1
 10
-0.0039
 20
-0.8888
 30
0.03
 70
192
 0
VERTEX
 8
ROUNDING_1
 10
-0.0043
 20
-0.8857
 30
0.03
 70
192
 0
VERTEX
 8
ROUNDING_1
 10
-0.0064
 20
-0.4195
 30
0.03
 70
192
 0
VERTEX
 8
ROUNDING_1
 10
0
 20
0
 30
0
 70
128
 71
1
 72
2
 73
13
 74
12
 0
VERTEX
 8
ROUNDING_1
 10
0
 20
0
 30
0
 70
128
 71
2
 72
3
 73
14
 74
13
 0
VERTEX
 8
ROUNDING_1
 10
0
 20
0
 30
0
 70
128
 71
3
 72
4
 73
15
 74
14
 0
VERTEX
 8
ROUNDING_1
 10
0
 20
0
 30
0
 70
128
 71
4
 72
5
 73
16
 74
15
 0
VERTEX
 8
ROUNDING_1
 10
0
 20
0
 30
0
 70
128
 71
5
 72
6
 73
17
 74
16
 0
VERTEX
 8
ROUNDING_1
 10
0
 20
0
 30
0
 70
128
 71
6
 72
7
 73
18
 74
17
 0
VERTEX
 8
ROUNDING_1
 10
0
 20
0
 30
0
 70
128
 71
7
 72
8
 73
19
 74
18
 0
VERTEX
 8
ROUNDING_1
 10
0
 20
0
 30
0
 70
128
 71
8
 72
9
 73
20
 74
19
 0
VERTEX
 8
ROUNDING_1
 10
0
 20
0
 30
0
 70
128
 71
9
 72
10
 73
21
 74
20
 0
VERTEX
 8
ROUNDING_1
 10
0
 20
0
 30
0
 70
128
 71
10
 72
11
 73
22
 74
21
 0
VERTEX
 8
ROUNDING_1
 10
0
 20
0
 30
0
 70
128
 71
11
 72
1
 73
12
 74
22
 0
VERTEX
 8
ROUNDING_1
 10
0
 20
0
 30
0
 70
128
 71
12
 72
13
 73
24
 74
23
 0
VERTEX
 8
ROUNDING_1
 10
0
 20
0
 30
0
 70
128
 71
13
 72
14
 73
25
 74
24
 0
VERTEX
 8
ROUNDING_1
 10
0
 20
0
 30
0
 70
128
 71
14
 72
15
 73
26
 74
25
 0
VERTEX
 8
ROUNDING_1
 10
0
 20
0
 30
0
 70
128
 71
15
 72
16
 73
27
 74
26
 0
VERTEX
 8
ROUNDING_1
 10
0
 20
0
 30
0
 70
128
 71
16
 72
17
 73
28
 74
27
 0
VERTEX
 8
ROUNDING_1
 10
0
 20
0
 30
0
 70
128
 71
17
 72
18
 73
29
 74
28
 0
VERTEX
 8
ROUNDING_1
 10
0
 20
0
 30
0
 70
128
 71
18
 72
19
 73
30
 74
29
 0
VERTEX
 8
ROUNDING_1
 10
0
 20
0
 30
0
 70
128
 71
19
 72
20
 73
31
 74
30
 0
VERTEX
 8
ROUNDING_1
 10
0
 20
0
 30
0
 70
128
 71
20
 72
21
 73
32
 74
31
 0
VERTEX
 8
ROUNDING_1
 10
0
 20
0
 30
0
 70
128
 71
21
 72
22
 73
33
 74
32
 0
VERTEX
 8
ROUNDING_1
 10
0
 20
0
 30
0
 70
128
 71
22
 72
12
 73
23
 74
33
 0
VERTEX
 8
ROUNDING_1
 10
0
 20
0
 30
0
 70
128
 71
23
 72
24
 73
35
 74
34
 0
VERTEX
 8
ROUNDING_1
 10
0
 20
0
 30
0
 70
128
 71
24
 72
25
 73
36
 74
35
 0
VERTEX
 8
ROUNDING_1
 10
0
 20
0
 30
0
 70
128
 71
25
 72
26
 73
37
 74
36
 0
VERTEX
 8
ROUNDING_1
 10
0
 20
0
 30
0
 70
128
 71
26
 72
27
 73
38
 74
37
 0
VERTEX
 8
ROUNDING_1
 10
0
 20
0
 30
0
 70
128
 71
27
 72
28
 73
39
 74
38
 0
VERTEX
 8
ROUNDING_1
 10
0
 20
0
 30
0
 70
128
 71
28
 72
29
 73
40
 74
39
 0
VERTEX
 8
ROUNDING_1
 10
0
 20
0
 30
0
 70
128
 71
29
 72
30
 73
41
 74
40
 0
VERTEX
 8
ROUNDING_1
 10
0
 20
0
 30
0
 70
128
 71
30
 72
31
 73
42
 74
41
 0
VERTEX
 8
ROUNDING_1
 10
0
 20
0
 30
0
 70
128
 71
31
 72
32
 73
43
 74
42
 0
VERTEX
 8
ROUNDING_1
 10
0
 20
0
 30
0
 70
128
 71
32
 72
33
 73
44
 74
43
 0
VERTEX
 8
ROUNDING_1
 10
0
 20
0
 30
0
 70
128
 71
33
 72
23
 73
34
 74
44
 0
VERTEX
 8
ROUNDING_1
 10
0
 20
0
 30
0
 70
128
 71
34
 72
35
 73
46
 74
45
 0
VERTEX
 8
ROUNDING_1
 10
0
 20
0
 30
0
 70
128
 71
35
 72
36
 73
47
 74
46
 0
VERTEX
 8
ROUNDING_1
 10
0
 20
0
 30
0
 70
128
 71
36
 72
37
 73
48
 74
47
 0
VERTEX
 8
ROUNDING_1
 10
0
 20
0
 30
0
 70
128
 71
37
 72
38
 73
49
 74
48
 0
VERTEX
 8
ROUNDING_1
 10
0
 20
0
 30
0
 70
128
 71
38
 72
39
 73
50
 74
49
 0
VERTEX
 8
ROUNDING_1
 10
0
 20
0
 30
0
 70
128
 71
39
 72
40
 73
51
 74
50
 0
VERTEX
 8
ROUNDING_1
 10
0
 20
0
 30
0
 70
128
 71
40
 72
41
 73
52
 74
51
 0
VERTEX
 8
ROUNDING_1
 10
0
 20
0
 30
0
 70
128
 71
41
 72
42
 73
53
 74
52
 0
VERTEX
 8
ROUNDING_1
 10
0
 20
0
 30
0
 70
128
 71
42
 72
43
 73
54
 74
53
 0
VERTEX
 8
ROUNDING_1
 10
0
 20
0
 30
0
 70
128
 71
43
 72
44
 73
55
 74
54
 0
VERTEX
 8
ROUNDING_1
 10
0
 20
0
 30
0
 70
128
 71
44
 72
34
 73
45
 74
55
 0
VERTEX
 8
ROUNDING_1
 10
0
 20
0
 30
0
 70
128
 71
45
 72
46
 73
57
 74
56
 0
VERTEX
 8
ROUNDING_1
 10
0
 20
0
 30
0
 70
128
 71
46
 72
47
 73
58
 74
57
 0
VERTEX
 8
ROUNDING_1
 10
0
 20
0
 30
0
 70
128
 71
47
 72
48
 73
59
 74
58
 0
VERTEX
 8
ROUNDING_1
 10
0
 20
0
 30
0
 70
128
 71
48
 72
49
 73
60
 74
59
 0
VERTEX
 8
ROUNDING_1
 10
0
 20
0
 30
0
 70
128
 71
49
 72
50
 73
61
 74
60
 0
VERTEX
 8
ROUNDING_1
 10
0
 20
0
 30
0
 70
128
 71
50
 72
51
 73
62
 74
61
 0
VERTEX
 8
ROUNDING_1
 10
0
 20
0
 30
0
 70
128
 71
51
 72
52
 73
63
 74
62
 0
VERTEX
 8
ROUNDING_1
 10
0
 20
0
 30
0
 70
128
 71
52
 72
53
 73
64
 74
63
 0
VERTEX
 8
ROUNDING_1
 10
0
 20
0
 30
0
 70
128
 71
53
 72
54
 73
65
 74
64
 0
VERTEX
 8
ROUNDING_1
 10
0
 20
0
 30
0
 70
128
 71
54
 72
55
 73
66
 74
65
 0
VERTEX
 8
ROUNDING_1
 10
0
 20
0
 30
0
 70
128
 71
55
 72
45
 73
56
 74
66
 0
VERTEX
 8
ROUNDING_1
 10
0
 20
0
 30
0
 70
128
 71
56
 72
57
 73
68
 74
67
 0
VERTEX
 8
ROUNDING_1
 10
0
 20
0
 30
0
 70
128
 71
57
 72
58
 73
69
 74
68
 0
VERTEX
 8
ROUNDING_1
 10
0
 20
0
 30
0
 70
128
 71
58
 72
59
 73
70
 74
69
 0
VERTEX
 8
ROUNDING_1
 10
0
 20
0
 30
0
 70
128
 71
59
 72
60
 73
71
 74
70
 0
VERTEX
 8
ROUNDING_1
 10
0
 20
0
 30
0
 70
128
 71
60
 72
61
 73
72
 74
71
 0
VERTEX
 8
ROUNDING_1
 10
0
 20
0
 30
0
 70
128
 71
61
 72
62
 73
73
 74
72
 0
VERTEX
 8
ROUNDING_1
 10
0
 20
0
 30
0
 70
128
 71
62
 72
63
 73
74
 74
73
 0
VERTEX
 8
ROUNDING_1
 10
0
 20
0
 30
0
 70
128
 71
63
 72
64
 73
75
 74
74
 0
VERTEX
 8
ROUNDING_1
 10
0
 20
0
 30
0
 70
128
 71
64
 72
65
 73
76
 74
75
 0
VERTEX
 8
ROUNDING_1
 10
0
 20
0
 30
0
 70
128
 71
65
 72
66
 73
77
 74
76
 0
VERTEX
 8
ROUNDING_1
 10
0
 20
0
 30
0
 70
128
 71
66
 72
56
 73
67
 74
77
 0
VERTEX
 8
ROUNDING_1
 10
0
 20
0
 30
0
 70
128
 71
67
 72
68
 73
79
 74
78
 0
VERTEX
 8
ROUNDING_1
 10
0
 20
0
 30
0
 70
128
 71
68
 72
69
 73
80
 74
79
 0
VERTEX
 8
ROUNDING_1
 10
0
 20
0
 30
0
 70
128
 71
69
 72
70
 73
81
 74
80
 0
VERTEX
 8
ROUNDING_1
 10
0
 20
0
 30
0
 70
128
 71
70
 72
71
 73
82
 74
81
 0
VERTEX
 8
ROUNDING_1
 10
0
 20
0
 30
0
 70
128
 71
71
 72
72
 73
83
 74
82
 0
VERTEX
 8
ROUNDING_1
 10
0
 20
0
 30
0
 70
128
 71
72
 72
73
 73
84
 74
83
 0
VERTEX
 8
ROUNDING_1
 10
0
 20
0
 30
0
 70
128
 71
73
 72
74
 73
85
 74
84
 0
VERTEX
 8
ROUNDING_1
 10
0
 20
0
 30
0
 70
128
 71
74
 72
75
 73
86
 74
85
 0
VERTEX
 8
ROUNDING_1
 10
0
 20
0
 30
0
 70
128
 71
75
 72
76
 73
87
 74
86
 0
VERTEX
 8
ROUNDING_1
 10
0
 20
0
 30
0
 70
128
 71
76
 72
77
 73
88
 74
87
 0
VERTEX
 8
ROUNDING_1
 10
0
 20
0
 30
0
 70
128
 71
77
 72
67
 73
78
 74
88
 0
VERTEX
 8
ROUNDING_1
 10
0
 20
0
 30
0
 70
128
 71
78
 72
79
 73
90
 74
89
 0
VERTEX
 8
ROUNDING_1
 10
0
 20
0
 30
0
 70
128
 71
79
 72
80
 73
91
 74
90
 0
VERTEX
 8
ROUNDING_1
 10
0
 20
0
 30
0
 70
128
 71
80
 72
81
 73
92
 74
91
 0
VERTEX
 8
ROUNDING_1
 10
0
 20
0
 30
0
 70
128
 71
81
 72
82
 73
93
 74
92
 0
VERTEX
 8
ROUNDING_1
 10
0
 20
0
 30
0
 70
128
 71
82
 72
83
 73
94
 74
93
 0
VERTEX
 8
ROUNDING_1
 10
0
 20
0
 30
0
 70
128
 71
83
 72
84
 73
95
 74
94
 0
VERTEX
 8
ROUNDING_1
 10
0
 20
0
 30
0
 70
128
 71
84
 72
85
 73
96
 74
95
 0
VERTEX
 8
ROUNDING_1
 10
0
 20
0
 30
0
 70
128
 71
85
 72
86
 73
97
 74
96
 0
VERTEX
 8
ROUNDING_1
 10
0
 20
0
 30
0
 70
128
 71
86
 72
87
 73
98
 74
97
 0
VERTEX
 8
ROUNDING_1
 10
0
 20
0
 30
0
 70
128
 71
87
 72
88
 73
99
 74
98
 0
VERTEX
 8
ROUNDING_1
 10
0
 20
0
 30
0
 70
128
 71
88
 72
78
 73
89
 74
99
 0
VERTEX
 8
ROUNDING_1
 10
0
 20
0
 30
0
 70
128
 71
89
 72
90
 73
101
 74
100
 0
VERTEX
 8
ROUNDING_1
 10
0
 20
0
 30
0
 70
128
 71
90
 72
91
 73
102
 74
101
 0
VERTEX
 8
ROUNDING_1
 10
0
 20
0
 30
0
 70
128
 71
91
 72
92
 73
103
 74
102
 0
VERTEX
 8
ROUNDING_1
 10
0
 20
0
 30
0
 70
128
 71
92
 72
93
 73
104
 74
103
 0
VERTEX
 8
ROUNDING_1
 10
0
 20
0
 30
0
 70
128
 71
93
 72
94
 73
105
 74
104
 0
VERTEX
 8
ROUNDING_1
 10
0
 20
0
 30
0
 70
128
 71
94
 72
95
 73
106
 74
105
 0
VERTEX
 8
ROUNDING_1
 10
0
 20
0
 30
0
 70
128
 71
95
 72
96
 73
107
 74
106
 0
VERTEX
 8
ROUNDING_1
 10
0
 20
0
 30
0
 70
128
 71
96
 72
97
 73
108
 74
107
 0
VERTEX
 8
ROUNDING_1
 10
0
 20
0
 30
0
 70
128
 71
97
 72
98
 73
109
 74
108
 0
VERTEX
 8
ROUNDING_1
 10
0
 20
0
 30
0
 70
128
 71
98
 72
99
 73
110
 74
109
 0
VERTEX
 8
ROUNDING_1
 10
0
 20
0
 30
0
 70
128
 71
99
 72
89
 73
100
 74
110
 0
VERTEX
 8
ROUNDING_1
 10
0
 20
0
 30
0
 70
128
 71
100
 72
101
 73
112
 74
111
 0
VERTEX
 8
ROUNDING_1
 10
0
 20
0
 30
0
 70
128
 71
101
 72
102
 73
113
 74
112
 0
VERTEX
 8
ROUNDING_1
 10
0
 20
0
 30
0
 70
128
 71
102
 72
103
 73
114
 74
113
 0
VERTEX
 8
ROUNDING_1
 10
0
 20
0
 30
0
 70
128
 71
103
 72
104
 73
115
 74
114
 0
VERTEX
 8
ROUNDING_1
 10
0
 20
0
 30
0
 70
128
 71
104
 72
105
 73
116
 74
115
 0
VERTEX
 8
ROUNDING_1
 10
0
 20
0
 30
0
 70
128
 71
105
 72
106
 73
117
 74
116
 0
VERTEX
 8
ROUNDING_1
 10
0
 20
0
 30
0
 70
128
 71
106
 72
107
 73
118
 74
117
 0
VERTEX
 8
ROUNDING_1
 10
0
 20
0
 30
0
 70
128
 71
107
 72
108
 73
119
 74
118
 0
VERTEX
 8
ROUNDING_1
 10
0
 20
0
 30
0
 70
128
 71
108
 72
109
 73
120
 74
119
 0
VERTEX
 8
ROUNDING_1
 10
0
 20
0
 30
0
 70
128
 71
109
 72
110
 73
121
 74
120
 0
VERTEX
 8
ROUNDING_1
 10
0
 20
0
 30
0
 70
128
 71
110
 72
100
 73
111
 74
121
 0
SEQEND
 0
POLYLINE
 8
CAP_1
 66
1
 10
0.0
 20
0.0
 30
0.0
 70
64
 71
11
 72
6
 0
VERTEX
 8
CAP_1
 10
-0.0036
 20
-0.0023
 30
0.03
 70
192
 0
VERTEX
 8
CAP_1
 10
2.8356
 20
0.0099
 30
0.03
 70
192
 0
VERTEX
 8
CAP_1
 10
2.8378
 20
-0.8899
 30
0.03
 70
192
 0
VERTEX
 8
CAP_1
 10
2.6011
 20
-0.8899
 30
0.03
 70
192
 0
VERTEX
 8
CAP_1
 10
2.6011
 20
-0.1855
 30
0.03
 70
192
 0
VERTEX
 8
CAP_1
 10
0.2215
 20
-0.1914
 30
0.03
 70
192
 0
VERTEX
 8
CAP_1
 10
0.2215
 20
-0.8899
 30
0.03
 70
192
 0
VERTEX
 8
CAP_1
 10
-0.0035
 20
-0.8899
 30
0.03
 70
192
 0
VERTEX
 8
CAP_1
 10
-0.0039
 20
-0.8888
 30
0.03
 70
192
 0
VERTEX
 8
CAP_1
 10
-0.0043
 20
-0.8857
 30
0.03
 70
192
 0
VERTEX
 8
CAP_1
 10
-0.0064
 20
-0.4195
 30
0.03
 70
192
 0
VERTEX
 8
CAP_1
 10
0
 20
0
 30
0
 70
128
 71
1
 72
2
 73
5
 74
6
 0
VERTEX
 8
CAP_1
 10
0
 20
0
 30
0
 70
128
 71
1
 72
6
 73
11
 74
11
 0
VERTEX
 8
CAP_1
 10
0
 20
0
 30
0
 70
128
 71
5
 72
2
 73
3
 74
4
 0
VERTEX
 8
CAP_1
 10
0
 20
0
 30
0
 70
128
 71
11
 72
6
 73
7
 74
10
 0
VERTEX
 8
CAP_1
 10
0
 20
0
 30
0
 70
128
 71
7
 72
8
 73
10
 74
10
 0
VERTEX
 8
CAP_1
 10
0
 20
0
 30
0
 70
128
 71
8
 72
9
 73
10
 74
10
 0
SEQEND
 0
POLYLINE
 8
ROUNDING_2
 66
1
 10
0.0
 20
0.0
 30
0.0
 70
64
 71
121
 72
110
 0
VERTEX
 8
ROUNDING_2
 10
-0.0334
 20
0.0276
 30
-0.68
 70
192
 0
VERTEX
 8
ROUNDING_2
 10
2.8656
 20
0.04
 30
-0.68
 70
192
 0
VERTEX
 8
ROUNDING_2
 10
2.8679
 20
-0.9199
 30
-0.68
 70
192
 0
VERTEX
 8
ROUNDING_2
 10
2.5711
 20
-0.9199
 30
-0.68
 70
192
 0
VERTEX
 8
ROUNDING_2
 10
2.5711
 20
-0.2156
 30
-0.68
 70
192
 0
VERTEX
 8
ROUNDING_2
 10
0.2515
 20
-0.2213
 30
-0.68
 70
192
 0
VERTEX
 8
ROUNDING_2
 10
0.2515
 20
-0.9199
 30
-0.68
 70
192
 0
VERTEX
 8
ROUNDING_2
 10
-0.0232
 20
-0.9199
 30
-0.68
 70
192
 0
VERTEX
 8
ROUNDING_2
 10
-0.0331
 20
-0.897
 30
-0.68
 70
192
 0
VERTEX
 8
ROUNDING_2
 10
-0.0343
 20
-0.8878
 30
-0.68
 70
192
 0
VERTEX
 8
ROUNDING_2
 10
-0.0364
 20
-0.4194
 30
-0.68
 70
192
 0
VERTEX
 8
ROUNDING_2
 10
-0.033
 20
0.0272
 30
-0.6847
 70
192
 0
VERTEX
 8
ROUNDING_2
 10
2.8652
 20
0.0396
 30
-0.6847
 70
192
 0
VERTEX
 8
ROUNDING_2
 10
2.8675
 20
-0.9195
 30
-0.6847
 70
192
 0
VERTEX
 8
ROUNDING_2
 10
2.5714
 20
-0.9195
 30
-0.6847
 70
192
 0
VERTEX
 8
ROUNDING_2
 10
2.5714
 20
-0.2152
 30
-0.6847
 70
192
 0
VERTEX
 8
ROUNDING_2
 10
0.2511
 20
-0.221
 30
-0.6847
 70
192
 0
VERTEX
 8
ROUNDING_2
 10
0.2511
 20
-0.9195
 30
-0.6847
 70
192
 0
VERTEX
 8
ROUNDING_2
 10
-0.0229
 20
-0.9195
 30
-0.6847
 70
192
 0
VERTEX
 8
ROUNDING_2
 10
-0.0327
 20
-0.8969
 30
-0.6847
 70
192
 0
VERTEX
 8
ROUNDING_2
 10
-0.034
 20
-0.8878
 30
-0.6847
 70
192
 0
VERTEX
 8
ROUNDING_2
 10
-0.036
 20
-0.4194
 30
-0.6847
 70
192
 0
VERTEX
 8
ROUNDING_2
 10
-0.0319
 20
0.0261
 30
-0.6893
 70
192
 0
VERTEX
 8
ROUNDING_2
 10
2.8641
 20
0.0385
 30
-0.6893
 70
192
 0
VERTEX
 8
ROUNDING_2
 10
2.8664
 20
-0.9184
 30
-0.6893
 70
192
 0
VERTEX
 8
ROUNDING_2
 10
2.5725
 20
-0.9184
 30
-0.6893
 70
192
 0
VERTEX
 8
ROUNDING_2
 10
2.5725
 20
-0.2141
 30
-0.6893
 70
192
 0
VERTEX
 8
ROUNDING_2
 10
0.25
 20
-0.2199
 30
-0.6893
 70
192
 0
VERTEX
 8
ROUNDING_2
 10
0.25
 20
-0.9184
 30
-0.6893
 70
192
 0
VERTEX
 8
ROUNDING_2
 10
-0.0222
 20
-0.9184
 30
-0.6893
 70
192
 0
VERTEX
 8
ROUNDING_2
 10
-0.0317
 20
-0.8966
 30
-0.6893
 70
192
 0
VERTEX
 8
ROUNDING_2
 10
-0.0329
 20
-0.8877
 30
-0.6893
 70
192
 0
VERTEX
 8
ROUNDING_2
 10
-0.0349
 20
-0.4194
 30
-0.6893
 70
192
 0
VERTEX
 8
ROUNDING_2
 10
-0.0301
 20
0.0243
 30
-0.6936
 70
192
 0
VERTEX
 8
ROUNDING_2
 10
2.8623
 20
0.0367
 30
-0.6936
 70
192
 0
VERTEX
 8
ROUNDING_2
 10
2.8646
 20
-0.9166
 30
-0.6936
 70
192
 0
VERTEX
 8
ROUNDING_2
 10
2.5743
 20
-0.9166
 30
-0.6936
 70
192
 0
VERTEX
 8
ROUNDING_2
 10
2.5743
 20
-0.2123
 30
-0.6936
 70
192
 0
VERTEX
 8
ROUNDING_2
 10
0.2482
 20
-0.2181
 30
-0.6936
 70
192
 0
VERTEX
 8
ROUNDING_2
 10
0.2482
 20
-0.9166
 30
-0.6936
 70
192
 0
VERTEX
 8
ROUNDING_2
 10
-0.021
 20
-0.9166
 30
-0.6936
 70
192
 0
VERTEX
 8
ROUNDING_2
 10
-0.0299
 20
-0.8961
 30
-0.6936
 70
192
 0
VERTEX
 8
ROUNDING_2
 10
-0.0311
 20
-0.8876
 30
-0.6936
 70
192
 0
VERTEX
 8
ROUNDING_2
 10
-0.0331
 20
-0.4194
 30
-0.6936
 70
192
 0
VERTEX
 8
ROUNDING_2
 10
-0.0277
 20
0.0219
 30
-0.6976
 70
192
 0
VERTEX
 8
ROUNDING_2
 10
2.8598
 20
0.0342
 30
-0.6976
 70
192
 0
VERTEX
 8
ROUNDING_2
 10
2.8622
 20
-0.9142
 30
-0.6976
 70
192
 0
VERTEX
 8
ROUNDING_2
 10
2.5768
 20
-0.9142
 30
-0.6976
 70
192
 0
VERTEX
 8
ROUNDING_2
 10
2.5768
 20
-0.2098
 30
-0.6976
 70
192
 0
VERTEX
 8
ROUNDING_2
 10
0.2457
 20
-0.2156
 30
-0.6976
 70
192
 0
VERTEX
 8
ROUNDING_2
 10
0.2457
 20
-0.9142
 30
-0.6976
 70
192
 0
VERTEX
 8
ROUNDING_2
 10
-0.0194
 20
-0.9142
 30
-0.6976
 70
192
 0
VERTEX
 8
ROUNDING_2
 10
-0.0275
 20
-0.8954
 30
-0.6976
 70
192
 0
VERTEX
 8
ROUNDING_2
 10
-0.0286
 20
-0.8874
 30
-0.6976
 70
192
 0
VERTEX
 8
ROUNDING_2
 10
-0.0306
 20
-0.4195
 30
-0.6976
 70
192
 0
VERTEX
 8
ROUNDING_2
 10
-0.0247
 20
0.0188
 30
-0.7012
 70
192
 0
VERTEX
 8
ROUNDING_2
 10
2.8568
 20
0.0312
 30
-0.7012
 70
192
 0
VERTEX
 8
ROUNDING_2
 10
2.8591
 20
-0.9111
 30
-0.7012
 70
192
 0
VERTEX
 8
ROUNDING_2
 10
2.5798
 20
-0.9111
 30
-0.7012
 70
192
 0
VERTEX
 8
ROUNDING_2
 10
2.5798
 20
-0.2068
 30
-0.7012
 70
192
 0
VERTEX
 8
ROUNDING_2
 10
0.2427
 20
-0.2126
 30
-0.7012
 70
192
 0
VERTEX
 8
ROUNDING_2
 10
0.2427
 20
-0.9111
 30
-0.7012
 70
192
 0
VERTEX
 8
ROUNDING_2
 10
-0.0174
 20
-0.9111
 30
-0.7012
 70
192
 0
VERTEX
 8
ROUNDING_2
 10
-0.0245
 20
-0.8946
 30
-0.7012
 70
192
 0
VERTEX
 8
ROUNDING_2
 10
-0.0255
 20
-0.8872
 30
-0.7012
 70
192
 0
VERTEX
 8
ROUNDING_2
 10
-0.0276
 20
-0.4195
 30
-0.7012
 70
192
 0
VERTEX
 8
ROUNDING_2
 10
-0.0211
 20
0.0153
 30
-0.7043
 70
192
 0
VERTEX
 8
ROUNDING_2
 10
2.8532
 20
0.0276
 30
-0.7043
 70
192
 0
VERTEX
 8
ROUNDING_2
 10
2.8555
 20
-0.9075
 30
-0.7043
 70
192
 0
VERTEX
 8
ROUNDING_2
 10
2.5834
 20
-0.9075
 30
-0.7043
 70
192
 0
VERTEX
 8
ROUNDING_2
 10
2.5834
 20
-0.2032
 30
-0.7043
 70
192
 0
VERTEX
 8
ROUNDING_2
 10
0.2391
 20
-0.209
 30
-0.7043
 70
192
 0
VERTEX
 8
ROUNDING_2
 10
0.2391
 20
-0.9075
 30
-0.7043
 70
192
 0
VERTEX
 8
ROUNDING_2
 10
-0.015
 20
-0.9075
 30
-0.7043
 70
192
 0
VERTEX
 8
ROUNDING_2
 10
-0.0211
 20
-0.8936
 30
-0.7043
 70
192
 0
VERTEX
 8
ROUNDING_2
 10
-0.022
 20
-0.887
 30
-0.7043
 70
192
 0
VERTEX
 8
ROUNDING_2
 10
-0.024
 20
-0.4195
 30
-0.7043
 70
192
 0
VERTEX
 8
ROUNDING_2
 10
-0.0171
 20
0.0113
 30
-0.7067
 70
192
 0
VERTEX
 8
ROUNDING_2
 10
2.8492
 20
0.0235
 30
-0.7067
 70
192
 0
VERTEX
 8
ROUNDING_2
 10
2.8515
 20
-0.9035
 30
-0.7067
 70
192
 0
VERTEX
 8
ROUNDING_2
 10
2.5874
 20
-0.9035
 30
-0.7067
 70
192
 0
VERTEX
 8
ROUNDING_2
 10
2.5874
 20
-0.1991
 30
-0.7067
 70
192
 0
VERTEX
 8
ROUNDING_2
 10
0.2351
 20
-0.205
 30
-0.7067
 70
192
 0
VERTEX
 8
ROUNDING_2
 10
0.2351
 20
-0.9035
 30
-0.7067
 70
192
 0
VERTEX
 8
ROUNDING_2
 10
-0.0124
 20
-0.9035
 30
-0.7067
 70
192
 0
VERTEX
 8
ROUNDING_2
 10
-0.0172
 20
-0.8925
 30
-0.7067
 70
192
 0
VERTEX
 8
ROUNDING_2
 10
-0.018
 20
-0.8867
 30
-0.7067
 70
192
 0
VERTEX
 8
ROUNDING_2
 10
-0.02
 20
-0.4195
 30
-0.7067
 70
192
 0
VERTEX
 8
ROUNDING_2
 10
-0.0128
 20
0.0069
 30
-0.7085
 70
192
 0
VERTEX
 8
ROUNDING_2
 10
2.8449
 20
0.0192
 30
-0.7085
 70
192
 0
VERTEX
 8
ROUNDING_2
 10
2.8471
 20
-0.8992
 30
-0.7085
 70
192
 0
VERTEX
 8
ROUNDING_2
 10
2.5918
 20
-0.8992
 30
-0.7085
 70
192
 0
VERTEX
 8
ROUNDING_2
 10
2.5918
 20
-0.1948
 30
-0.7085
 70
192
 0
VERTEX
 8
ROUNDING_2
 10
0.2307
 20
-0.2007
 30
-0.7085
 70
192
 0
VERTEX
 8
ROUNDING_2
 10
0.2307
 20
-0.8992
 30
-0.7085
 70
192
 0
VERTEX
 8
ROUNDING_2
 10
-0.0096
 20
-0.8992
 30
-0.7085
 70
192
 0
VERTEX
 8
ROUNDING_2
 10
-0.0129
 20
-0.8914
 30
-0.7085
 70
192
 0
VERTEX
 8
ROUNDING_2
 10
-0.0136
 20
-0.8864
 30
-0.7085
 70
192
 0
VERTEX
 8
ROUNDING_2
 10
-0.0156
 20
-0.4195
 30
-0.7085
 70
192
 0
VERTEX
 8
ROUNDING_2
 10
-0.0083
 20
0.0024
 30
-0.7096
 70
192
 0
VERTEX
 8
ROUNDING_2
 10
2.8403
 20
0.0146
 30
-0.7096
 70
192
 0
VERTEX
 8
ROUNDING_2
 10
2.8425
 20
-0.8946
 30
-0.7096
 70
192
 0
VERTEX
 8
ROUNDING_2
 10
2.5964
 20
-0.8946
 30
-0.7096
 70
192
 0
VERTEX
 8
ROUNDING_2
 10
2.5964
 20
-0.1902
 30
-0.7096
 70
192
 0
VERTEX
 8
ROUNDING_2
 10
0.2262
 20
-0.1961
 30
-0.7096
 70
192
 0
VERTEX
 8
ROUNDING_2
 10
0.2262
 20
-0.8946
 30
-0.7096
 70
192
 0
VERTEX
 8
ROUNDING_2
 10
-0.0065
 20
-0.8946
 30
-0.7096
 70
192
 0
VERTEX
 8
ROUNDING_2
 10
-0.0085
 20
-0.8901
 30
-0.7096
 70
192
 0
VERTEX
 8
ROUNDING_2
 10
-0.009
 20
-0.8861
 30
-0.7096
 70
192
 0
VERTEX
 8
ROUNDING_2
 10
-0.0111
 20
-0.4195
 30
-0.7096
 70
192
 0
VERTEX
 8
ROUNDING_2
 10
-0.0036
 20
-0.0023
 30
-0.71
 70
192
 0
VERTEX
 8
ROUNDING_2
 10
2.8356
 20
0.0099
 30
-0.71
 70
192
 0
VERTEX
 8
ROUNDING_2
 10
2.8378
 20
-0.8899
 30
-0.71
 70
192
 0
VERTEX
 8
ROUNDING_2
 10
2.6011
 20
-0.8899
 30
-0.71
 70
192
 0
VERTEX
 8
ROUNDING_2
 10
2.6011
 20
-0.1855
 30
-0.71
 70
192
 0
VERTEX
 8
ROUNDING_2
 10
0.2215
 20
-0.1914
 30
-0.71
 70
192
 0
VERTEX
 8
ROUNDING_2
 10
0.2215
 20
-0.8899
 30
-0.71
 70
192
 0
VERTEX
 8
ROUNDING_2
 10
-0.0035
 20
-0.8899
 30
-0.71
 70
192
 0
VERTEX
 8
ROUNDING_2
 10
-0.0039
 20
-0.8888
 30
-0.71
 70
192
 0
VERTEX
 8
ROUNDING_2
 10
-0.0043
 20
-0.8857
 30
-0.71
 70
192
 0
VERTEX
 8
ROUNDING_2
 10
-0.0064
 20
-0.4195
 30
-0.71
 70
192
 0
VERTEX
 8
ROUNDING_2
 10
0
 20
0
 30
0
 70
128
 71
1
 72
12
 73
13
 74
2
 0
VERTEX
 8
ROUNDING_2
 10
0
 20
0
 30
0
 70
128
 71
2
 72
13
 73
14
 74
3
 0
VERTEX
 8
ROUNDING_2
 10
0
 20
0
 30
0
 70
128
 71
3
 72
14
 73
15
 74
4
 0
VERTEX
 8
ROUNDING_2
 10
0
 20
0
 30
0
 70
128
 71
4
 72
15
 73
16
 74
5
 0
VERTEX
 8
ROUNDING_2
 10
0
 20
0
 30
0
 70
128
 71
5
 72
16
 73
17
 74
6
 0
VERTEX
 8
ROUNDING_2
 10
0
 20
0
 30
0
 70
128
 71
6
 72
17
 73
18
 74
7
 0
VERTEX
 8
ROUNDING_2
 10
0
 20
0
 30
0
 70
128
 71
7
 72
18
 73
19
 74
8
 0
VERTEX
 8
ROUNDING_2
 10
0
 20
0
 30
0
 70
128
 71
8
 72
19
 73
20
 74
9
 0
VERTEX
 8
ROUNDING_2
 10
0
 20
0
 30
0
 70
128
 71
9
 72
20
 73
21
 74
10
 0
VERTEX
 8
ROUNDING_2
 10
0
 20
0
 30
0
 70
128
 71
10
 72
21
 73
22
 74
11
 0
VERTEX
 8
ROUNDING_2
 10
0
 20
0
 30
0
 70
128
 71
11
 72
22
 73
12
 74
1
 0
VERTEX
 8
ROUNDING_2
 10
0
 20
0
 30
0
 70
128
 71
12
 72
23
 73
24
 74
13
 0
VERTEX
 8
ROUNDING_2
 10
0
 20
0
 30
0
 70
128
 71
13
 72
24
 73
25
 74
14
 0
VERTEX
 8
ROUNDING_2
 10
0
 20
0
 30
0
 70
128
 71
14
 72
25
 73
26
 74
15
 0
VERTEX
 8
ROUNDING_2
 10
0
 20
0
 30
0
 70
128
 71
15
 72
26
 73
27
 74
16
 0
VERTEX
 8
ROUNDING_2
 10
0
 20
0
 30
0
 70
128
 71
16
 72
27
 73
28
 74
17
 0
VERTEX
 8
ROUNDING_2
 10
0
 20
0
 30
0
 70
128
 71
17
 72
28
 73
29
 74
18
 0
VERTEX
 8
ROUNDING_2
 10
0
 20
0
 30
0
 70
128
 71
18
 72
29
 73
30
 74
19
 0
VERTEX
 8
ROUNDING_2
 10
0
 20
0
 30
0
 70
128
 71
19
 72
30
 73
31
 74
20
 0
VERTEX
 8
ROUNDING_2
 10
0
 20
0
 30
0
 70
128
 71
20
 72
31
 73
32
 74
21
 0
VERTEX
 8
ROUNDING_2
 10
0
 20
0
 30
0
 70
128
 71
21
 72
32
 73
33
 74
22
 0
VERTEX
 8
ROUNDING_2
 10
0
 20
0
 30
0
 70
128
 71
22
 72
33
 73
23
 74
12
 0
VERTEX
 8
ROUNDING_2
 10
0
 20
0
 30
0
 70
128
 71
23
 72
34
 73
35
 74
24
 0
VERTEX
 8
ROUNDING_2
 10
0
 20
0
 30
0
 70
128
 71
24
 72
35
 73
36
 74
25
 0
VERTEX
 8
ROUNDING_2
 10
0
 20
0
 30
0
 70
128
 71
25
 72
36
 73
37
 74
26
 0
VERTEX
 8
ROUNDING_2
 10
0
 20
0
 30
0
 70
128
 71
26
 72
37
 73
38
 74
27
 0
VERTEX
 8
ROUNDING_2
 10
0
 20
0
 30
0
 70
128
 71
27
 72
38
 73
39
 74
28
 0
VERTEX
 8
ROUNDING_2
 10
0
 20
0
 30
0
 70
128
 71
28
 72
39
 73
40
 74
29
 0
VERTEX
 8
ROUNDING_2
 10
0
 20
0
 30
0
 70
128
 71
29
 72
40
 73
41
 74
30
 0
VERTEX
 8
ROUNDING_2
 10
0
 20
0
 30
0
 70
128
 71
30
 72
41
 73
42
 74
31
 0
VERTEX
 8
ROUNDING_2
 10
0
 20
0
 30
0
 70
128
 71
31
 72
42
 73
43
 74
32
 0
VERTEX
 8
ROUNDING_2
 10
0
 20
0
 30
0
 70
128
 71
32
 72
43
 73
44
 74
33
 0
VERTEX
 8
ROUNDING_2
 10
0
 20
0
 30
0
 70
128
 71
33
 72
44
 73
34
 74
23
 0
VERTEX
 8
ROUNDING_2
 10
0
 20
0
 30
0
 70
128
 71
34
 72
45
 73
46
 74
35
 0
VERTEX
 8
ROUNDING_2
 10
0
 20
0
 30
0
 70
128
 71
35
 72
46
 73
47
 74
36
 0
VERTEX
 8
ROUNDING_2
 10
0
 20
0
 30
0
 70
128
 71
36
 72
47
 73
48
 74
37
 0
VERTEX
 8
ROUNDING_2
 10
0
 20
0
 30
0
 70
128
 71
37
 72
48
 73
49
 74
38
 0
VERTEX
 8
ROUNDING_2
 10
0
 20
0
 30
0
 70
128
 71
38
 72
49
 73
50
 74
39
 0
VERTEX
 8
ROUNDING_2
 10
0
 20
0
 30
0
 70
128
 71
39
 72
50
 73
51
 74
40
 0
VERTEX
 8
ROUNDING_2
 10
0
 20
0
 30
0
 70
128
 71
40
 72
51
 73
52
 74
41
 0
VERTEX
 8
ROUNDING_2
 10
0
 20
0
 30
0
 70
128
 71
41
 72
52
 73
53
 74
42
 0
VERTEX
 8
ROUNDING_2
 10
0
 20
0
 30
0
 70
128
 71
42
 72
53
 73
54
 74
43
 0
VERTEX
 8
ROUNDING_2
 10
0
 20
0
 30
0
 70
128
 71
43
 72
54
 73
55
 74
44
 0
VERTEX
 8
ROUNDING_2
 10
0
 20
0
 30
0
 70
128
 71
44
 72
55
 73
45
 74
34
 0
VERTEX
 8
ROUNDING_2
 10
0
 20
0
 30
0
 70
128
 71
45
 72
56
 73
57
 74
46
 0
VERTEX
 8
ROUNDING_2
 10
0
 20
0
 30
0
 70
128
 71
46
 72
57
 73
58
 74
47
 0
VERTEX
 8
ROUNDING_2
 10
0
 20
0
 30
0
 70
128
 71
47
 72
58
 73
59
 74
48
 0
VERTEX
 8
ROUNDING_2
 10
0
 20
0
 30
0
 70
128
 71
48
 72
59
 73
60
 74
49
 0
VERTEX
 8
ROUNDING_2
 10
0
 20
0
 30
0
 70
128
 71
49
 72
60
 73
61
 74
50
 0
VERTEX
 8
ROUNDING_2
 10
0
 20
0
 30
0
 70
128
 71
50
 72
61
 73
62
 74
51
 0
VERTEX
 8
ROUNDING_2
 10
0
 20
0
 30
0
 70
128
 71
51
 72
62
 73
63
 74
52
 0
VERTEX
 8
ROUNDING_2
 10
0
 20
0
 30
0
 70
128
 71
52
 72
63
 73
64
 74
53
 0
VERTEX
 8
ROUNDING_2
 10
0
 20
0
 30
0
 70
128
 71
53
 72
64
 73
65
 74
54
 0
VERTEX
 8
ROUNDING_2
 10
0
 20
0
 30
0
 70
128
 71
54
 72
65
 73
66
 74
55
 0
VERTEX
 8
ROUNDING_2
 10
0
 20
0
 30
0
 70
128
 71
55
 72
66
 73
56
 74
45
 0
VERTEX
 8
ROUNDING_2
 10
0
 20
0
 30
0
 70
128
 71
56
 72
67
 73
68
 74
57
 0
VERTEX
 8
ROUNDING_2
 10
0
 20
0
 30
0
 70
128
 71
57
 72
68
 73
69
 74
58
 0
VERTEX
 8
ROUNDING_2
 10
0
 20
0
 30
0
 70
128
 71
58
 72
69
 73
70
 74
59
 0
VERTEX
 8
ROUNDING_2
 10
0
 20
0
 30
0
 70
128
 71
59
 72
70
 73
71
 74
60
 0
VERTEX
 8
ROUNDING_2
 10
0
 20
0
 30
0
 70
128
 71
60
 72
71
 73
72
 74
61
 0
VERTEX
 8
ROUNDING_2
 10
0
 20
0
 30
0
 70
128
 71
61
 72
72
 73
73
 74
62
 0
VERTEX
 8
ROUNDING_2
 10
0
 20
0
 30
0
 70
128
 71
62
 72
73
 73
74
 74
63
 0
VERTEX
 8
ROUNDING_2
 10
0
 20
0
 30
0
 70
128
 71
63
 72
74
 73
75
 74
64
 0
VERTEX
 8
ROUNDING_2
 10
0
 20
0
 30
0
 70
128
 71
64
 72
75
 73
76
 74
65
 0
VERTEX
 8
ROUNDING_2
 10
0
 20
0
 30
0
 70
128
 71
65
 72
76
 73
77
 74
66
 0
VERTEX
 8
ROUNDING_2
 10
0
 20
0
 30
0
 70
128
 71
66
 72
77
 73
67
 74
56
 0
VERTEX
 8
ROUNDING_2
 10
0
 20
0
 30
0
 70
128
 71
67
 72
78
 73
79
 74
68
 0
VERTEX
 8
ROUNDING_2
 10
0
 20
0
 30
0
 70
128
 71
68
 72
79
 73
80
 74
69
 0
VERTEX
 8
ROUNDING_2
 10
0
 20
0
 30
0
 70
128
 71
69
 72
80
 73
81
 74
70
 0
VERTEX
 8
ROUNDING_2
 10
0
 20
0
 30
0
 70
128
 71
70
 72
81
 73
82
 74
71
 0
VERTEX
 8
ROUNDING_2
 10
0
 20
0
 30
0
 70
128
 71
71
 72
82
 73
83
 74
72
 0
VERTEX
 8
ROUNDING_2
 10
0
 20
0
 30
0
 70
128
 71
72
 72
83
 73
84
 74
73
 0
VERTEX
 8
ROUNDING_2
 10
0
 20
0
 30
0
 70
128
 71
73
 72
84
 73
85
 74
74
 0
VERTEX
 8
ROUNDING_2
 10
0
 20
0
 30
0
 70
128
 71
74
 72
85
 73
86
 74
75
 0
VERTEX
 8
ROUNDING_2
 10
0
 20
0
 30
0
 70
128
 71
75
 72
86
 73
87
 74
76
 0
VERTEX
 8
ROUNDING_2
 10
0
 20
0
 30
0
 70
128
 71
76
 72
87
 73
88
 74
77
 0
VERTEX
 8
ROUNDING_2
 10
0
 20
0
 30
0
 70
128
 71
77
 72
88
 73
78
 74
67
 0
VERTEX
 8
ROUNDING_2
 10
0
 20
0
 30
0
 70
128
 71
78
 72
89
 73
90
 74
79
 0
VERTEX
 8
ROUNDING_2
 10
0
 20
0
 30
0
 70
128
 71
79
 72
90
 73
91
 74
80
 0
VERTEX
 8
ROUNDING_2
 10
0
 20
0
 30
0
 70
128
 71
80
 72
91
 73
92
 74
81
 0
VERTEX
 8
ROUNDING_2
 10
0
 20
0
 30
0
 70
128
 71
81
 72
92
 73
93
 74
82
 0
VERTEX
 8
ROUNDING_2
 10
0
 20
0
 30
0
 70
128
 71
82
 72
93
 73
94
 74
83
 0
VERTEX
 8
ROUNDING_2
 10
0
 20
0
 30
0
 70
128
 71
83
 72
94
 73
95
 74
84
 0
VERTEX
 8
ROUNDING_2
 10
0
 20
0
 30
0
 70
128
 71
84
 72
95
 73
96
 74
85
 0
VERTEX
 8
ROUNDING_2
 10
0
 20
0
 30
0
 70
128
 71
85
 72
96
 73
97
 74
86
 0
VERTEX
 8
ROUNDING_2
 10
0
 20
0
 30
0
 70
128
 71
86
 72
97
 73
98
 74
87
 0
VERTEX
 8
ROUNDING_2
 10
0
 20
0
 30
0
 70
128
 71
87
 72
98
 73
99
 74
88
 0
VERTEX
 8
ROUNDING_2
 10
0
 20
0
 30
0
 70
128
 71
88
 72
99
 73
89
 74
78
 0
VERTEX
 8
ROUNDING_2
 10
0
 20
0
 30
0
 70
128
 71
89
 72
100
 73
101
 74
90
 0
VERTEX
 8
ROUNDING_2
 10
0
 20
0
 30
0
 70
128
 71
90
 72
101
 73
102
 74
91
 0
VERTEX
 8
ROUNDING_2
 10
0
 20
0
 30
0
 70
128
 71
91
 72
102
 73
103
 74
92
 0
VERTEX
 8
ROUNDING_2
 10
0
 20
0
 30
0
 70
128
 71
92
 72
103
 73
104
 74
93
 0
VERTEX
 8
ROUNDING_2
 10
0
 20
0
 30
0
 70
128
 71
93
 72
104
 73
105
 74
94
 0
VERTEX
 8
ROUNDING_2
 10
0
 20
0
 30
0
 70
128
 71
94
 72
105
 73
106
 74
95
 0
VERTEX
 8
ROUNDING_2
 10
0
 20
0
 30
0
 70
128
 71
95
 72
106
 73
107
 74
96
 0
VERTEX
 8
ROUNDING_2
 10
0
 20
0
 30
0
 70
128
 71
96
 72
107
 73
108
 74
97
 0
VERTEX
 8
ROUNDING_2
 10
0
 20
0
 30
0
 70
128
 71
97
 72
108
 73
109
 74
98
 0
VERTEX
 8
ROUNDING_2
 10
0
 20
0
 30
0
 70
128
 71
98
 72
109
 73
110
 74
99
 0
VERTEX
 8
ROUNDING_2
 10
0
 20
0
 30
0
 70
128
 71
99
 72
110
 73
100
 74
89
 0
VERTEX
 8
ROUNDING_2
 10
0
 20
0
 30
0
 70
128
 71
100
 72
111
 73
112
 74
101
 0
VERTEX
 8
ROUNDING_2
 10
0
 20
0
 30
0
 70
128
 71
101
 72
112
 73
113
 74
102
 0
VERTEX
 8
ROUNDING_2
 10
0
 20
0
 30
0
 70
128
 71
102
 72
113
 73
114
 74
103
 0
VERTEX
 8
ROUNDING_2
 10
0
 20
0
 30
0
 70
128
 71
103
 72
114
 73
115
 74
104
 0
VERTEX
 8
ROUNDING_2
 10
0
 20
0
 30
0
 70
128
 71
104
 72
115
 73
116
 74
105
 0
VERTEX
 8
ROUNDING_2
 10
0
 20
0
 30
0
 70
128
 71
105
 72
116
 73
117
 74
106
 0
VERTEX
 8
ROUNDING_2
 10
0
 20
0
 30
0
 70
128
 71
106
 72
117
 73
118
 74
107
 0
VERTEX
 8
ROUNDING_2
 10
0
 20
0
 30
0
 70
128
 71
107
 72
118
 73
119
 74
108
 0
VERTEX
 8
ROUNDING_2
 10
0
 20
0
 30
0
 70
128
 71
108
 72
119
 73
120
 74
109
 0
VERTEX
 8
ROUNDING_2
 10
0
 20
0
 30
0
 70
128
 71
109
 72
120
 73
121
 74
110
 0
VERTEX
 8
ROUNDING_2
 10
0
 20
0
 30
0
 70
128
 71
110
 72
121
 73
111
 74
100
 0
SEQEND
 0
POLYLINE
 8
CAP_2
 66
1
 10
0.0
 20
0.0
 30
0.0
 70
64
 71
11
 72
6
 0
VERTEX
 8
CAP_2
 10
-0.0036
 20
-0.0023
 30
-0.71
 70
192
 0
VERTEX
 8
CAP_2
 10
2.8356
 20
0.0099
 30
-0.71
 70
192
 0
VERTEX
 8
CAP_2
 10
2.8378
 20
-0.8899
 30
-0.71
 70
192
 0
VERTEX
 8
CAP_2
 10
2.6011
 20
-0.8899
 30
-0.71
 70
192
 0
VERTEX
 8
CAP_2
 10
2.6011
 20
-0.1855
 30
-0.71
 70
192
 0
VERTEX
 8
CAP_2
 10
0.2215
 20
-0.1914
 30
-0.71
 70
192
 0
VERTEX
 8
CAP_2
 10
0.2215
 20
-0.8899
 30
-0.71
 70
192
 0
VERTEX
 8
CAP_2
 10
-0.0035
 20
-0.8899
 30
-0.71
 70
192
 0
VERTEX
 8
CAP_2
 10
-0.0039
 20
-0.8888
 30
-0.71
 70
192
 0
VERTEX
 8
CAP_2
 10
-0.0043
 20
-0.8857
 30
-0.71
 70
192
 0
VERTEX
 8
CAP_2
 10
-0.0064
 20
-0.4195
 30
-0.71
 70
192
 0
VERTEX
 8
CAP_2
 10
0
 20
0
 30
0
 70
128
 71
11
 72
10
 73
7
 74
6
 0
VERTEX
 8
CAP_2
 10
0
 20
0
 30
0
 70
128
 71
11
 72
6
 73
1
 74
1
 0
VERTEX
 8
CAP_2
 10
0
 20
0
 30
0
 70
128
 71
10
 72
9
 73
8
 74
8
 0
VERTEX
 8
CAP_2
 10
0
 20
0
 30
0
 70
128
 71
10
 72
8
 73
7
 74
7
 0
VERTEX
 8
CAP_2
 10
0
 20
0
 30
0
 70
128
 71
1
 72
6
 73
5
 74
2
 0
VERTEX
 8
CAP_2
 10
0
 20
0
 30
0
 70
128
 71
5
 72
4
 73
3
 74
2
 0
SEQEND
 0
ENDSEC
 0
EOF
