 0
SECTION
 2
HEADER
 9
$ACADVER
 1
AC1009
 0
ENDSEC
 0
SECTION
 2
TABLES
 0
TABLE
 2
LTYPE
 70
1
 0
LTYPE
 2
CONTINUOUS
 70
64
 3
solid line
 72
65
 73
0
 40
0.0
 0
ENDTAB
 0
TABLE
 2
LAYER
 70
6
 0
LAYER
 2
0
 70
0
 62
7
 6
CONTINUOUS
 0
LAYER
 2
24957
 70
64
 62
7
 6
CONTINUOUS
 0
LAYER
 2
HANDLES
 70
64
 62
7
 6
CONTINUOUS
 0
LAYER
 2
CYLINDER_1
 70
64
 62
33
 6
CONTINUOUS
 0
LAYER
 2
CUBE_1
 70
64
 62
33
 6
CONTINUOUS
 0
LAYER
 2
CUBE
 70
64
 62
33
 6
CONTINUOUS
 0
LAYER
 2
CYLINDER
 70
64
 62
33
 6
CONTINUOUS
 0
LAYER
 2
BASE
 70
64
 62
7
 6
CONTINUOUS
 0
LAYER
 2
CUBE_13
 70
64
 62
33
 6
CONTINUOUS
 0
LAYER
 2
CUBE_12
 70
64
 62
33
 6
CONTINUOUS
 0
LAYER
 2
CUBE_11
 70
64
 62
33
 6
CONTINUOUS
 0
LAYER
 2
CUBE_10
 70
64
 62
33
 6
CONTINUOUS
 0
LAYER
 2
CUBE_9
 70
64
 62
33
 6
CONTINUOUS
 0
LAYER
 2
CUBE_8
 70
64
 62
33
 6
CONTINUOUS
 0
LAYER
 2
CUBE_7
 70
64
 62
33
 6
CONTINUOUS
 0
LAYER
 2
CUBE_6
 70
64
 62
33
 6
CONTINUOUS
 0
LAYER
 2
CUBE_5
 70
64
 62
33
 6
CONTINUOUS
 0
LAYER
 2
CUBE_4
 70
64
 62
33
 6
CONTINUOUS
 0
LAYER
 2
CUBE_3
 70
64
 62
33
 6
CONTINUOUS
 0
LAYER
 2
CUBE_2
 70
64
 62
33
 6
CONTINUOUS
 0
LAYER
 2
CUBE_14
 70
64
 62
59
 6
CONTINUOUS
 0
ENDTAB
 0
ENDSEC
 0
SECTION
 2
BLOCKS
 0
ENDSEC
 0
SECTION
 2
ENTITIES
 0
POLYLINE
 8
CYLINDER_1
 66
1
 10
0.0
 20
0.0
 30
0.0
 70
64
 71
146
 72
108
 0
VERTEX
 8
CYLINDER_1
 10
0.0375
 20
-0.2303
 30
0.8749
 70
192
 0
VERTEX
 8
CYLINDER_1
 10
0.0375
 20
-0.2303
 30
0.9855
 70
192
 0
VERTEX
 8
CYLINDER_1
 10
0.0478
 20
-0.2303
 30
0.8749
 70
192
 0
VERTEX
 8
CYLINDER_1
 10
0.0478
 20
-0.2303
 30
0.8749
 70
192
 0
VERTEX
 8
CYLINDER_1
 10
0.0478
 20
-0.2303
 30
0.9855
 70
192
 0
VERTEX
 8
CYLINDER_1
 10
0.0478
 20
-0.2303
 30
0.9855
 70
192
 0
VERTEX
 8
CYLINDER_1
 10
0.0476
 20
-0.2285
 30
0.8749
 70
192
 0
VERTEX
 8
CYLINDER_1
 10
0.0476
 20
-0.2285
 30
0.8749
 70
192
 0
VERTEX
 8
CYLINDER_1
 10
0.0476
 20
-0.2285
 30
0.9855
 70
192
 0
VERTEX
 8
CYLINDER_1
 10
0.0476
 20
-0.2285
 30
0.9855
 70
192
 0
VERTEX
 8
CYLINDER_1
 10
0.0471
 20
-0.2268
 30
0.8749
 70
192
 0
VERTEX
 8
CYLINDER_1
 10
0.0471
 20
-0.2268
 30
0.8749
 70
192
 0
VERTEX
 8
CYLINDER_1
 10
0.0471
 20
-0.2268
 30
0.9855
 70
192
 0
VERTEX
 8
CYLINDER_1
 10
0.0471
 20
-0.2268
 30
0.9855
 70
192
 0
VERTEX
 8
CYLINDER_1
 10
0.0464
 20
-0.2252
 30
0.8749
 70
192
 0
VERTEX
 8
CYLINDER_1
 10
0.0464
 20
-0.2252
 30
0.8749
 70
192
 0
VERTEX
 8
CYLINDER_1
 10
0.0464
 20
-0.2252
 30
0.9855
 70
192
 0
VERTEX
 8
CYLINDER_1
 10
0.0464
 20
-0.2252
 30
0.9855
 70
192
 0
VERTEX
 8
CYLINDER_1
 10
0.0454
 20
-0.2237
 30
0.8749
 70
192
 0
VERTEX
 8
CYLINDER_1
 10
0.0454
 20
-0.2237
 30
0.8749
 70
192
 0
VERTEX
 8
CYLINDER_1
 10
0.0454
 20
-0.2237
 30
0.9855
 70
192
 0
VERTEX
 8
CYLINDER_1
 10
0.0454
 20
-0.2237
 30
0.9855
 70
192
 0
VERTEX
 8
CYLINDER_1
 10
0.0441
 20
-0.2224
 30
0.8749
 70
192
 0
VERTEX
 8
CYLINDER_1
 10
0.0441
 20
-0.2224
 30
0.8749
 70
192
 0
VERTEX
 8
CYLINDER_1
 10
0.0441
 20
-0.2224
 30
0.9855
 70
192
 0
VERTEX
 8
CYLINDER_1
 10
0.0441
 20
-0.2224
 30
0.9855
 70
192
 0
VERTEX
 8
CYLINDER_1
 10
0.0426
 20
-0.2214
 30
0.8749
 70
192
 0
VERTEX
 8
CYLINDER_1
 10
0.0426
 20
-0.2214
 30
0.8749
 70
192
 0
VERTEX
 8
CYLINDER_1
 10
0.0426
 20
-0.2214
 30
0.9855
 70
192
 0
VERTEX
 8
CYLINDER_1
 10
0.0426
 20
-0.2214
 30
0.9855
 70
192
 0
VERTEX
 8
CYLINDER_1
 10
0.041
 20
-0.2206
 30
0.8749
 70
192
 0
VERTEX
 8
CYLINDER_1
 10
0.041
 20
-0.2206
 30
0.8749
 70
192
 0
VERTEX
 8
CYLINDER_1
 10
0.041
 20
-0.2206
 30
0.9855
 70
192
 0
VERTEX
 8
CYLINDER_1
 10
0.041
 20
-0.2206
 30
0.9855
 70
192
 0
VERTEX
 8
CYLINDER_1
 10
0.0392
 20
-0.2202
 30
0.8749
 70
192
 0
VERTEX
 8
CYLINDER_1
 10
0.0392
 20
-0.2202
 30
0.8749
 70
192
 0
VERTEX
 8
CYLINDER_1
 10
0.0392
 20
-0.2202
 30
0.9855
 70
192
 0
VERTEX
 8
CYLINDER_1
 10
0.0392
 20
-0.2202
 30
0.9855
 70
192
 0
VERTEX
 8
CYLINDER_1
 10
0.0375
 20
-0.22
 30
0.8749
 70
192
 0
VERTEX
 8
CYLINDER_1
 10
0.0375
 20
-0.22
 30
0.8749
 70
192
 0
VERTEX
 8
CYLINDER_1
 10
0.0375
 20
-0.22
 30
0.9855
 70
192
 0
VERTEX
 8
CYLINDER_1
 10
0.0375
 20
-0.22
 30
0.9855
 70
192
 0
VERTEX
 8
CYLINDER_1
 10
0.0357
 20
-0.2202
 30
0.8749
 70
192
 0
VERTEX
 8
CYLINDER_1
 10
0.0357
 20
-0.2202
 30
0.8749
 70
192
 0
VERTEX
 8
CYLINDER_1
 10
0.0357
 20
-0.2202
 30
0.9855
 70
192
 0
VERTEX
 8
CYLINDER_1
 10
0.0357
 20
-0.2202
 30
0.9855
 70
192
 0
VERTEX
 8
CYLINDER_1
 10
0.0339
 20
-0.2206
 30
0.8749
 70
192
 0
VERTEX
 8
CYLINDER_1
 10
0.0339
 20
-0.2206
 30
0.8749
 70
192
 0
VERTEX
 8
CYLINDER_1
 10
0.0339
 20
-0.2206
 30
0.9855
 70
192
 0
VERTEX
 8
CYLINDER_1
 10
0.0339
 20
-0.2206
 30
0.9855
 70
192
 0
VERTEX
 8
CYLINDER_1
 10
0.0323
 20
-0.2214
 30
0.8749
 70
192
 0
VERTEX
 8
CYLINDER_1
 10
0.0323
 20
-0.2214
 30
0.8749
 70
192
 0
VERTEX
 8
CYLINDER_1
 10
0.0323
 20
-0.2214
 30
0.9855
 70
192
 0
VERTEX
 8
CYLINDER_1
 10
0.0323
 20
-0.2214
 30
0.9855
 70
192
 0
VERTEX
 8
CYLINDER_1
 10
0.0308
 20
-0.2224
 30
0.8749
 70
192
 0
VERTEX
 8
CYLINDER_1
 10
0.0308
 20
-0.2224
 30
0.8749
 70
192
 0
VERTEX
 8
CYLINDER_1
 10
0.0308
 20
-0.2224
 30
0.9855
 70
192
 0
VERTEX
 8
CYLINDER_1
 10
0.0308
 20
-0.2224
 30
0.9855
 70
192
 0
VERTEX
 8
CYLINDER_1
 10
0.0295
 20
-0.2237
 30
0.8749
 70
192
 0
VERTEX
 8
CYLINDER_1
 10
0.0295
 20
-0.2237
 30
0.8749
 70
192
 0
VERTEX
 8
CYLINDER_1
 10
0.0295
 20
-0.2237
 30
0.9855
 70
192
 0
VERTEX
 8
CYLINDER_1
 10
0.0295
 20
-0.2237
 30
0.9855
 70
192
 0
VERTEX
 8
CYLINDER_1
 10
0.0285
 20
-0.2252
 30
0.8749
 70
192
 0
VERTEX
 8
CYLINDER_1
 10
0.0285
 20
-0.2252
 30
0.8749
 70
192
 0
VERTEX
 8
CYLINDER_1
 10
0.0285
 20
-0.2252
 30
0.9855
 70
192
 0
VERTEX
 8
CYLINDER_1
 10
0.0285
 20
-0.2252
 30
0.9855
 70
192
 0
VERTEX
 8
CYLINDER_1
 10
0.0278
 20
-0.2268
 30
0.8749
 70
192
 0
VERTEX
 8
CYLINDER_1
 10
0.0278
 20
-0.2268
 30
0.8749
 70
192
 0
VERTEX
 8
CYLINDER_1
 10
0.0278
 20
-0.2268
 30
0.9855
 70
192
 0
VERTEX
 8
CYLINDER_1
 10
0.0278
 20
-0.2268
 30
0.9855
 70
192
 0
VERTEX
 8
CYLINDER_1
 10
0.0273
 20
-0.2285
 30
0.8749
 70
192
 0
VERTEX
 8
CYLINDER_1
 10
0.0273
 20
-0.2285
 30
0.8749
 70
192
 0
VERTEX
 8
CYLINDER_1
 10
0.0273
 20
-0.2285
 30
0.9855
 70
192
 0
VERTEX
 8
CYLINDER_1
 10
0.0273
 20
-0.2285
 30
0.9855
 70
192
 0
VERTEX
 8
CYLINDER_1
 10
0.0271
 20
-0.2303
 30
0.8749
 70
192
 0
VERTEX
 8
CYLINDER_1
 10
0.0271
 20
-0.2303
 30
0.8749
 70
192
 0
VERTEX
 8
CYLINDER_1
 10
0.0271
 20
-0.2303
 30
0.9855
 70
192
 0
VERTEX
 8
CYLINDER_1
 10
0.0271
 20
-0.2303
 30
0.9855
 70
192
 0
VERTEX
 8
CYLINDER_1
 10
0.0273
 20
-0.2321
 30
0.8749
 70
192
 0
VERTEX
 8
CYLINDER_1
 10
0.0273
 20
-0.2321
 30
0.8749
 70
192
 0
VERTEX
 8
CYLINDER_1
 10
0.0273
 20
-0.2321
 30
0.9855
 70
192
 0
VERTEX
 8
CYLINDER_1
 10
0.0273
 20
-0.2321
 30
0.9855
 70
192
 0
VERTEX
 8
CYLINDER_1
 10
0.0278
 20
-0.2339
 30
0.8749
 70
192
 0
VERTEX
 8
CYLINDER_1
 10
0.0278
 20
-0.2339
 30
0.8749
 70
192
 0
VERTEX
 8
CYLINDER_1
 10
0.0278
 20
-0.2339
 30
0.9855
 70
192
 0
VERTEX
 8
CYLINDER_1
 10
0.0278
 20
-0.2339
 30
0.9855
 70
192
 0
VERTEX
 8
CYLINDER_1
 10
0.0285
 20
-0.2355
 30
0.8749
 70
192
 0
VERTEX
 8
CYLINDER_1
 10
0.0285
 20
-0.2355
 30
0.8749
 70
192
 0
VERTEX
 8
CYLINDER_1
 10
0.0285
 20
-0.2355
 30
0.9855
 70
192
 0
VERTEX
 8
CYLINDER_1
 10
0.0285
 20
-0.2355
 30
0.9855
 70
192
 0
VERTEX
 8
CYLINDER_1
 10
0.0295
 20
-0.237
 30
0.8749
 70
192
 0
VERTEX
 8
CYLINDER_1
 10
0.0295
 20
-0.237
 30
0.8749
 70
192
 0
VERTEX
 8
CYLINDER_1
 10
0.0295
 20
-0.237
 30
0.9855
 70
192
 0
VERTEX
 8
CYLINDER_1
 10
0.0295
 20
-0.237
 30
0.9855
 70
192
 0
VERTEX
 8
CYLINDER_1
 10
0.0308
 20
-0.2382
 30
0.8749
 70
192
 0
VERTEX
 8
CYLINDER_1
 10
0.0308
 20
-0.2382
 30
0.8749
 70
192
 0
VERTEX
 8
CYLINDER_1
 10
0.0308
 20
-0.2382
 30
0.9855
 70
192
 0
VERTEX
 8
CYLINDER_1
 10
0.0308
 20
-0.2382
 30
0.9855
 70
192
 0
VERTEX
 8
CYLINDER_1
 10
0.0323
 20
-0.2393
 30
0.8749
 70
192
 0
VERTEX
 8
CYLINDER_1
 10
0.0323
 20
-0.2393
 30
0.8749
 70
192
 0
VERTEX
 8
CYLINDER_1
 10
0.0323
 20
-0.2393
 30
0.9855
 70
192
 0
VERTEX
 8
CYLINDER_1
 10
0.0323
 20
-0.2393
 30
0.9855
 70
192
 0
VERTEX
 8
CYLINDER_1
 10
0.0339
 20
-0.24
 30
0.8749
 70
192
 0
VERTEX
 8
CYLINDER_1
 10
0.0339
 20
-0.24
 30
0.8749
 70
192
 0
VERTEX
 8
CYLINDER_1
 10
0.0339
 20
-0.24
 30
0.9855
 70
192
 0
VERTEX
 8
CYLINDER_1
 10
0.0339
 20
-0.24
 30
0.9855
 70
192
 0
VERTEX
 8
CYLINDER_1
 10
0.0357
 20
-0.2405
 30
0.8749
 70
192
 0
VERTEX
 8
CYLINDER_1
 10
0.0357
 20
-0.2405
 30
0.8749
 70
192
 0
VERTEX
 8
CYLINDER_1
 10
0.0357
 20
-0.2405
 30
0.9855
 70
192
 0
VERTEX
 8
CYLINDER_1
 10
0.0357
 20
-0.2405
 30
0.9855
 70
192
 0
VERTEX
 8
CYLINDER_1
 10
0.0375
 20
-0.2406
 30
0.8749
 70
192
 0
VERTEX
 8
CYLINDER_1
 10
0.0375
 20
-0.2406
 30
0.8749
 70
192
 0
VERTEX
 8
CYLINDER_1
 10
0.0375
 20
-0.2406
 30
0.9855
 70
192
 0
VERTEX
 8
CYLINDER_1
 10
0.0375
 20
-0.2406
 30
0.9855
 70
192
 0
VERTEX
 8
CYLINDER_1
 10
0.0392
 20
-0.2405
 30
0.8749
 70
192
 0
VERTEX
 8
CYLINDER_1
 10
0.0392
 20
-0.2405
 30
0.8749
 70
192
 0
VERTEX
 8
CYLINDER_1
 10
0.0392
 20
-0.2405
 30
0.9855
 70
192
 0
VERTEX
 8
CYLINDER_1
 10
0.0392
 20
-0.2405
 30
0.9855
 70
192
 0
VERTEX
 8
CYLINDER_1
 10
0.041
 20
-0.24
 30
0.8749
 70
192
 0
VERTEX
 8
CYLINDER_1
 10
0.041
 20
-0.24
 30
0.8749
 70
192
 0
VERTEX
 8
CYLINDER_1
 10
0.041
 20
-0.24
 30
0.9855
 70
192
 0
VERTEX
 8
CYLINDER_1
 10
0.041
 20
-0.24
 30
0.9855
 70
192
 0
VERTEX
 8
CYLINDER_1
 10
0.0426
 20
-0.2393
 30
0.8749
 70
192
 0
VERTEX
 8
CYLINDER_1
 10
0.0426
 20
-0.2393
 30
0.8749
 70
192
 0
VERTEX
 8
CYLINDER_1
 10
0.0426
 20
-0.2393
 30
0.9855
 70
192
 0
VERTEX
 8
CYLINDER_1
 10
0.0426
 20
-0.2393
 30
0.9855
 70
192
 0
VERTEX
 8
CYLINDER_1
 10
0.0441
 20
-0.2382
 30
0.8749
 70
192
 0
VERTEX
 8
CYLINDER_1
 10
0.0441
 20
-0.2382
 30
0.8749
 70
192
 0
VERTEX
 8
CYLINDER_1
 10
0.0441
 20
-0.2382
 30
0.9855
 70
192
 0
VERTEX
 8
CYLINDER_1
 10
0.0441
 20
-0.2382
 30
0.9855
 70
192
 0
VERTEX
 8
CYLINDER_1
 10
0.0454
 20
-0.237
 30
0.8749
 70
192
 0
VERTEX
 8
CYLINDER_1
 10
0.0454
 20
-0.237
 30
0.8749
 70
192
 0
VERTEX
 8
CYLINDER_1
 10
0.0454
 20
-0.237
 30
0.9855
 70
192
 0
VERTEX
 8
CYLINDER_1
 10
0.0454
 20
-0.237
 30
0.9855
 70
192
 0
VERTEX
 8
CYLINDER_1
 10
0.0464
 20
-0.2355
 30
0.8749
 70
192
 0
VERTEX
 8
CYLINDER_1
 10
0.0464
 20
-0.2355
 30
0.8749
 70
192
 0
VERTEX
 8
CYLINDER_1
 10
0.0464
 20
-0.2355
 30
0.9855
 70
192
 0
VERTEX
 8
CYLINDER_1
 10
0.0464
 20
-0.2355
 30
0.9855
 70
192
 0
VERTEX
 8
CYLINDER_1
 10
0.0471
 20
-0.2339
 30
0.8749
 70
192
 0
VERTEX
 8
CYLINDER_1
 10
0.0471
 20
-0.2339
 30
0.8749
 70
192
 0
VERTEX
 8
CYLINDER_1
 10
0.0471
 20
-0.2339
 30
0.9855
 70
192
 0
VERTEX
 8
CYLINDER_1
 10
0.0471
 20
-0.2339
 30
0.9855
 70
192
 0
VERTEX
 8
CYLINDER_1
 10
0.0476
 20
-0.2321
 30
0.8749
 70
192
 0
VERTEX
 8
CYLINDER_1
 10
0.0476
 20
-0.2321
 30
0.8749
 70
192
 0
VERTEX
 8
CYLINDER_1
 10
0.0476
 20
-0.2321
 30
0.9855
 70
192
 0
VERTEX
 8
CYLINDER_1
 10
0.0476
 20
-0.2321
 30
0.9855
 70
192
 0
VERTEX
 8
CYLINDER_1
 10
0
 20
0
 30
0
 70
128
 71
1
 72
3
 73
7
 74
7
 0
VERTEX
 8
CYLINDER_1
 10
0
 20
0
 30
0
 70
128
 71
4
 72
5
 73
9
 74
8
 0
VERTEX
 8
CYLINDER_1
 10
0
 20
0
 30
0
 70
128
 71
6
 72
2
 73
10
 74
10
 0
VERTEX
 8
CYLINDER_1
 10
0
 20
0
 30
0
 70
128
 71
1
 72
7
 73
11
 74
11
 0
VERTEX
 8
CYLINDER_1
 10
0
 20
0
 30
0
 70
128
 71
8
 72
9
 73
13
 74
12
 0
VERTEX
 8
CYLINDER_1
 10
0
 20
0
 30
0
 70
128
 71
10
 72
2
 73
14
 74
14
 0
VERTEX
 8
CYLINDER_1
 10
0
 20
0
 30
0
 70
128
 71
1
 72
11
 73
15
 74
15
 0
VERTEX
 8
CYLINDER_1
 10
0
 20
0
 30
0
 70
128
 71
12
 72
13
 73
17
 74
16
 0
VERTEX
 8
CYLINDER_1
 10
0
 20
0
 30
0
 70
128
 71
14
 72
2
 73
18
 74
18
 0
VERTEX
 8
CYLINDER_1
 10
0
 20
0
 30
0
 70
128
 71
1
 72
15
 73
19
 74
19
 0
VERTEX
 8
CYLINDER_1
 10
0
 20
0
 30
0
 70
128
 71
16
 72
17
 73
21
 74
20
 0
VERTEX
 8
CYLINDER_1
 10
0
 20
0
 30
0
 70
128
 71
18
 72
2
 73
22
 74
22
 0
VERTEX
 8
CYLINDER_1
 10
0
 20
0
 30
0
 70
128
 71
1
 72
19
 73
23
 74
23
 0
VERTEX
 8
CYLINDER_1
 10
0
 20
0
 30
0
 70
128
 71
20
 72
21
 73
25
 74
24
 0
VERTEX
 8
CYLINDER_1
 10
0
 20
0
 30
0
 70
128
 71
22
 72
2
 73
26
 74
26
 0
VERTEX
 8
CYLINDER_1
 10
0
 20
0
 30
0
 70
128
 71
1
 72
23
 73
27
 74
27
 0
VERTEX
 8
CYLINDER_1
 10
0
 20
0
 30
0
 70
128
 71
24
 72
25
 73
29
 74
28
 0
VERTEX
 8
CYLINDER_1
 10
0
 20
0
 30
0
 70
128
 71
26
 72
2
 73
30
 74
30
 0
VERTEX
 8
CYLINDER_1
 10
0
 20
0
 30
0
 70
128
 71
1
 72
27
 73
31
 74
31
 0
VERTEX
 8
CYLINDER_1
 10
0
 20
0
 30
0
 70
128
 71
28
 72
29
 73
33
 74
32
 0
VERTEX
 8
CYLINDER_1
 10
0
 20
0
 30
0
 70
128
 71
30
 72
2
 73
34
 74
34
 0
VERTEX
 8
CYLINDER_1
 10
0
 20
0
 30
0
 70
128
 71
1
 72
31
 73
35
 74
35
 0
VERTEX
 8
CYLINDER_1
 10
0
 20
0
 30
0
 70
128
 71
32
 72
33
 73
37
 74
36
 0
VERTEX
 8
CYLINDER_1
 10
0
 20
0
 30
0
 70
128
 71
34
 72
2
 73
38
 74
38
 0
VERTEX
 8
CYLINDER_1
 10
0
 20
0
 30
0
 70
128
 71
1
 72
35
 73
39
 74
39
 0
VERTEX
 8
CYLINDER_1
 10
0
 20
0
 30
0
 70
128
 71
36
 72
37
 73
41
 74
40
 0
VERTEX
 8
CYLINDER_1
 10
0
 20
0
 30
0
 70
128
 71
38
 72
2
 73
42
 74
42
 0
VERTEX
 8
CYLINDER_1
 10
0
 20
0
 30
0
 70
128
 71
1
 72
39
 73
43
 74
43
 0
VERTEX
 8
CYLINDER_1
 10
0
 20
0
 30
0
 70
128
 71
40
 72
41
 73
45
 74
44
 0
VERTEX
 8
CYLINDER_1
 10
0
 20
0
 30
0
 70
128
 71
42
 72
2
 73
46
 74
46
 0
VERTEX
 8
CYLINDER_1
 10
0
 20
0
 30
0
 70
128
 71
1
 72
43
 73
47
 74
47
 0
VERTEX
 8
CYLINDER_1
 10
0
 20
0
 30
0
 70
128
 71
44
 72
45
 73
49
 74
48
 0
VERTEX
 8
CYLINDER_1
 10
0
 20
0
 30
0
 70
128
 71
46
 72
2
 73
50
 74
50
 0
VERTEX
 8
CYLINDER_1
 10
0
 20
0
 30
0
 70
128
 71
1
 72
47
 73
51
 74
51
 0
VERTEX
 8
CYLINDER_1
 10
0
 20
0
 30
0
 70
128
 71
48
 72
49
 73
53
 74
52
 0
VERTEX
 8
CYLINDER_1
 10
0
 20
0
 30
0
 70
128
 71
50
 72
2
 73
54
 74
54
 0
VERTEX
 8
CYLINDER_1
 10
0
 20
0
 30
0
 70
128
 71
1
 72
51
 73
55
 74
55
 0
VERTEX
 8
CYLINDER_1
 10
0
 20
0
 30
0
 70
128
 71
52
 72
53
 73
57
 74
56
 0
VERTEX
 8
CYLINDER_1
 10
0
 20
0
 30
0
 70
128
 71
54
 72
2
 73
58
 74
58
 0
VERTEX
 8
CYLINDER_1
 10
0
 20
0
 30
0
 70
128
 71
1
 72
55
 73
59
 74
59
 0
VERTEX
 8
CYLINDER_1
 10
0
 20
0
 30
0
 70
128
 71
56
 72
57
 73
61
 74
60
 0
VERTEX
 8
CYLINDER_1
 10
0
 20
0
 30
0
 70
128
 71
58
 72
2
 73
62
 74
62
 0
VERTEX
 8
CYLINDER_1
 10
0
 20
0
 30
0
 70
128
 71
1
 72
59
 73
63
 74
63
 0
VERTEX
 8
CYLINDER_1
 10
0
 20
0
 30
0
 70
128
 71
60
 72
61
 73
65
 74
64
 0
VERTEX
 8
CYLINDER_1
 10
0
 20
0
 30
0
 70
128
 71
62
 72
2
 73
66
 74
66
 0
VERTEX
 8
CYLINDER_1
 10
0
 20
0
 30
0
 70
128
 71
1
 72
63
 73
67
 74
67
 0
VERTEX
 8
CYLINDER_1
 10
0
 20
0
 30
0
 70
128
 71
64
 72
65
 73
69
 74
68
 0
VERTEX
 8
CYLINDER_1
 10
0
 20
0
 30
0
 70
128
 71
66
 72
2
 73
70
 74
70
 0
VERTEX
 8
CYLINDER_1
 10
0
 20
0
 30
0
 70
128
 71
1
 72
67
 73
71
 74
71
 0
VERTEX
 8
CYLINDER_1
 10
0
 20
0
 30
0
 70
128
 71
68
 72
69
 73
73
 74
72
 0
VERTEX
 8
CYLINDER_1
 10
0
 20
0
 30
0
 70
128
 71
70
 72
2
 73
74
 74
74
 0
VERTEX
 8
CYLINDER_1
 10
0
 20
0
 30
0
 70
128
 71
1
 72
71
 73
75
 74
75
 0
VERTEX
 8
CYLINDER_1
 10
0
 20
0
 30
0
 70
128
 71
72
 72
73
 73
77
 74
76
 0
VERTEX
 8
CYLINDER_1
 10
0
 20
0
 30
0
 70
128
 71
74
 72
2
 73
78
 74
78
 0
VERTEX
 8
CYLINDER_1
 10
0
 20
0
 30
0
 70
128
 71
1
 72
75
 73
79
 74
79
 0
VERTEX
 8
CYLINDER_1
 10
0
 20
0
 30
0
 70
128
 71
76
 72
77
 73
81
 74
80
 0
VERTEX
 8
CYLINDER_1
 10
0
 20
0
 30
0
 70
128
 71
78
 72
2
 73
82
 74
82
 0
VERTEX
 8
CYLINDER_1
 10
0
 20
0
 30
0
 70
128
 71
1
 72
79
 73
83
 74
83
 0
VERTEX
 8
CYLINDER_1
 10
0
 20
0
 30
0
 70
128
 71
80
 72
81
 73
85
 74
84
 0
VERTEX
 8
CYLINDER_1
 10
0
 20
0
 30
0
 70
128
 71
82
 72
2
 73
86
 74
86
 0
VERTEX
 8
CYLINDER_1
 10
0
 20
0
 30
0
 70
128
 71
1
 72
83
 73
87
 74
87
 0
VERTEX
 8
CYLINDER_1
 10
0
 20
0
 30
0
 70
128
 71
84
 72
85
 73
89
 74
88
 0
VERTEX
 8
CYLINDER_1
 10
0
 20
0
 30
0
 70
128
 71
86
 72
2
 73
90
 74
90
 0
VERTEX
 8
CYLINDER_1
 10
0
 20
0
 30
0
 70
128
 71
1
 72
87
 73
91
 74
91
 0
VERTEX
 8
CYLINDER_1
 10
0
 20
0
 30
0
 70
128
 71
88
 72
89
 73
93
 74
92
 0
VERTEX
 8
CYLINDER_1
 10
0
 20
0
 30
0
 70
128
 71
90
 72
2
 73
94
 74
94
 0
VERTEX
 8
CYLINDER_1
 10
0
 20
0
 30
0
 70
128
 71
1
 72
91
 73
95
 74
95
 0
VERTEX
 8
CYLINDER_1
 10
0
 20
0
 30
0
 70
128
 71
92
 72
93
 73
97
 74
96
 0
VERTEX
 8
CYLINDER_1
 10
0
 20
0
 30
0
 70
128
 71
94
 72
2
 73
98
 74
98
 0
VERTEX
 8
CYLINDER_1
 10
0
 20
0
 30
0
 70
128
 71
1
 72
95
 73
99
 74
99
 0
VERTEX
 8
CYLINDER_1
 10
0
 20
0
 30
0
 70
128
 71
96
 72
97
 73
101
 74
100
 0
VERTEX
 8
CYLINDER_1
 10
0
 20
0
 30
0
 70
128
 71
98
 72
2
 73
102
 74
102
 0
VERTEX
 8
CYLINDER_1
 10
0
 20
0
 30
0
 70
128
 71
1
 72
99
 73
103
 74
103
 0
VERTEX
 8
CYLINDER_1
 10
0
 20
0
 30
0
 70
128
 71
100
 72
101
 73
105
 74
104
 0
VERTEX
 8
CYLINDER_1
 10
0
 20
0
 30
0
 70
128
 71
102
 72
2
 73
106
 74
106
 0
VERTEX
 8
CYLINDER_1
 10
0
 20
0
 30
0
 70
128
 71
1
 72
103
 73
107
 74
107
 0
VERTEX
 8
CYLINDER_1
 10
0
 20
0
 30
0
 70
128
 71
104
 72
105
 73
109
 74
108
 0
VERTEX
 8
CYLINDER_1
 10
0
 20
0
 30
0
 70
128
 71
106
 72
2
 73
110
 74
110
 0
VERTEX
 8
CYLINDER_1
 10
0
 20
0
 30
0
 70
128
 71
1
 72
107
 73
111
 74
111
 0
VERTEX
 8
CYLINDER_1
 10
0
 20
0
 30
0
 70
128
 71
108
 72
109
 73
113
 74
112
 0
VERTEX
 8
CYLINDER_1
 10
0
 20
0
 30
0
 70
128
 71
110
 72
2
 73
114
 74
114
 0
VERTEX
 8
CYLINDER_1
 10
0
 20
0
 30
0
 70
128
 71
1
 72
111
 73
115
 74
115
 0
VERTEX
 8
CYLINDER_1
 10
0
 20
0
 30
0
 70
128
 71
112
 72
113
 73
117
 74
116
 0
VERTEX
 8
CYLINDER_1
 10
0
 20
0
 30
0
 70
128
 71
114
 72
2
 73
118
 74
118
 0
VERTEX
 8
CYLINDER_1
 10
0
 20
0
 30
0
 70
128
 71
1
 72
115
 73
119
 74
119
 0
VERTEX
 8
CYLINDER_1
 10
0
 20
0
 30
0
 70
128
 71
116
 72
117
 73
121
 74
120
 0
VERTEX
 8
CYLINDER_1
 10
0
 20
0
 30
0
 70
128
 71
118
 72
2
 73
122
 74
122
 0
VERTEX
 8
CYLINDER_1
 10
0
 20
0
 30
0
 70
128
 71
1
 72
119
 73
123
 74
123
 0
VERTEX
 8
CYLINDER_1
 10
0
 20
0
 30
0
 70
128
 71
120
 72
121
 73
125
 74
124
 0
VERTEX
 8
CYLINDER_1
 10
0
 20
0
 30
0
 70
128
 71
122
 72
2
 73
126
 74
126
 0
VERTEX
 8
CYLINDER_1
 10
0
 20
0
 30
0
 70
128
 71
1
 72
123
 73
127
 74
127
 0
VERTEX
 8
CYLINDER_1
 10
0
 20
0
 30
0
 70
128
 71
124
 72
125
 73
129
 74
128
 0
VERTEX
 8
CYLINDER_1
 10
0
 20
0
 30
0
 70
128
 71
126
 72
2
 73
130
 74
130
 0
VERTEX
 8
CYLINDER_1
 10
0
 20
0
 30
0
 70
128
 71
1
 72
127
 73
131
 74
131
 0
VERTEX
 8
CYLINDER_1
 10
0
 20
0
 30
0
 70
128
 71
128
 72
129
 73
133
 74
132
 0
VERTEX
 8
CYLINDER_1
 10
0
 20
0
 30
0
 70
128
 71
130
 72
2
 73
134
 74
134
 0
VERTEX
 8
CYLINDER_1
 10
0
 20
0
 30
0
 70
128
 71
1
 72
131
 73
135
 74
135
 0
VERTEX
 8
CYLINDER_1
 10
0
 20
0
 30
0
 70
128
 71
132
 72
133
 73
137
 74
136
 0
VERTEX
 8
CYLINDER_1
 10
0
 20
0
 30
0
 70
128
 71
134
 72
2
 73
138
 74
138
 0
VERTEX
 8
CYLINDER_1
 10
0
 20
0
 30
0
 70
128
 71
1
 72
135
 73
139
 74
139
 0
VERTEX
 8
CYLINDER_1
 10
0
 20
0
 30
0
 70
128
 71
136
 72
137
 73
141
 74
140
 0
VERTEX
 8
CYLINDER_1
 10
0
 20
0
 30
0
 70
128
 71
138
 72
2
 73
142
 74
142
 0
VERTEX
 8
CYLINDER_1
 10
0
 20
0
 30
0
 70
128
 71
1
 72
139
 73
143
 74
143
 0
VERTEX
 8
CYLINDER_1
 10
0
 20
0
 30
0
 70
128
 71
140
 72
141
 73
145
 74
144
 0
VERTEX
 8
CYLINDER_1
 10
0
 20
0
 30
0
 70
128
 71
142
 72
2
 73
146
 74
146
 0
VERTEX
 8
CYLINDER_1
 10
0
 20
0
 30
0
 70
128
 71
1
 72
143
 73
3
 74
3
 0
VERTEX
 8
CYLINDER_1
 10
0
 20
0
 30
0
 70
128
 71
144
 72
145
 73
5
 74
4
 0
VERTEX
 8
CYLINDER_1
 10
0
 20
0
 30
0
 70
128
 71
146
 72
2
 73
6
 74
6
 0
SEQEND
 0
POLYLINE
 8
CUBE_1
 66
1
 10
0.0
 20
0.0
 30
0.0
 70
64
 71
8
 72
6
 0
VERTEX
 8
CUBE_1
 10
0.0368
 20
-0.2232
 30
0.9061
 70
192
 0
VERTEX
 8
CUBE_1
 10
0.0368
 20
-0.2232
 30
0.9523
 70
192
 0
VERTEX
 8
CUBE_1
 10
0.0388
 20
-0.2232
 30
0.9061
 70
192
 0
VERTEX
 8
CUBE_1
 10
0.0388
 20
-0.2232
 30
0.9523
 70
192
 0
VERTEX
 8
CUBE_1
 10
0.0388
 20
-0.2031
 30
0.9061
 70
192
 0
VERTEX
 8
CUBE_1
 10
0.0388
 20
-0.2031
 30
0.9523
 70
192
 0
VERTEX
 8
CUBE_1
 10
0.0368
 20
-0.2031
 30
0.9061
 70
192
 0
VERTEX
 8
CUBE_1
 10
0.0368
 20
-0.2031
 30
0.9523
 70
192
 0
VERTEX
 8
CUBE_1
 10
0
 20
0
 30
0
 70
128
 71
1
 72
2
 73
4
 74
3
 0
VERTEX
 8
CUBE_1
 10
0
 20
0
 30
0
 70
128
 71
3
 72
4
 73
6
 74
5
 0
VERTEX
 8
CUBE_1
 10
0
 20
0
 30
0
 70
128
 71
5
 72
6
 73
8
 74
7
 0
VERTEX
 8
CUBE_1
 10
0
 20
0
 30
0
 70
128
 71
7
 72
8
 73
2
 74
1
 0
VERTEX
 8
CUBE_1
 10
0
 20
0
 30
0
 70
128
 71
2
 72
8
 73
6
 74
4
 0
VERTEX
 8
CUBE_1
 10
0
 20
0
 30
0
 70
128
 71
7
 72
1
 73
3
 74
5
 0
SEQEND
 0
POLYLINE
 8
CUBE
 66
1
 10
0.0
 20
0.0
 30
0.0
 70
64
 71
8
 72
6
 0
VERTEX
 8
CUBE
 10
-0.0374
 20
-0.2232
 30
0.9061
 70
192
 0
VERTEX
 8
CUBE
 10
-0.0374
 20
-0.2232
 30
0.9523
 70
192
 0
VERTEX
 8
CUBE
 10
-0.0354
 20
-0.2232
 30
0.9061
 70
192
 0
VERTEX
 8
CUBE
 10
-0.0354
 20
-0.2232
 30
0.9523
 70
192
 0
VERTEX
 8
CUBE
 10
-0.0354
 20
-0.2031
 30
0.9061
 70
192
 0
VERTEX
 8
CUBE
 10
-0.0354
 20
-0.2031
 30
0.9523
 70
192
 0
VERTEX
 8
CUBE
 10
-0.0374
 20
-0.2031
 30
0.9061
 70
192
 0
VERTEX
 8
CUBE
 10
-0.0374
 20
-0.2031
 30
0.9523
 70
192
 0
VERTEX
 8
CUBE
 10
0
 20
0
 30
0
 70
128
 71
1
 72
2
 73
4
 74
3
 0
VERTEX
 8
CUBE
 10
0
 20
0
 30
0
 70
128
 71
3
 72
4
 73
6
 74
5
 0
VERTEX
 8
CUBE
 10
0
 20
0
 30
0
 70
128
 71
5
 72
6
 73
8
 74
7
 0
VERTEX
 8
CUBE
 10
0
 20
0
 30
0
 70
128
 71
7
 72
8
 73
2
 74
1
 0
VERTEX
 8
CUBE
 10
0
 20
0
 30
0
 70
128
 71
2
 72
8
 73
6
 74
4
 0
VERTEX
 8
CUBE
 10
0
 20
0
 30
0
 70
128
 71
7
 72
1
 73
3
 74
5
 0
SEQEND
 0
POLYLINE
 8
CYLINDER
 66
1
 10
0.0
 20
0.0
 30
0.0
 70
64
 71
146
 72
108
 0
VERTEX
 8
CYLINDER
 10
-0.0368
 20
-0.2303
 30
0.8749
 70
192
 0
VERTEX
 8
CYLINDER
 10
-0.0368
 20
-0.2303
 30
0.9855
 70
192
 0
VERTEX
 8
CYLINDER
 10
-0.0265
 20
-0.2303
 30
0.8749
 70
192
 0
VERTEX
 8
CYLINDER
 10
-0.0265
 20
-0.2303
 30
0.8749
 70
192
 0
VERTEX
 8
CYLINDER
 10
-0.0265
 20
-0.2303
 30
0.9855
 70
192
 0
VERTEX
 8
CYLINDER
 10
-0.0265
 20
-0.2303
 30
0.9855
 70
192
 0
VERTEX
 8
CYLINDER
 10
-0.0267
 20
-0.2285
 30
0.8749
 70
192
 0
VERTEX
 8
CYLINDER
 10
-0.0267
 20
-0.2285
 30
0.8749
 70
192
 0
VERTEX
 8
CYLINDER
 10
-0.0267
 20
-0.2285
 30
0.9855
 70
192
 0
VERTEX
 8
CYLINDER
 10
-0.0267
 20
-0.2285
 30
0.9855
 70
192
 0
VERTEX
 8
CYLINDER
 10
-0.0271
 20
-0.2268
 30
0.8749
 70
192
 0
VERTEX
 8
CYLINDER
 10
-0.0271
 20
-0.2268
 30
0.8749
 70
192
 0
VERTEX
 8
CYLINDER
 10
-0.0271
 20
-0.2268
 30
0.9855
 70
192
 0
VERTEX
 8
CYLINDER
 10
-0.0271
 20
-0.2268
 30
0.9855
 70
192
 0
VERTEX
 8
CYLINDER
 10
-0.0279
 20
-0.2252
 30
0.8749
 70
192
 0
VERTEX
 8
CYLINDER
 10
-0.0279
 20
-0.2252
 30
0.8749
 70
192
 0
VERTEX
 8
CYLINDER
 10
-0.0279
 20
-0.2252
 30
0.9855
 70
192
 0
VERTEX
 8
CYLINDER
 10
-0.0279
 20
-0.2252
 30
0.9855
 70
192
 0
VERTEX
 8
CYLINDER
 10
-0.0289
 20
-0.2237
 30
0.8749
 70
192
 0
VERTEX
 8
CYLINDER
 10
-0.0289
 20
-0.2237
 30
0.8749
 70
192
 0
VERTEX
 8
CYLINDER
 10
-0.0289
 20
-0.2237
 30
0.9855
 70
192
 0
VERTEX
 8
CYLINDER
 10
-0.0289
 20
-0.2237
 30
0.9855
 70
192
 0
VERTEX
 8
CYLINDER
 10
-0.0302
 20
-0.2224
 30
0.8749
 70
192
 0
VERTEX
 8
CYLINDER
 10
-0.0302
 20
-0.2224
 30
0.8749
 70
192
 0
VERTEX
 8
CYLINDER
 10
-0.0302
 20
-0.2224
 30
0.9855
 70
192
 0
VERTEX
 8
CYLINDER
 10
-0.0302
 20
-0.2224
 30
0.9855
 70
192
 0
VERTEX
 8
CYLINDER
 10
-0.0317
 20
-0.2214
 30
0.8749
 70
192
 0
VERTEX
 8
CYLINDER
 10
-0.0317
 20
-0.2214
 30
0.8749
 70
192
 0
VERTEX
 8
CYLINDER
 10
-0.0317
 20
-0.2214
 30
0.9855
 70
192
 0
VERTEX
 8
CYLINDER
 10
-0.0317
 20
-0.2214
 30
0.9855
 70
192
 0
VERTEX
 8
CYLINDER
 10
-0.0333
 20
-0.2206
 30
0.8749
 70
192
 0
VERTEX
 8
CYLINDER
 10
-0.0333
 20
-0.2206
 30
0.8749
 70
192
 0
VERTEX
 8
CYLINDER
 10
-0.0333
 20
-0.2206
 30
0.9855
 70
192
 0
VERTEX
 8
CYLINDER
 10
-0.0333
 20
-0.2206
 30
0.9855
 70
192
 0
VERTEX
 8
CYLINDER
 10
-0.035
 20
-0.2202
 30
0.8749
 70
192
 0
VERTEX
 8
CYLINDER
 10
-0.035
 20
-0.2202
 30
0.8749
 70
192
 0
VERTEX
 8
CYLINDER
 10
-0.035
 20
-0.2202
 30
0.9855
 70
192
 0
VERTEX
 8
CYLINDER
 10
-0.035
 20
-0.2202
 30
0.9855
 70
192
 0
VERTEX
 8
CYLINDER
 10
-0.0368
 20
-0.22
 30
0.8749
 70
192
 0
VERTEX
 8
CYLINDER
 10
-0.0368
 20
-0.22
 30
0.8749
 70
192
 0
VERTEX
 8
CYLINDER
 10
-0.0368
 20
-0.22
 30
0.9855
 70
192
 0
VERTEX
 8
CYLINDER
 10
-0.0368
 20
-0.22
 30
0.9855
 70
192
 0
VERTEX
 8
CYLINDER
 10
-0.0386
 20
-0.2202
 30
0.8749
 70
192
 0
VERTEX
 8
CYLINDER
 10
-0.0386
 20
-0.2202
 30
0.8749
 70
192
 0
VERTEX
 8
CYLINDER
 10
-0.0386
 20
-0.2202
 30
0.9855
 70
192
 0
VERTEX
 8
CYLINDER
 10
-0.0386
 20
-0.2202
 30
0.9855
 70
192
 0
VERTEX
 8
CYLINDER
 10
-0.0404
 20
-0.2206
 30
0.8749
 70
192
 0
VERTEX
 8
CYLINDER
 10
-0.0404
 20
-0.2206
 30
0.8749
 70
192
 0
VERTEX
 8
CYLINDER
 10
-0.0404
 20
-0.2206
 30
0.9855
 70
192
 0
VERTEX
 8
CYLINDER
 10
-0.0404
 20
-0.2206
 30
0.9855
 70
192
 0
VERTEX
 8
CYLINDER
 10
-0.042
 20
-0.2214
 30
0.8749
 70
192
 0
VERTEX
 8
CYLINDER
 10
-0.042
 20
-0.2214
 30
0.8749
 70
192
 0
VERTEX
 8
CYLINDER
 10
-0.042
 20
-0.2214
 30
0.9855
 70
192
 0
VERTEX
 8
CYLINDER
 10
-0.042
 20
-0.2214
 30
0.9855
 70
192
 0
VERTEX
 8
CYLINDER
 10
-0.0435
 20
-0.2224
 30
0.8749
 70
192
 0
VERTEX
 8
CYLINDER
 10
-0.0435
 20
-0.2224
 30
0.8749
 70
192
 0
VERTEX
 8
CYLINDER
 10
-0.0435
 20
-0.2224
 30
0.9855
 70
192
 0
VERTEX
 8
CYLINDER
 10
-0.0435
 20
-0.2224
 30
0.9855
 70
192
 0
VERTEX
 8
CYLINDER
 10
-0.0447
 20
-0.2237
 30
0.8749
 70
192
 0
VERTEX
 8
CYLINDER
 10
-0.0447
 20
-0.2237
 30
0.8749
 70
192
 0
VERTEX
 8
CYLINDER
 10
-0.0447
 20
-0.2237
 30
0.9855
 70
192
 0
VERTEX
 8
CYLINDER
 10
-0.0447
 20
-0.2237
 30
0.9855
 70
192
 0
VERTEX
 8
CYLINDER
 10
-0.0458
 20
-0.2252
 30
0.8749
 70
192
 0
VERTEX
 8
CYLINDER
 10
-0.0458
 20
-0.2252
 30
0.8749
 70
192
 0
VERTEX
 8
CYLINDER
 10
-0.0458
 20
-0.2252
 30
0.9855
 70
192
 0
VERTEX
 8
CYLINDER
 10
-0.0458
 20
-0.2252
 30
0.9855
 70
192
 0
VERTEX
 8
CYLINDER
 10
-0.0465
 20
-0.2268
 30
0.8749
 70
192
 0
VERTEX
 8
CYLINDER
 10
-0.0465
 20
-0.2268
 30
0.8749
 70
192
 0
VERTEX
 8
CYLINDER
 10
-0.0465
 20
-0.2268
 30
0.9855
 70
192
 0
VERTEX
 8
CYLINDER
 10
-0.0465
 20
-0.2268
 30
0.9855
 70
192
 0
VERTEX
 8
CYLINDER
 10
-0.047
 20
-0.2285
 30
0.8749
 70
192
 0
VERTEX
 8
CYLINDER
 10
-0.047
 20
-0.2285
 30
0.8749
 70
192
 0
VERTEX
 8
CYLINDER
 10
-0.047
 20
-0.2285
 30
0.9855
 70
192
 0
VERTEX
 8
CYLINDER
 10
-0.047
 20
-0.2285
 30
0.9855
 70
192
 0
VERTEX
 8
CYLINDER
 10
-0.0472
 20
-0.2303
 30
0.8749
 70
192
 0
VERTEX
 8
CYLINDER
 10
-0.0472
 20
-0.2303
 30
0.8749
 70
192
 0
VERTEX
 8
CYLINDER
 10
-0.0472
 20
-0.2303
 30
0.9855
 70
192
 0
VERTEX
 8
CYLINDER
 10
-0.0472
 20
-0.2303
 30
0.9855
 70
192
 0
VERTEX
 8
CYLINDER
 10
-0.047
 20
-0.2321
 30
0.8749
 70
192
 0
VERTEX
 8
CYLINDER
 10
-0.047
 20
-0.2321
 30
0.8749
 70
192
 0
VERTEX
 8
CYLINDER
 10
-0.047
 20
-0.2321
 30
0.9855
 70
192
 0
VERTEX
 8
CYLINDER
 10
-0.047
 20
-0.2321
 30
0.9855
 70
192
 0
VERTEX
 8
CYLINDER
 10
-0.0465
 20
-0.2339
 30
0.8749
 70
192
 0
VERTEX
 8
CYLINDER
 10
-0.0465
 20
-0.2339
 30
0.8749
 70
192
 0
VERTEX
 8
CYLINDER
 10
-0.0465
 20
-0.2339
 30
0.9855
 70
192
 0
VERTEX
 8
CYLINDER
 10
-0.0465
 20
-0.2339
 30
0.9855
 70
192
 0
VERTEX
 8
CYLINDER
 10
-0.0458
 20
-0.2355
 30
0.8749
 70
192
 0
VERTEX
 8
CYLINDER
 10
-0.0458
 20
-0.2355
 30
0.8749
 70
192
 0
VERTEX
 8
CYLINDER
 10
-0.0458
 20
-0.2355
 30
0.9855
 70
192
 0
VERTEX
 8
CYLINDER
 10
-0.0458
 20
-0.2355
 30
0.9855
 70
192
 0
VERTEX
 8
CYLINDER
 10
-0.0447
 20
-0.237
 30
0.8749
 70
192
 0
VERTEX
 8
CYLINDER
 10
-0.0447
 20
-0.237
 30
0.8749
 70
192
 0
VERTEX
 8
CYLINDER
 10
-0.0447
 20
-0.237
 30
0.9855
 70
192
 0
VERTEX
 8
CYLINDER
 10
-0.0447
 20
-0.237
 30
0.9855
 70
192
 0
VERTEX
 8
CYLINDER
 10
-0.0435
 20
-0.2382
 30
0.8749
 70
192
 0
VERTEX
 8
CYLINDER
 10
-0.0435
 20
-0.2382
 30
0.8749
 70
192
 0
VERTEX
 8
CYLINDER
 10
-0.0435
 20
-0.2382
 30
0.9855
 70
192
 0
VERTEX
 8
CYLINDER
 10
-0.0435
 20
-0.2382
 30
0.9855
 70
192
 0
VERTEX
 8
CYLINDER
 10
-0.042
 20
-0.2393
 30
0.8749
 70
192
 0
VERTEX
 8
CYLINDER
 10
-0.042
 20
-0.2393
 30
0.8749
 70
192
 0
VERTEX
 8
CYLINDER
 10
-0.042
 20
-0.2393
 30
0.9855
 70
192
 0
VERTEX
 8
CYLINDER
 10
-0.042
 20
-0.2393
 30
0.9855
 70
192
 0
VERTEX
 8
CYLINDER
 10
-0.0404
 20
-0.24
 30
0.8749
 70
192
 0
VERTEX
 8
CYLINDER
 10
-0.0404
 20
-0.24
 30
0.8749
 70
192
 0
VERTEX
 8
CYLINDER
 10
-0.0404
 20
-0.24
 30
0.9855
 70
192
 0
VERTEX
 8
CYLINDER
 10
-0.0404
 20
-0.24
 30
0.9855
 70
192
 0
VERTEX
 8
CYLINDER
 10
-0.0386
 20
-0.2405
 30
0.8749
 70
192
 0
VERTEX
 8
CYLINDER
 10
-0.0386
 20
-0.2405
 30
0.8749
 70
192
 0
VERTEX
 8
CYLINDER
 10
-0.0386
 20
-0.2405
 30
0.9855
 70
192
 0
VERTEX
 8
CYLINDER
 10
-0.0386
 20
-0.2405
 30
0.9855
 70
192
 0
VERTEX
 8
CYLINDER
 10
-0.0368
 20
-0.2406
 30
0.8749
 70
192
 0
VERTEX
 8
CYLINDER
 10
-0.0368
 20
-0.2406
 30
0.8749
 70
192
 0
VERTEX
 8
CYLINDER
 10
-0.0368
 20
-0.2406
 30
0.9855
 70
192
 0
VERTEX
 8
CYLINDER
 10
-0.0368
 20
-0.2406
 30
0.9855
 70
192
 0
VERTEX
 8
CYLINDER
 10
-0.035
 20
-0.2405
 30
0.8749
 70
192
 0
VERTEX
 8
CYLINDER
 10
-0.035
 20
-0.2405
 30
0.8749
 70
192
 0
VERTEX
 8
CYLINDER
 10
-0.035
 20
-0.2405
 30
0.9855
 70
192
 0
VERTEX
 8
CYLINDER
 10
-0.035
 20
-0.2405
 30
0.9855
 70
192
 0
VERTEX
 8
CYLINDER
 10
-0.0333
 20
-0.24
 30
0.8749
 70
192
 0
VERTEX
 8
CYLINDER
 10
-0.0333
 20
-0.24
 30
0.8749
 70
192
 0
VERTEX
 8
CYLINDER
 10
-0.0333
 20
-0.24
 30
0.9855
 70
192
 0
VERTEX
 8
CYLINDER
 10
-0.0333
 20
-0.24
 30
0.9855
 70
192
 0
VERTEX
 8
CYLINDER
 10
-0.0317
 20
-0.2393
 30
0.8749
 70
192
 0
VERTEX
 8
CYLINDER
 10
-0.0317
 20
-0.2393
 30
0.8749
 70
192
 0
VERTEX
 8
CYLINDER
 10
-0.0317
 20
-0.2393
 30
0.9855
 70
192
 0
VERTEX
 8
CYLINDER
 10
-0.0317
 20
-0.2393
 30
0.9855
 70
192
 0
VERTEX
 8
CYLINDER
 10
-0.0302
 20
-0.2382
 30
0.8749
 70
192
 0
VERTEX
 8
CYLINDER
 10
-0.0302
 20
-0.2382
 30
0.8749
 70
192
 0
VERTEX
 8
CYLINDER
 10
-0.0302
 20
-0.2382
 30
0.9855
 70
192
 0
VERTEX
 8
CYLINDER
 10
-0.0302
 20
-0.2382
 30
0.9855
 70
192
 0
VERTEX
 8
CYLINDER
 10
-0.0289
 20
-0.237
 30
0.8749
 70
192
 0
VERTEX
 8
CYLINDER
 10
-0.0289
 20
-0.237
 30
0.8749
 70
192
 0
VERTEX
 8
CYLINDER
 10
-0.0289
 20
-0.237
 30
0.9855
 70
192
 0
VERTEX
 8
CYLINDER
 10
-0.0289
 20
-0.237
 30
0.9855
 70
192
 0
VERTEX
 8
CYLINDER
 10
-0.0279
 20
-0.2355
 30
0.8749
 70
192
 0
VERTEX
 8
CYLINDER
 10
-0.0279
 20
-0.2355
 30
0.8749
 70
192
 0
VERTEX
 8
CYLINDER
 10
-0.0279
 20
-0.2355
 30
0.9855
 70
192
 0
VERTEX
 8
CYLINDER
 10
-0.0279
 20
-0.2355
 30
0.9855
 70
192
 0
VERTEX
 8
CYLINDER
 10
-0.0271
 20
-0.2339
 30
0.8749
 70
192
 0
VERTEX
 8
CYLINDER
 10
-0.0271
 20
-0.2339
 30
0.8749
 70
192
 0
VERTEX
 8
CYLINDER
 10
-0.0271
 20
-0.2339
 30
0.9855
 70
192
 0
VERTEX
 8
CYLINDER
 10
-0.0271
 20
-0.2339
 30
0.9855
 70
192
 0
VERTEX
 8
CYLINDER
 10
-0.0267
 20
-0.2321
 30
0.8749
 70
192
 0
VERTEX
 8
CYLINDER
 10
-0.0267
 20
-0.2321
 30
0.8749
 70
192
 0
VERTEX
 8
CYLINDER
 10
-0.0267
 20
-0.2321
 30
0.9855
 70
192
 0
VERTEX
 8
CYLINDER
 10
-0.0267
 20
-0.2321
 30
0.9855
 70
192
 0
VERTEX
 8
CYLINDER
 10
0
 20
0
 30
0
 70
128
 71
1
 72
3
 73
7
 74
7
 0
VERTEX
 8
CYLINDER
 10
0
 20
0
 30
0
 70
128
 71
4
 72
5
 73
9
 74
8
 0
VERTEX
 8
CYLINDER
 10
0
 20
0
 30
0
 70
128
 71
6
 72
2
 73
10
 74
10
 0
VERTEX
 8
CYLINDER
 10
0
 20
0
 30
0
 70
128
 71
1
 72
7
 73
11
 74
11
 0
VERTEX
 8
CYLINDER
 10
0
 20
0
 30
0
 70
128
 71
8
 72
9
 73
13
 74
12
 0
VERTEX
 8
CYLINDER
 10
0
 20
0
 30
0
 70
128
 71
10
 72
2
 73
14
 74
14
 0
VERTEX
 8
CYLINDER
 10
0
 20
0
 30
0
 70
128
 71
1
 72
11
 73
15
 74
15
 0
VERTEX
 8
CYLINDER
 10
0
 20
0
 30
0
 70
128
 71
12
 72
13
 73
17
 74
16
 0
VERTEX
 8
CYLINDER
 10
0
 20
0
 30
0
 70
128
 71
14
 72
2
 73
18
 74
18
 0
VERTEX
 8
CYLINDER
 10
0
 20
0
 30
0
 70
128
 71
1
 72
15
 73
19
 74
19
 0
VERTEX
 8
CYLINDER
 10
0
 20
0
 30
0
 70
128
 71
16
 72
17
 73
21
 74
20
 0
VERTEX
 8
CYLINDER
 10
0
 20
0
 30
0
 70
128
 71
18
 72
2
 73
22
 74
22
 0
VERTEX
 8
CYLINDER
 10
0
 20
0
 30
0
 70
128
 71
1
 72
19
 73
23
 74
23
 0
VERTEX
 8
CYLINDER
 10
0
 20
0
 30
0
 70
128
 71
20
 72
21
 73
25
 74
24
 0
VERTEX
 8
CYLINDER
 10
0
 20
0
 30
0
 70
128
 71
22
 72
2
 73
26
 74
26
 0
VERTEX
 8
CYLINDER
 10
0
 20
0
 30
0
 70
128
 71
1
 72
23
 73
27
 74
27
 0
VERTEX
 8
CYLINDER
 10
0
 20
0
 30
0
 70
128
 71
24
 72
25
 73
29
 74
28
 0
VERTEX
 8
CYLINDER
 10
0
 20
0
 30
0
 70
128
 71
26
 72
2
 73
30
 74
30
 0
VERTEX
 8
CYLINDER
 10
0
 20
0
 30
0
 70
128
 71
1
 72
27
 73
31
 74
31
 0
VERTEX
 8
CYLINDER
 10
0
 20
0
 30
0
 70
128
 71
28
 72
29
 73
33
 74
32
 0
VERTEX
 8
CYLINDER
 10
0
 20
0
 30
0
 70
128
 71
30
 72
2
 73
34
 74
34
 0
VERTEX
 8
CYLINDER
 10
0
 20
0
 30
0
 70
128
 71
1
 72
31
 73
35
 74
35
 0
VERTEX
 8
CYLINDER
 10
0
 20
0
 30
0
 70
128
 71
32
 72
33
 73
37
 74
36
 0
VERTEX
 8
CYLINDER
 10
0
 20
0
 30
0
 70
128
 71
34
 72
2
 73
38
 74
38
 0
VERTEX
 8
CYLINDER
 10
0
 20
0
 30
0
 70
128
 71
1
 72
35
 73
39
 74
39
 0
VERTEX
 8
CYLINDER
 10
0
 20
0
 30
0
 70
128
 71
36
 72
37
 73
41
 74
40
 0
VERTEX
 8
CYLINDER
 10
0
 20
0
 30
0
 70
128
 71
38
 72
2
 73
42
 74
42
 0
VERTEX
 8
CYLINDER
 10
0
 20
0
 30
0
 70
128
 71
1
 72
39
 73
43
 74
43
 0
VERTEX
 8
CYLINDER
 10
0
 20
0
 30
0
 70
128
 71
40
 72
41
 73
45
 74
44
 0
VERTEX
 8
CYLINDER
 10
0
 20
0
 30
0
 70
128
 71
42
 72
2
 73
46
 74
46
 0
VERTEX
 8
CYLINDER
 10
0
 20
0
 30
0
 70
128
 71
1
 72
43
 73
47
 74
47
 0
VERTEX
 8
CYLINDER
 10
0
 20
0
 30
0
 70
128
 71
44
 72
45
 73
49
 74
48
 0
VERTEX
 8
CYLINDER
 10
0
 20
0
 30
0
 70
128
 71
46
 72
2
 73
50
 74
50
 0
VERTEX
 8
CYLINDER
 10
0
 20
0
 30
0
 70
128
 71
1
 72
47
 73
51
 74
51
 0
VERTEX
 8
CYLINDER
 10
0
 20
0
 30
0
 70
128
 71
48
 72
49
 73
53
 74
52
 0
VERTEX
 8
CYLINDER
 10
0
 20
0
 30
0
 70
128
 71
50
 72
2
 73
54
 74
54
 0
VERTEX
 8
CYLINDER
 10
0
 20
0
 30
0
 70
128
 71
1
 72
51
 73
55
 74
55
 0
VERTEX
 8
CYLINDER
 10
0
 20
0
 30
0
 70
128
 71
52
 72
53
 73
57
 74
56
 0
VERTEX
 8
CYLINDER
 10
0
 20
0
 30
0
 70
128
 71
54
 72
2
 73
58
 74
58
 0
VERTEX
 8
CYLINDER
 10
0
 20
0
 30
0
 70
128
 71
1
 72
55
 73
59
 74
59
 0
VERTEX
 8
CYLINDER
 10
0
 20
0
 30
0
 70
128
 71
56
 72
57
 73
61
 74
60
 0
VERTEX
 8
CYLINDER
 10
0
 20
0
 30
0
 70
128
 71
58
 72
2
 73
62
 74
62
 0
VERTEX
 8
CYLINDER
 10
0
 20
0
 30
0
 70
128
 71
1
 72
59
 73
63
 74
63
 0
VERTEX
 8
CYLINDER
 10
0
 20
0
 30
0
 70
128
 71
60
 72
61
 73
65
 74
64
 0
VERTEX
 8
CYLINDER
 10
0
 20
0
 30
0
 70
128
 71
62
 72
2
 73
66
 74
66
 0
VERTEX
 8
CYLINDER
 10
0
 20
0
 30
0
 70
128
 71
1
 72
63
 73
67
 74
67
 0
VERTEX
 8
CYLINDER
 10
0
 20
0
 30
0
 70
128
 71
64
 72
65
 73
69
 74
68
 0
VERTEX
 8
CYLINDER
 10
0
 20
0
 30
0
 70
128
 71
66
 72
2
 73
70
 74
70
 0
VERTEX
 8
CYLINDER
 10
0
 20
0
 30
0
 70
128
 71
1
 72
67
 73
71
 74
71
 0
VERTEX
 8
CYLINDER
 10
0
 20
0
 30
0
 70
128
 71
68
 72
69
 73
73
 74
72
 0
VERTEX
 8
CYLINDER
 10
0
 20
0
 30
0
 70
128
 71
70
 72
2
 73
74
 74
74
 0
VERTEX
 8
CYLINDER
 10
0
 20
0
 30
0
 70
128
 71
1
 72
71
 73
75
 74
75
 0
VERTEX
 8
CYLINDER
 10
0
 20
0
 30
0
 70
128
 71
72
 72
73
 73
77
 74
76
 0
VERTEX
 8
CYLINDER
 10
0
 20
0
 30
0
 70
128
 71
74
 72
2
 73
78
 74
78
 0
VERTEX
 8
CYLINDER
 10
0
 20
0
 30
0
 70
128
 71
1
 72
75
 73
79
 74
79
 0
VERTEX
 8
CYLINDER
 10
0
 20
0
 30
0
 70
128
 71
76
 72
77
 73
81
 74
80
 0
VERTEX
 8
CYLINDER
 10
0
 20
0
 30
0
 70
128
 71
78
 72
2
 73
82
 74
82
 0
VERTEX
 8
CYLINDER
 10
0
 20
0
 30
0
 70
128
 71
1
 72
79
 73
83
 74
83
 0
VERTEX
 8
CYLINDER
 10
0
 20
0
 30
0
 70
128
 71
80
 72
81
 73
85
 74
84
 0
VERTEX
 8
CYLINDER
 10
0
 20
0
 30
0
 70
128
 71
82
 72
2
 73
86
 74
86
 0
VERTEX
 8
CYLINDER
 10
0
 20
0
 30
0
 70
128
 71
1
 72
83
 73
87
 74
87
 0
VERTEX
 8
CYLINDER
 10
0
 20
0
 30
0
 70
128
 71
84
 72
85
 73
89
 74
88
 0
VERTEX
 8
CYLINDER
 10
0
 20
0
 30
0
 70
128
 71
86
 72
2
 73
90
 74
90
 0
VERTEX
 8
CYLINDER
 10
0
 20
0
 30
0
 70
128
 71
1
 72
87
 73
91
 74
91
 0
VERTEX
 8
CYLINDER
 10
0
 20
0
 30
0
 70
128
 71
88
 72
89
 73
93
 74
92
 0
VERTEX
 8
CYLINDER
 10
0
 20
0
 30
0
 70
128
 71
90
 72
2
 73
94
 74
94
 0
VERTEX
 8
CYLINDER
 10
0
 20
0
 30
0
 70
128
 71
1
 72
91
 73
95
 74
95
 0
VERTEX
 8
CYLINDER
 10
0
 20
0
 30
0
 70
128
 71
92
 72
93
 73
97
 74
96
 0
VERTEX
 8
CYLINDER
 10
0
 20
0
 30
0
 70
128
 71
94
 72
2
 73
98
 74
98
 0
VERTEX
 8
CYLINDER
 10
0
 20
0
 30
0
 70
128
 71
1
 72
95
 73
99
 74
99
 0
VERTEX
 8
CYLINDER
 10
0
 20
0
 30
0
 70
128
 71
96
 72
97
 73
101
 74
100
 0
VERTEX
 8
CYLINDER
 10
0
 20
0
 30
0
 70
128
 71
98
 72
2
 73
102
 74
102
 0
VERTEX
 8
CYLINDER
 10
0
 20
0
 30
0
 70
128
 71
1
 72
99
 73
103
 74
103
 0
VERTEX
 8
CYLINDER
 10
0
 20
0
 30
0
 70
128
 71
100
 72
101
 73
105
 74
104
 0
VERTEX
 8
CYLINDER
 10
0
 20
0
 30
0
 70
128
 71
102
 72
2
 73
106
 74
106
 0
VERTEX
 8
CYLINDER
 10
0
 20
0
 30
0
 70
128
 71
1
 72
103
 73
107
 74
107
 0
VERTEX
 8
CYLINDER
 10
0
 20
0
 30
0
 70
128
 71
104
 72
105
 73
109
 74
108
 0
VERTEX
 8
CYLINDER
 10
0
 20
0
 30
0
 70
128
 71
106
 72
2
 73
110
 74
110
 0
VERTEX
 8
CYLINDER
 10
0
 20
0
 30
0
 70
128
 71
1
 72
107
 73
111
 74
111
 0
VERTEX
 8
CYLINDER
 10
0
 20
0
 30
0
 70
128
 71
108
 72
109
 73
113
 74
112
 0
VERTEX
 8
CYLINDER
 10
0
 20
0
 30
0
 70
128
 71
110
 72
2
 73
114
 74
114
 0
VERTEX
 8
CYLINDER
 10
0
 20
0
 30
0
 70
128
 71
1
 72
111
 73
115
 74
115
 0
VERTEX
 8
CYLINDER
 10
0
 20
0
 30
0
 70
128
 71
112
 72
113
 73
117
 74
116
 0
VERTEX
 8
CYLINDER
 10
0
 20
0
 30
0
 70
128
 71
114
 72
2
 73
118
 74
118
 0
VERTEX
 8
CYLINDER
 10
0
 20
0
 30
0
 70
128
 71
1
 72
115
 73
119
 74
119
 0
VERTEX
 8
CYLINDER
 10
0
 20
0
 30
0
 70
128
 71
116
 72
117
 73
121
 74
120
 0
VERTEX
 8
CYLINDER
 10
0
 20
0
 30
0
 70
128
 71
118
 72
2
 73
122
 74
122
 0
VERTEX
 8
CYLINDER
 10
0
 20
0
 30
0
 70
128
 71
1
 72
119
 73
123
 74
123
 0
VERTEX
 8
CYLINDER
 10
0
 20
0
 30
0
 70
128
 71
120
 72
121
 73
125
 74
124
 0
VERTEX
 8
CYLINDER
 10
0
 20
0
 30
0
 70
128
 71
122
 72
2
 73
126
 74
126
 0
VERTEX
 8
CYLINDER
 10
0
 20
0
 30
0
 70
128
 71
1
 72
123
 73
127
 74
127
 0
VERTEX
 8
CYLINDER
 10
0
 20
0
 30
0
 70
128
 71
124
 72
125
 73
129
 74
128
 0
VERTEX
 8
CYLINDER
 10
0
 20
0
 30
0
 70
128
 71
126
 72
2
 73
130
 74
130
 0
VERTEX
 8
CYLINDER
 10
0
 20
0
 30
0
 70
128
 71
1
 72
127
 73
131
 74
131
 0
VERTEX
 8
CYLINDER
 10
0
 20
0
 30
0
 70
128
 71
128
 72
129
 73
133
 74
132
 0
VERTEX
 8
CYLINDER
 10
0
 20
0
 30
0
 70
128
 71
130
 72
2
 73
134
 74
134
 0
VERTEX
 8
CYLINDER
 10
0
 20
0
 30
0
 70
128
 71
1
 72
131
 73
135
 74
135
 0
VERTEX
 8
CYLINDER
 10
0
 20
0
 30
0
 70
128
 71
132
 72
133
 73
137
 74
136
 0
VERTEX
 8
CYLINDER
 10
0
 20
0
 30
0
 70
128
 71
134
 72
2
 73
138
 74
138
 0
VERTEX
 8
CYLINDER
 10
0
 20
0
 30
0
 70
128
 71
1
 72
135
 73
139
 74
139
 0
VERTEX
 8
CYLINDER
 10
0
 20
0
 30
0
 70
128
 71
136
 72
137
 73
141
 74
140
 0
VERTEX
 8
CYLINDER
 10
0
 20
0
 30
0
 70
128
 71
138
 72
2
 73
142
 74
142
 0
VERTEX
 8
CYLINDER
 10
0
 20
0
 30
0
 70
128
 71
1
 72
139
 73
143
 74
143
 0
VERTEX
 8
CYLINDER
 10
0
 20
0
 30
0
 70
128
 71
140
 72
141
 73
145
 74
144
 0
VERTEX
 8
CYLINDER
 10
0
 20
0
 30
0
 70
128
 71
142
 72
2
 73
146
 74
146
 0
VERTEX
 8
CYLINDER
 10
0
 20
0
 30
0
 70
128
 71
1
 72
143
 73
3
 74
3
 0
VERTEX
 8
CYLINDER
 10
0
 20
0
 30
0
 70
128
 71
144
 72
145
 73
5
 74
4
 0
VERTEX
 8
CYLINDER
 10
0
 20
0
 30
0
 70
128
 71
146
 72
2
 73
6
 74
6
 0
SEQEND
 0
POLYLINE
 8
CUBE_13
 66
1
 10
0.0
 20
0.0
 30
0.0
 70
64
 71
8
 72
6
 0
VERTEX
 8
CUBE_13
 10
-0.3593
 20
-0.1838
 30
0.5913
 70
192
 0
VERTEX
 8
CUBE_13
 10
-0.3593
 20
-0.1838
 30
0.6163
 70
192
 0
VERTEX
 8
CUBE_13
 10
0.367
 20
-0.1838
 30
0.5913
 70
192
 0
VERTEX
 8
CUBE_13
 10
0.367
 20
-0.1838
 30
0.6163
 70
192
 0
VERTEX
 8
CUBE_13
 10
0.367
 20
-0.1588
 30
0.5913
 70
192
 0
VERTEX
 8
CUBE_13
 10
0.367
 20
-0.1588
 30
0.6163
 70
192
 0
VERTEX
 8
CUBE_13
 10
-0.3593
 20
-0.1588
 30
0.5913
 70
192
 0
VERTEX
 8
CUBE_13
 10
-0.3593
 20
-0.1588
 30
0.6163
 70
192
 0
VERTEX
 8
CUBE_13
 10
0
 20
0
 30
0
 70
128
 71
1
 72
2
 73
4
 74
3
 0
VERTEX
 8
CUBE_13
 10
0
 20
0
 30
0
 70
128
 71
3
 72
4
 73
6
 74
5
 0
VERTEX
 8
CUBE_13
 10
0
 20
0
 30
0
 70
128
 71
5
 72
6
 73
8
 74
7
 0
VERTEX
 8
CUBE_13
 10
0
 20
0
 30
0
 70
128
 71
7
 72
8
 73
2
 74
1
 0
VERTEX
 8
CUBE_13
 10
0
 20
0
 30
0
 70
128
 71
2
 72
8
 73
6
 74
4
 0
VERTEX
 8
CUBE_13
 10
0
 20
0
 30
0
 70
128
 71
7
 72
1
 73
3
 74
5
 0
SEQEND
 0
POLYLINE
 8
CUBE_12
 66
1
 10
0.0
 20
0.0
 30
0.0
 70
64
 71
8
 72
6
 0
VERTEX
 8
CUBE_12
 10
-0.3593
 20
0.1619
 30
0.5913
 70
192
 0
VERTEX
 8
CUBE_12
 10
-0.3593
 20
0.1619
 30
0.6163
 70
192
 0
VERTEX
 8
CUBE_12
 10
0.367
 20
0.1619
 30
0.5913
 70
192
 0
VERTEX
 8
CUBE_12
 10
0.367
 20
0.1619
 30
0.6163
 70
192
 0
VERTEX
 8
CUBE_12
 10
0.367
 20
0.1869
 30
0.5913
 70
192
 0
VERTEX
 8
CUBE_12
 10
0.367
 20
0.1869
 30
0.6163
 70
192
 0
VERTEX
 8
CUBE_12
 10
-0.3593
 20
0.1869
 30
0.5913
 70
192
 0
VERTEX
 8
CUBE_12
 10
-0.3593
 20
0.1869
 30
0.6163
 70
192
 0
VERTEX
 8
CUBE_12
 10
0
 20
0
 30
0
 70
128
 71
1
 72
2
 73
4
 74
3
 0
VERTEX
 8
CUBE_12
 10
0
 20
0
 30
0
 70
128
 71
3
 72
4
 73
6
 74
5
 0
VERTEX
 8
CUBE_12
 10
0
 20
0
 30
0
 70
128
 71
5
 72
6
 73
8
 74
7
 0
VERTEX
 8
CUBE_12
 10
0
 20
0
 30
0
 70
128
 71
7
 72
8
 73
2
 74
1
 0
VERTEX
 8
CUBE_12
 10
0
 20
0
 30
0
 70
128
 71
2
 72
8
 73
6
 74
4
 0
VERTEX
 8
CUBE_12
 10
0
 20
0
 30
0
 70
128
 71
7
 72
1
 73
3
 74
5
 0
SEQEND
 0
POLYLINE
 8
CUBE_11
 66
1
 10
0.0
 20
0.0
 30
0.0
 70
64
 71
8
 72
6
 0
VERTEX
 8
CUBE_11
 10
0.376
 20
-0.1824
 30
0.5913
 70
192
 0
VERTEX
 8
CUBE_11
 10
0.376
 20
-0.1824
 30
0.6163
 70
192
 0
VERTEX
 8
CUBE_11
 10
0.376
 20
0.1814
 30
0.5913
 70
192
 0
VERTEX
 8
CUBE_11
 10
0.376
 20
0.1814
 30
0.6163
 70
192
 0
VERTEX
 8
CUBE_11
 10
0.351
 20
0.1814
 30
0.5913
 70
192
 0
VERTEX
 8
CUBE_11
 10
0.351
 20
0.1814
 30
0.6163
 70
192
 0
VERTEX
 8
CUBE_11
 10
0.351
 20
-0.1824
 30
0.5913
 70
192
 0
VERTEX
 8
CUBE_11
 10
0.351
 20
-0.1824
 30
0.6163
 70
192
 0
VERTEX
 8
CUBE_11
 10
0
 20
0
 30
0
 70
128
 71
1
 72
2
 73
4
 74
3
 0
VERTEX
 8
CUBE_11
 10
0
 20
0
 30
0
 70
128
 71
3
 72
4
 73
6
 74
5
 0
VERTEX
 8
CUBE_11
 10
0
 20
0
 30
0
 70
128
 71
5
 72
6
 73
8
 74
7
 0
VERTEX
 8
CUBE_11
 10
0
 20
0
 30
0
 70
128
 71
7
 72
8
 73
2
 74
1
 0
VERTEX
 8
CUBE_11
 10
0
 20
0
 30
0
 70
128
 71
2
 72
8
 73
6
 74
4
 0
VERTEX
 8
CUBE_11
 10
0
 20
0
 30
0
 70
128
 71
7
 72
1
 73
3
 74
5
 0
SEQEND
 0
POLYLINE
 8
CUBE_10
 66
1
 10
0.0
 20
0.0
 30
0.0
 70
64
 71
8
 72
6
 0
VERTEX
 8
CUBE_10
 10
-0.3374
 20
-0.1824
 30
0.5913
 70
192
 0
VERTEX
 8
CUBE_10
 10
-0.3374
 20
-0.1824
 30
0.6163
 70
192
 0
VERTEX
 8
CUBE_10
 10
-0.3374
 20
0.1814
 30
0.5913
 70
192
 0
VERTEX
 8
CUBE_10
 10
-0.3374
 20
0.1814
 30
0.6163
 70
192
 0
VERTEX
 8
CUBE_10
 10
-0.3624
 20
0.1814
 30
0.5913
 70
192
 0
VERTEX
 8
CUBE_10
 10
-0.3624
 20
0.1814
 30
0.6163
 70
192
 0
VERTEX
 8
CUBE_10
 10
-0.3624
 20
-0.1824
 30
0.5913
 70
192
 0
VERTEX
 8
CUBE_10
 10
-0.3624
 20
-0.1824
 30
0.6163
 70
192
 0
VERTEX
 8
CUBE_10
 10
0
 20
0
 30
0
 70
128
 71
1
 72
2
 73
4
 74
3
 0
VERTEX
 8
CUBE_10
 10
0
 20
0
 30
0
 70
128
 71
3
 72
4
 73
6
 74
5
 0
VERTEX
 8
CUBE_10
 10
0
 20
0
 30
0
 70
128
 71
5
 72
6
 73
8
 74
7
 0
VERTEX
 8
CUBE_10
 10
0
 20
0
 30
0
 70
128
 71
7
 72
8
 73
2
 74
1
 0
VERTEX
 8
CUBE_10
 10
0
 20
0
 30
0
 70
128
 71
2
 72
8
 73
6
 74
4
 0
VERTEX
 8
CUBE_10
 10
0
 20
0
 30
0
 70
128
 71
7
 72
1
 73
3
 74
5
 0
SEQEND
 0
POLYLINE
 8
CUBE_9
 66
1
 10
0.0
 20
0.0
 30
0.0
 70
64
 71
8
 72
6
 0
VERTEX
 8
CUBE_9
 10
-0.3374
 20
-0.1824
 30
0.0095
 70
192
 0
VERTEX
 8
CUBE_9
 10
-0.3374
 20
-0.1824
 30
0.0345
 70
192
 0
VERTEX
 8
CUBE_9
 10
-0.3374
 20
0.1814
 30
0.0095
 70
192
 0
VERTEX
 8
CUBE_9
 10
-0.3374
 20
0.1814
 30
0.0345
 70
192
 0
VERTEX
 8
CUBE_9
 10
-0.3624
 20
0.1814
 30
0.0095
 70
192
 0
VERTEX
 8
CUBE_9
 10
-0.3624
 20
0.1814
 30
0.0345
 70
192
 0
VERTEX
 8
CUBE_9
 10
-0.3624
 20
-0.1824
 30
0.0095
 70
192
 0
VERTEX
 8
CUBE_9
 10
-0.3624
 20
-0.1824
 30
0.0345
 70
192
 0
VERTEX
 8
CUBE_9
 10
0
 20
0
 30
0
 70
128
 71
1
 72
2
 73
4
 74
3
 0
VERTEX
 8
CUBE_9
 10
0
 20
0
 30
0
 70
128
 71
3
 72
4
 73
6
 74
5
 0
VERTEX
 8
CUBE_9
 10
0
 20
0
 30
0
 70
128
 71
5
 72
6
 73
8
 74
7
 0
VERTEX
 8
CUBE_9
 10
0
 20
0
 30
0
 70
128
 71
7
 72
8
 73
2
 74
1
 0
VERTEX
 8
CUBE_9
 10
0
 20
0
 30
0
 70
128
 71
2
 72
8
 73
6
 74
4
 0
VERTEX
 8
CUBE_9
 10
0
 20
0
 30
0
 70
128
 71
7
 72
1
 73
3
 74
5
 0
SEQEND
 0
POLYLINE
 8
CUBE_8
 66
1
 10
0.0
 20
0.0
 30
0.0
 70
64
 71
8
 72
6
 0
VERTEX
 8
CUBE_8
 10
0.376
 20
-0.1824
 30
0.0095
 70
192
 0
VERTEX
 8
CUBE_8
 10
0.376
 20
-0.1824
 30
0.0345
 70
192
 0
VERTEX
 8
CUBE_8
 10
0.376
 20
0.1814
 30
0.0095
 70
192
 0
VERTEX
 8
CUBE_8
 10
0.376
 20
0.1814
 30
0.0345
 70
192
 0
VERTEX
 8
CUBE_8
 10
0.351
 20
0.1814
 30
0.0095
 70
192
 0
VERTEX
 8
CUBE_8
 10
0.351
 20
0.1814
 30
0.0345
 70
192
 0
VERTEX
 8
CUBE_8
 10
0.351
 20
-0.1824
 30
0.0095
 70
192
 0
VERTEX
 8
CUBE_8
 10
0.351
 20
-0.1824
 30
0.0345
 70
192
 0
VERTEX
 8
CUBE_8
 10
0
 20
0
 30
0
 70
128
 71
1
 72
2
 73
4
 74
3
 0
VERTEX
 8
CUBE_8
 10
0
 20
0
 30
0
 70
128
 71
3
 72
4
 73
6
 74
5
 0
VERTEX
 8
CUBE_8
 10
0
 20
0
 30
0
 70
128
 71
5
 72
6
 73
8
 74
7
 0
VERTEX
 8
CUBE_8
 10
0
 20
0
 30
0
 70
128
 71
7
 72
8
 73
2
 74
1
 0
VERTEX
 8
CUBE_8
 10
0
 20
0
 30
0
 70
128
 71
2
 72
8
 73
6
 74
4
 0
VERTEX
 8
CUBE_8
 10
0
 20
0
 30
0
 70
128
 71
7
 72
1
 73
3
 74
5
 0
SEQEND
 0
POLYLINE
 8
CUBE_7
 66
1
 10
0.0
 20
0.0
 30
0.0
 70
64
 71
8
 72
6
 0
VERTEX
 8
CUBE_7
 10
-0.3593
 20
0.1619
 30
0.0095
 70
192
 0
VERTEX
 8
CUBE_7
 10
-0.3593
 20
0.1619
 30
0.0345
 70
192
 0
VERTEX
 8
CUBE_7
 10
0.367
 20
0.1619
 30
0.0095
 70
192
 0
VERTEX
 8
CUBE_7
 10
0.367
 20
0.1619
 30
0.0345
 70
192
 0
VERTEX
 8
CUBE_7
 10
0.367
 20
0.1869
 30
0.0095
 70
192
 0
VERTEX
 8
CUBE_7
 10
0.367
 20
0.1869
 30
0.0345
 70
192
 0
VERTEX
 8
CUBE_7
 10
-0.3593
 20
0.1869
 30
0.0095
 70
192
 0
VERTEX
 8
CUBE_7
 10
-0.3593
 20
0.1869
 30
0.0345
 70
192
 0
VERTEX
 8
CUBE_7
 10
0
 20
0
 30
0
 70
128
 71
1
 72
2
 73
4
 74
3
 0
VERTEX
 8
CUBE_7
 10
0
 20
0
 30
0
 70
128
 71
3
 72
4
 73
6
 74
5
 0
VERTEX
 8
CUBE_7
 10
0
 20
0
 30
0
 70
128
 71
5
 72
6
 73
8
 74
7
 0
VERTEX
 8
CUBE_7
 10
0
 20
0
 30
0
 70
128
 71
7
 72
8
 73
2
 74
1
 0
VERTEX
 8
CUBE_7
 10
0
 20
0
 30
0
 70
128
 71
2
 72
8
 73
6
 74
4
 0
VERTEX
 8
CUBE_7
 10
0
 20
0
 30
0
 70
128
 71
7
 72
1
 73
3
 74
5
 0
SEQEND
 0
POLYLINE
 8
CUBE_6
 66
1
 10
0.0
 20
0.0
 30
0.0
 70
64
 71
8
 72
6
 0
VERTEX
 8
CUBE_6
 10
-0.3593
 20
-0.1838
 30
0.0095
 70
192
 0
VERTEX
 8
CUBE_6
 10
-0.3593
 20
-0.1838
 30
0.0345
 70
192
 0
VERTEX
 8
CUBE_6
 10
0.367
 20
-0.1838
 30
0.0095
 70
192
 0
VERTEX
 8
CUBE_6
 10
0.367
 20
-0.1838
 30
0.0345
 70
192
 0
VERTEX
 8
CUBE_6
 10
0.367
 20
-0.1588
 30
0.0095
 70
192
 0
VERTEX
 8
CUBE_6
 10
0.367
 20
-0.1588
 30
0.0345
 70
192
 0
VERTEX
 8
CUBE_6
 10
-0.3593
 20
-0.1588
 30
0.0095
 70
192
 0
VERTEX
 8
CUBE_6
 10
-0.3593
 20
-0.1588
 30
0.0345
 70
192
 0
VERTEX
 8
CUBE_6
 10
0
 20
0
 30
0
 70
128
 71
1
 72
2
 73
4
 74
3
 0
VERTEX
 8
CUBE_6
 10
0
 20
0
 30
0
 70
128
 71
3
 72
4
 73
6
 74
5
 0
VERTEX
 8
CUBE_6
 10
0
 20
0
 30
0
 70
128
 71
5
 72
6
 73
8
 74
7
 0
VERTEX
 8
CUBE_6
 10
0
 20
0
 30
0
 70
128
 71
7
 72
8
 73
2
 74
1
 0
VERTEX
 8
CUBE_6
 10
0
 20
0
 30
0
 70
128
 71
2
 72
8
 73
6
 74
4
 0
VERTEX
 8
CUBE_6
 10
0
 20
0
 30
0
 70
128
 71
7
 72
1
 73
3
 74
5
 0
SEQEND
 0
POLYLINE
 8
CUBE_5
 66
1
 10
0.0
 20
0.0
 30
0.0
 70
64
 71
8
 72
6
 0
VERTEX
 8
CUBE_5
 10
0.3506
 20
0.162
 30
0.009
 70
192
 0
VERTEX
 8
CUBE_5
 10
0.3506
 20
0.162
 30
0.609
 70
192
 0
VERTEX
 8
CUBE_5
 10
0.3756
 20
0.162
 30
0.009
 70
192
 0
VERTEX
 8
CUBE_5
 10
0.3756
 20
0.162
 30
0.609
 70
192
 0
VERTEX
 8
CUBE_5
 10
0.3756
 20
0.187
 30
0.009
 70
192
 0
VERTEX
 8
CUBE_5
 10
0.3756
 20
0.187
 30
0.609
 70
192
 0
VERTEX
 8
CUBE_5
 10
0.3506
 20
0.187
 30
0.009
 70
192
 0
VERTEX
 8
CUBE_5
 10
0.3506
 20
0.187
 30
0.609
 70
192
 0
VERTEX
 8
CUBE_5
 10
0
 20
0
 30
0
 70
128
 71
1
 72
2
 73
4
 74
3
 0
VERTEX
 8
CUBE_5
 10
0
 20
0
 30
0
 70
128
 71
3
 72
4
 73
6
 74
5
 0
VERTEX
 8
CUBE_5
 10
0
 20
0
 30
0
 70
128
 71
5
 72
6
 73
8
 74
7
 0
VERTEX
 8
CUBE_5
 10
0
 20
0
 30
0
 70
128
 71
7
 72
8
 73
2
 74
1
 0
VERTEX
 8
CUBE_5
 10
0
 20
0
 30
0
 70
128
 71
2
 72
8
 73
6
 74
4
 0
VERTEX
 8
CUBE_5
 10
0
 20
0
 30
0
 70
128
 71
7
 72
1
 73
3
 74
5
 0
SEQEND
 0
POLYLINE
 8
CUBE_4
 66
1
 10
0.0
 20
0.0
 30
0.0
 70
64
 71
8
 72
6
 0
VERTEX
 8
CUBE_4
 10
-0.3627
 20
0.162
 30
0.009
 70
192
 0
VERTEX
 8
CUBE_4
 10
-0.3627
 20
0.162
 30
0.609
 70
192
 0
VERTEX
 8
CUBE_4
 10
-0.3377
 20
0.162
 30
0.009
 70
192
 0
VERTEX
 8
CUBE_4
 10
-0.3377
 20
0.162
 30
0.609
 70
192
 0
VERTEX
 8
CUBE_4
 10
-0.3377
 20
0.187
 30
0.009
 70
192
 0
VERTEX
 8
CUBE_4
 10
-0.3377
 20
0.187
 30
0.609
 70
192
 0
VERTEX
 8
CUBE_4
 10
-0.3627
 20
0.187
 30
0.009
 70
192
 0
VERTEX
 8
CUBE_4
 10
-0.3627
 20
0.187
 30
0.609
 70
192
 0
VERTEX
 8
CUBE_4
 10
0
 20
0
 30
0
 70
128
 71
1
 72
2
 73
4
 74
3
 0
VERTEX
 8
CUBE_4
 10
0
 20
0
 30
0
 70
128
 71
3
 72
4
 73
6
 74
5
 0
VERTEX
 8
CUBE_4
 10
0
 20
0
 30
0
 70
128
 71
5
 72
6
 73
8
 74
7
 0
VERTEX
 8
CUBE_4
 10
0
 20
0
 30
0
 70
128
 71
7
 72
8
 73
2
 74
1
 0
VERTEX
 8
CUBE_4
 10
0
 20
0
 30
0
 70
128
 71
2
 72
8
 73
6
 74
4
 0
VERTEX
 8
CUBE_4
 10
0
 20
0
 30
0
 70
128
 71
7
 72
1
 73
3
 74
5
 0
SEQEND
 0
POLYLINE
 8
CUBE_3
 66
1
 10
0.0
 20
0.0
 30
0.0
 70
64
 71
8
 72
6
 0
VERTEX
 8
CUBE_3
 10
-0.3627
 20
-0.1836
 30
0.009
 70
192
 0
VERTEX
 8
CUBE_3
 10
-0.3627
 20
-0.1836
 30
0.609
 70
192
 0
VERTEX
 8
CUBE_3
 10
-0.3377
 20
-0.1836
 30
0.009
 70
192
 0
VERTEX
 8
CUBE_3
 10
-0.3377
 20
-0.1836
 30
0.609
 70
192
 0
VERTEX
 8
CUBE_3
 10
-0.3377
 20
-0.1586
 30
0.009
 70
192
 0
VERTEX
 8
CUBE_3
 10
-0.3377
 20
-0.1586
 30
0.609
 70
192
 0
VERTEX
 8
CUBE_3
 10
-0.3627
 20
-0.1586
 30
0.009
 70
192
 0
VERTEX
 8
CUBE_3
 10
-0.3627
 20
-0.1586
 30
0.609
 70
192
 0
VERTEX
 8
CUBE_3
 10
0
 20
0
 30
0
 70
128
 71
1
 72
2
 73
4
 74
3
 0
VERTEX
 8
CUBE_3
 10
0
 20
0
 30
0
 70
128
 71
3
 72
4
 73
6
 74
5
 0
VERTEX
 8
CUBE_3
 10
0
 20
0
 30
0
 70
128
 71
5
 72
6
 73
8
 74
7
 0
VERTEX
 8
CUBE_3
 10
0
 20
0
 30
0
 70
128
 71
7
 72
8
 73
2
 74
1
 0
VERTEX
 8
CUBE_3
 10
0
 20
0
 30
0
 70
128
 71
2
 72
8
 73
6
 74
4
 0
VERTEX
 8
CUBE_3
 10
0
 20
0
 30
0
 70
128
 71
7
 72
1
 73
3
 74
5
 0
SEQEND
 0
POLYLINE
 8
CUBE_2
 66
1
 10
0.0
 20
0.0
 30
0.0
 70
64
 71
8
 72
6
 0
VERTEX
 8
CUBE_2
 10
0.3506
 20
-0.1836
 30
0.009
 70
192
 0
VERTEX
 8
CUBE_2
 10
0.3506
 20
-0.1836
 30
0.609
 70
192
 0
VERTEX
 8
CUBE_2
 10
0.3756
 20
-0.1836
 30
0.009
 70
192
 0
VERTEX
 8
CUBE_2
 10
0.3756
 20
-0.1836
 30
0.609
 70
192
 0
VERTEX
 8
CUBE_2
 10
0.3756
 20
-0.1586
 30
0.009
 70
192
 0
VERTEX
 8
CUBE_2
 10
0.3756
 20
-0.1586
 30
0.609
 70
192
 0
VERTEX
 8
CUBE_2
 10
0.3506
 20
-0.1586
 30
0.009
 70
192
 0
VERTEX
 8
CUBE_2
 10
0.3506
 20
-0.1586
 30
0.609
 70
192
 0
VERTEX
 8
CUBE_2
 10
0
 20
0
 30
0
 70
128
 71
1
 72
2
 73
4
 74
3
 0
VERTEX
 8
CUBE_2
 10
0
 20
0
 30
0
 70
128
 71
3
 72
4
 73
6
 74
5
 0
VERTEX
 8
CUBE_2
 10
0
 20
0
 30
0
 70
128
 71
5
 72
6
 73
8
 74
7
 0
VERTEX
 8
CUBE_2
 10
0
 20
0
 30
0
 70
128
 71
7
 72
8
 73
2
 74
1
 0
VERTEX
 8
CUBE_2
 10
0
 20
0
 30
0
 70
128
 71
2
 72
8
 73
6
 74
4
 0
VERTEX
 8
CUBE_2
 10
0
 20
0
 30
0
 70
128
 71
7
 72
1
 73
3
 74
5
 0
SEQEND
 0
POLYLINE
 8
CUBE_14
 66
1
 10
0.0
 20
0.0
 30
0.0
 70
64
 71
8
 72
6
 0
VERTEX
 8
CUBE_14
 10
-0.38
 20
-0.205
 30
0.6092
 70
192
 0
VERTEX
 8
CUBE_14
 10
-0.38
 20
-0.205
 30
1.2527
 70
192
 0
VERTEX
 8
CUBE_14
 10
0.38
 20
-0.205
 30
0.6092
 70
192
 0
VERTEX
 8
CUBE_14
 10
0.38
 20
-0.205
 30
1.2527
 70
192
 0
VERTEX
 8
CUBE_14
 10
0.38
 20
0.205
 30
0.6092
 70
192
 0
VERTEX
 8
CUBE_14
 10
0.38
 20
0.205
 30
1.2527
 70
192
 0
VERTEX
 8
CUBE_14
 10
-0.38
 20
0.205
 30
0.6092
 70
192
 0
VERTEX
 8
CUBE_14
 10
-0.38
 20
0.205
 30
1.2527
 70
192
 0
VERTEX
 8
CUBE_14
 10
0
 20
0
 30
0
 70
128
 71
1
 72
2
 73
4
 74
3
 0
VERTEX
 8
CUBE_14
 10
0
 20
0
 30
0
 70
128
 71
3
 72
4
 73
6
 74
5
 0
VERTEX
 8
CUBE_14
 10
0
 20
0
 30
0
 70
128
 71
5
 72
6
 73
8
 74
7
 0
VERTEX
 8
CUBE_14
 10
0
 20
0
 30
0
 70
128
 71
7
 72
8
 73
2
 74
1
 0
VERTEX
 8
CUBE_14
 10
0
 20
0
 30
0
 70
128
 71
2
 72
8
 73
6
 74
4
 0
VERTEX
 8
CUBE_14
 10
0
 20
0
 30
0
 70
128
 71
7
 72
1
 73
3
 74
5
 0
SEQEND
 0
ENDSEC
 0
EOF
